  0
SECTION
  2
HEADER
  9
$ACADVER
  1
AC1009
  9
$INSBASE
 10
0.0
 20
0.0
 30
0.0
  9
$EXTMIN
 10
-0.2404492076231546
 20
-0.0224728153871205
 30
-0.0000000349181948
  9
$EXTMAX
 10
0.0596304840839856
 20
0.4720246439391889
 30
0.0000000814935746
  9
$LIMMIN
 10
0.0
 20
0.0
  9
$LIMMAX
 10
1.1999999999999991
 20
1.0
  9
$ORTHOMODE
 70
     0
  9
$REGENMODE
 70
     1
  9
$FILLMODE
 70
     1
  9
$QTEXTMODE
 70
     0
  9
$MIRRTEXT
 70
     1
  9
$DRAGMODE
 70
     2
  9
$LTSCALE
 40
1.0
  9
$OSMODE
 70
    19
  9
$ATTMODE
 70
     1
  9
$TEXTSIZE
 40
0.125
  9
$TRACEWID
 40
0.05
  9
$TEXTSTYLE
  7
STANDARD
  9
$CLAYER
  8
PART
  9
$CELTYPE
  6
BYLAYER
  9
$CECOLOR
 62
     1
  9
$DIMSCALE
 40
0.0
  9
$DIMASZ
 40
0.125
  9
$DIMEXO
 40
0.05
  9
$DIMDLI
 40
0.02
  9
$DIMRND
 40
0.0
  9
$DIMDLE
 40
0.0
  9
$DIMEXE
 40
0.05
  9
$DIMTP
 40
0.005
  9
$DIMTM
 40
0.005
  9
$DIMTXT
 40
0.125
  9
$DIMCEN
 40
0.02
  9
$DIMTSZ
 40
0.0
  9
$DIMTOL
 70
     0
  9
$DIMLIM
 70
     0
  9
$DIMTIH
 70
     1
  9
$DIMTOH
 70
     1
  9
$DIMSE1
 70
     0
  9
$DIMSE2
 70
     0
  9
$DIMTAD
 70
     0
  9
$DIMZIN
 70
     4
  9
$DIMBLK
  1

  9
$DIMASO
 70
     1
  9
$DIMSHO
 70
     1
  9
$DIMPOST
  1

  9
$DIMAPOST
  1

  9
$DIMALT
 70
     0
  9
$DIMALTD
 70
     1
  9
$DIMALTF
 40
25.399999999999999
  9
$DIMLFAC
 40
1.0
  9
$DIMTOFL
 70
     0
  9
$DIMTVP
 40
0.0
  9
$DIMTIX
 70
     0
  9
$DIMSOXD
 70
     0
  9
$DIMSAH
 70
     0
  9
$DIMBLK1
  1

  9
$DIMBLK2
  1

  9
$DIMSTYLE
  2
SCOTTG
  9
$DIMCLRD
 70
   256
  9
$DIMCLRE
 70
   256
  9
$DIMCLRT
 70
   256
  9
$DIMTFAC
 40
1.0
  9
$DIMGAP
 40
0.02
  9
$LUNITS
 70
     2
  9
$LUPREC
 70
     5
  9
$SKETCHINC
 40
0.1
  9
$FILLETRAD
 40
0.01
  9
$AUNITS
 70
     0
  9
$AUPREC
 70
     0
  9
$MENU
  1
.
  9
$ELEVATION
 40
0.0
  9
$PELEVATION
 40
0.0
  9
$THICKNESS
 40
0.0
  9
$LIMCHECK
 70
     0
  9
$BLIPMODE
 70
     0
  9
$CHAMFERA
 40
0.0
  9
$CHAMFERB
 40
0.0
  9
$SKPOLY
 70
     0
  9
$TDCREATE
 40
2450919.3750775461
  9
$TDUPDATE
 40
2455817.563002211
  9
$TDINDWG
 40
2.4029669791999999
  9
$TDUSRTIMER
 40
2.4029669791999999
  9
$USRTIMER
 70
     1
  9
$ANGBASE
 50
0.0
  9
$ANGDIR
 70
     0
  9
$PDMODE
 70
     0
  9
$PDSIZE
 40
0.0
  9
$PLINEWID
 40
0.0
  9
$COORDS
 70
     0
  9
$SPLFRAME
 70
     0
  9
$SPLINETYPE
 70
     6
  9
$SPLINESEGS
 70
     8
  9
$ATTDIA
 70
     0
  9
$ATTREQ
 70
     1
  9
$HANDLING
 70
     1
  9
$HANDSEED
  5
1A030
  9
$SURFTAB1
 70
     6
  9
$SURFTAB2
 70
     6
  9
$SURFTYPE
 70
     6
  9
$SURFU
 70
     6
  9
$SURFV
 70
     6
  9
$UCSNAME
  2

  9
$UCSORG
 10
0.0
 20
0.0
 30
0.0
  9
$UCSXDIR
 10
1.0
 20
0.0
 30
0.0
  9
$UCSYDIR
 10
0.0
 20
1.0
 30
0.0
  9
$PUCSNAME
  2

  9
$PUCSORG
 10
0.0
 20
0.0
 30
0.0
  9
$PUCSXDIR
 10
1.0
 20
0.0
 30
0.0
  9
$PUCSYDIR
 10
0.0
 20
1.0
 30
0.0
  9
$USERI1
 70
     0
  9
$USERI2
 70
     0
  9
$USERI3
 70
     0
  9
$USERI4
 70
     0
  9
$USERI5
 70
     0
  9
$USERR1
 40
0.0
  9
$USERR2
 40
0.0
  9
$USERR3
 40
0.0
  9
$USERR4
 40
0.0
  9
$USERR5
 40
0.0
  9
$WORLDVIEW
 70
     1
  9
$SHADEDGE
 70
     3
  9
$SHADEDIF
 70
    70
  9
$TILEMODE
 70
     1
  9
$MAXACTVP
 70
    48
  9
$PLIMCHECK
 70
     0
  9
$PEXTMIN
 10
-0.0005187750787954
 20
-0.0006714752008889
 30
-0.0000000349181948
  9
$PEXTMAX
 10
8.5005188542436301
 20
11.000671458440211
 30
0.0000000814935746
  9
$PLIMMIN
 10
0.0000001811605737
 20
-0.0000001192092895
  9
$PLIMMAX
 10
8.4999999408646811
 20
10.999999640494821
  9
$UNITMODE
 70
     0
  9
$VISRETAIN
 70
     1
  9
$PLINEGEN
 70
     0
  9
$PSLTSCALE
 70
     1
  0
ENDSEC
  0
SECTION
  2
TABLES
  0
TABLE
  2
VPORT
 70
     1
  0
VPORT
  2
*ACTIVE
 70
     0
 10
0.0
 20
0.0
 11
1.0
 21
1.0
 12
-19.812396407764929
 22
-0.4144019344370243
 13
0.0
 23
0.0
 14
0.5
 24
0.5
 15
0.5
 25
0.5
 16
0.0
 26
0.0
 36
5.6148375865943736
 17
19.721987045995348
 27
0.6391778487130584
 37
0.0
 40
0.4977471688070957
 41
2.072368421052631
 42
50.0
 43
0.0
 44
0.0
 50
0.0
 51
0.0
 71
     0
 72
 20000
 73
     1
 74
     0
 75
     0
 76
     0
 77
     0
 78
     0
  0
ENDTAB
  0
TABLE
  2
LTYPE
 70
     1
  0
LTYPE
  2
CONTINUOUS
 70
     0
  3
Solid line
 72
    65
 73
     0
 40
0.0
  0
ENDTAB
  0
TABLE
  2
LAYER
 70
     7
  0
LAYER
  2
0
 70
     0
 62
     7
  6
CONTINUOUS
  0
LAYER
  2
DEFPOINTS
 70
     0
 62
     7
  6
CONTINUOUS
  0
LAYER
  2
HATCH
 70
     0
 62
     7
  6
CONTINUOUS
  0
LAYER
  2
PART
 70
     0
 62
     7
  6
CONTINUOUS
  0
ENDTAB
  0
TABLE
  2
STYLE
 70
     3
  0
STYLE
  2
STANDARD
 70
     0
 40
0.0
 41
1.0
 50
0.0
 71
     0
 42
0.125
  3
txt
  4

  0
STYLE
  2
ROMANS
 70
     0
 40
0.0
 41
1.0
 50
0.0
 71
     0
 42
0.1
  3
SIMPLEX.shx
  4

  0
ENDTAB
  0
TABLE
  2
VIEW
 70
     0
  0
ENDTAB
  0
TABLE
  2
UCS
 70
     0
  0
ENDTAB
  0
TABLE
  2
APPID
 70
    17
  0
APPID
  2
ACAD
 70
     0
  0
APPID
  2
ADP_SK
 70
     0
  0
APPID
  2
ADP_SOL
 70
     0
  0
APPID
  2
ACIS_LNK
 70
     0
  0
APPID
  2
AME_SOL
 70
     0
  0
APPID
  2
ACAD_MLEADERVER
 70
     0
  0
APPID
  2
ACAD_EXEMPT_FROM_CAD_STANDARDS
 70
     0
  0
APPID
  2
ACAD_PSEXT
 70
     0
  0
APPID
  2
ACDBDYNAMICBLOCKGUID
 70
     0
  0
APPID
  2
ACDBBLOCKREPETAG
 70
     0
  0
APPID
  2
ACDBDYNAMICBLOCKTRUENAME
 70
     0
  0
APPID
  2
ACAD_DSTYLE_DIMJAG
 70
     0
  0
APPID
  2
ACAD_DSTYLE_DIMTALN
 70
     0
  0
APPID
  2
ACAECLAYERSTANDARD
 70
     0
  0
APPID
  2
ACAUTHENVIRON
 70
     0
  0
APPID
  2
ACADANNOPO
 70
     0
  0
APPID
  2
ACADSTRINGINFO
 70
     0
  0
ENDTAB
  0
TABLE
  2
DIMSTYLE
 70
     2
  0
DIMSTYLE
  2
SCOTTG
 70
     0
  3

  4

  5

  6

  7

 40
0.15
 41
0.125
 42
0.1
 43
0.25
 44
0.1
 45
0.0
 46
0.0
 47
0.01
 48
0.01
140
0.125
141
0.06
142
0.0
143
25.399999999999999
144
1.0
145
0.0
146
1.0
147
0.09
 71
     1
 72
     0
 73
     1
 74
     1
 75
     0
 76
     0
 77
     0
 78
     4
170
     0
171
     1
172
     0
173
     0
174
     1
175
     0
176
   256
177
   256
178
   256
  0
ENDTAB
  0
ENDSEC
  0
SECTION
  2
BLOCKS
  0
BLOCK
  8
0
  2
$MODEL_SPACE
 70
     0
 10
0.0
 20
0.0
 30
0.0
  3
$MODEL_SPACE
  1

  0
ENDBLK
  5
1A
  8
0
  0
BLOCK
 67
     1
  8
0
  2
$PAPER_SPACE
 70
     0
 10
0.0
 20
0.0
 30
0.0
  3
$PAPER_SPACE
  1

  0
ENDBLK
  5
B932
 67
     1
  8
0
  0
BLOCK
  8
0
 62
     1
  2
*U24
 70
     1
 10
0.0
 20
0.0
 30
0.0
  3
*U24
  1

  0
TEXT
  5
19F05
  8
PART
 10
-0.3733034910232481
 20
0.7141972627033814
 30
0.0
 40
0.0378374821074757
  1
.400
  7
ROMANS
  0
ENDBLK
  5
19F07
  8
0
 62
     1
  0
BLOCK
  8
0
 62
     1
  2
*U25
 70
     1
 10
0.0
 20
0.0
 30
0.0
  3
*U25
  1

  0
TEXT
  5
19F09
  8
PART
 10
-0.2841244632638552
 20
0.8031443739727691
 30
0.0
 40
0.0378374821074757
  1
.561
  7
ROMANS
  0
ENDBLK
  5
19F0B
  8
0
 62
     1
  0
BLOCK
  8
0
 62
     1
  2
*U26
 70
     1
 10
0.0
 20
0.0
 30
0.0
  3
*U26
  1

  0
TEXT
  5
19F0D
  8
PART
 10
-0.7225985692659322
 20
0.3060812574018382
 30
0.0
 40
0.0378374821074757
  1
.650
  7
ROMANS
  0
ENDBLK
  5
19F0F
  8
0
 62
     1
  0
BLOCK
  8
0
 62
     1
  2
*U27
 70
     1
 10
0.0
 20
0.0
 30
0.0
  3
*U27
  1

  0
TEXT
  5
19F11
  8
PART
 10
0.1457500447553917
 20
-0.4352694319903586
 30
0.0
 40
0.0378374821394327
  1
.018
  7
ROMANS
  0
ENDBLK
  5
19F13
  8
0
 62
     1
  0
BLOCK
  8
0
 62
     1
  2
*U28
 70
     1
 10
0.0
 20
0.0
 30
0.0
  3
*U28
  1

  0
TEXT
  5
19F15
  8
PART
 10
-0.0855716434774586
 20
-0.5545369172463596
 30
0.0
 40
0.0378374821394327
  1
.155
  7
ROMANS
  0
ENDBLK
  5
19F17
  8
0
 62
     1
  0
BLOCK
  8
0
 62
     1
  2
*U29
 70
     1
 10
0.0
 20
0.0
 30
0.0
  3
*U29
  1

  0
TEXT
  5
19F19
  8
PART
 10
0.1468273350806249
 20
-0.4926613062714235
 30
0.0
 40
0.0378374821394327
  1
.040
  7
ROMANS
  0
ENDBLK
  5
19F1B
  8
0
 62
     1
  0
BLOCK
  8
0
 62
     1
  2
*U30
 70
     1
 10
0.0
 20
0.0
 30
0.0
  3
*U30
  1

  0
TEXT
  5
19F1D
  8
PART
 10
-0.7225985693146287
 20
-0.1939187410697232
 30
0.0
 40
0.0378374821394327
  1
.350
  7
ROMANS
  0
ENDBLK
  5
19F1F
  8
0
 62
     1
  0
BLOCK
  8
0
 62
     1
  2
*U31
 70
     1
 10
0.0
 20
0.0
 30
0.0
  3
*U31
  1

  0
TEXT
  5
19F21
  8
PART
 10
-0.3754939488229078
 20
-0.229541701938869
 30
0.0
 40
0.0378374821394327
  1
.030
  7
ROMANS
  0
ENDBLK
  5
19F23
  8
0
 62
     1
  0
BLOCK
  8
0
 62
     1
  2
*U32
 70
     1
 10
0.0
 20
0.0
 30
0.0
  3
*U32
  1

  0
TEXT
  5
19F25
  8
PART
 10
-0.2079462264281474
 20
0.3460745370676188
 30
0.0
 40
0.0378374821074757
  1
.135
  7
ROMANS
  0
ENDBLK
  5
19F27
  8
0
 62
     1
  0
BLOCK
  8
0
 62
     1
  2
*X33
 70
     1
 10
0.0
 20
0.0
 30
0.0
  3
*X33
  1

  0
LINE
  5
19F29
  8
0
 62
     0
 10
0.2864666225812156
 20
0.4735023044476599
 30
0.0
 11
0.2809364945589427
 21
0.4941410231991421
 31
0.0
  0
LINE
  5
19F2A
  8
0
 62
     0
 10
0.2776277878163835
 20
0.4581929935552651
 30
0.0
 11
0.2710393305482639
 21
0.4827814508233841
 31
0.0
  0
LINE
  5
19F2B
  8
0
 62
     0
 10
0.2687889530515515
 20
0.4428836826628695
 30
0.0
 11
0.2622004957834316
 21
0.4674721399309894
 31
0.0
  0
LINE
  5
19F2C
  8
0
 62
     0
 10
0.2599501182867201
 20
0.4275743717704739
 30
0.0
 11
0.2533616610186002
 21
0.4521628290385947
 31
0.0
  0
LINE
  5
19F2D
  8
0
 62
     0
 10
0.2724925824105475
 20
0.3324689670937868
 30
0.0
 11
0.2687067514988957
 21
0.3465978804049357
 31
0.0
  0
LINE
  5
19F2E
  8
0
 62
     0
 10
0.2511112835218883
 20
0.4122650608780792
 30
0.0
 11
0.2445228262537682
 21
0.436853518146199
 31
0.0
  0
LINE
  5
19F2F
  8
0
 62
     0
 10
0.2985915464199706
 20
0.2350663073857078
 30
0.0
 11
0.2948057155083188
 21
0.2491952206968575
 31
0.0
  0
LINE
  5
19F30
  8
0
 62
     0
 10
0.2529779548180657
 20
0.3570022574452594
 30
0.0
 11
0.2504881326389277
 21
0.3662944003196156
 31
0.0
  0
LINE
  5
19F31
  8
0
 62
     0
 10
0.242272448757056
 20
0.3969557499856844
 30
0.0
 11
0.2356839914889364
 21
0.4215442072538034
 31
0.0
  0
LINE
  5
19F32
  8
0
 62
     0
 10
0.2926620196227119
 20
0.2088993113434645
 30
0.0
 11
0.2901721974435736
 21
0.2181914542178198
 31
0.0
  0
LINE
  5
19F33
  8
0
 62
     0
 10
0.2361278705548793
 20
0.3715913367128367
 30
0.0
 11
0.2268451567241048
 21
0.4062348963614087
 31
0.0
  0
LINE
  5
19F34
  8
0
 62
     0
 10
0.2849000111397806
 20
0.1895712300560923
 30
0.0
 11
0.2828741360495339
 21
0.1971318988226809
 31
0.0
  0
LINE
  5
19F35
  8
0
 62
     0
 10
0.2204858796947466
 20
0.381671750019926
 30
0.0
 11
0.2169873893179284
 21
0.3947282938560024
 31
0.0
  0
LINE
  5
19F36
  8
0
 62
     0
 10
0.2761432408524937
 20
0.1739556503640021
 30
0.0
 11
0.2743679812524395
 21
0.1805810093880291
 31
0.0
  0
LINE
  5
19F37
  8
0
 62
     0
 10
0.2056139341766709
 20
0.388878314986326
 30
0.0
 11
0.2039929224477459
 21
0.3949280131183395
 31
0.0
  0
LINE
  5
19F38
  8
0
 62
     0
 10
0.2667090346084249
 20
0.1608682960814969
 30
0.0
 11
0.2650917811132882
 21
0.1669039682940649
 31
0.0
  0
LINE
  5
19F39
  8
0
 62
     0
 10
0.1913092150604132
 20
0.3939679622017493
 30
0.0
 11
0.1897619193948572
 21
0.399742548239935
 31
0.0
  0
LINE
  5
19F3A
  8
0
 62
     0
 10
0.2567580269686276
 20
0.1497096708652741
 30
0.0
 11
0.2552483545723199
 21
0.1553438449510791
 31
0.0
  0
LINE
  5
19F3B
  8
0
 62
     0
 10
0.1774590503251197
 20
0.3973611893726101
 30
0.0
 11
0.1759682700932053
 21
0.4029248569410342
 31
0.0
  0
LINE
  5
19F3C
  8
0
 62
     0
 10
0.2463839096158671
 20
0.1401301125950045
 30
0.0
 11
0.2449503736503864
 21
0.145480141652655
 31
0.0
  0
LINE
  5
19F3D
  8
0
 62
     0
 10
0.1639944407156766
 20
0.3993155052246786
 30
0.0
 11
0.1625487134106018
 21
0.4047110329811066
 31
0.0
  0
LINE
  5
19F3E
  8
0
 62
     0
 10
0.2356458237508596
 20
0.1319089033047955
 30
0.0
 11
0.2342668376026027
 21
0.1370553496730249
 31
0.0
  0
LINE
  5
19F3F
  8
0
 62
     0
 10
0.1508709107414783
 20
0.399996894548587
 30
0.0
 11
0.1494620916353533
 21
0.4052546790313185
 31
0.0
  0
LINE
  5
19F40
  8
0
 62
     0
 10
0.2245826630515846
 20
0.1249008898123369
 30
0.0
 11
0.2232422219195749
 21
0.1299034842215523
 31
0.0
  0
LINE
  5
19F41
  8
0
 62
     0
 10
0.1380593656671623
 20
0.3995139403749386
 30
0.0
 11
0.1366813650863612
 21
0.4046567085553479
 31
0.0
  0
LINE
  5
19F42
  8
0
 62
     0
 10
0.213220218771734
 20
0.1190098178484558
 30
0.0
 11
0.2119056213366637
 21
0.1239159622676373
 31
0.0
  0
LINE
  5
19F43
  8
0
 62
     0
 10
0.1255413290399547
 20
0.3979355977642314
 30
0.0
 11
0.1241893893291637
 21
0.4029811054536739
 31
0.0
  0
LINE
  5
19F44
  8
0
 62
     0
 10
0.201575018685586
 20
0.1141740049198114
 30
0.0
 11
0.2002755123066442
 21
0.1190238287507821
 31
0.0
  0
LINE
  5
19F45
  8
0
 62
     0
 10
0.1133063826119491
 20
0.3953007481469797
 30
0.0
 11
0.1119766296109825
 21
0.4002634539081038
 31
0.0
  0
LINE
  5
19F46
  8
0
 62
     0
 10
0.1906325675898863
 20
0.1067154970538473
 30
0.0
 11
0.1883623130774239
 21
0.1151882022404704
 31
0.0
  0
LINE
  5
19F47
  8
0
 62
     0
 10
0.1013508740421785
 20
0.391623022245235
 30
0.0
 11
0.1000400153215661
 21
0.3965152135921039
 31
0.0
  0
LINE
  5
19F48
  8
0
 62
     0
 10
0.1778728420128219
 20
0.1060391498836344
 30
0.0
 11
0.1761696759899674
 21
0.1123954520146526
 31
0.0
  0
LINE
  5
19F49
  8
0
 62
     0
 10
0.0896774889258096
 20
0.3868923972813878
 30
0.0
 11
0.087928675527508
 21
0.3934190577368071
 31
0.0
  0
LINE
  5
19F4A
  8
0
 62
     0
 10
0.1638705832149097
 20
0.1099999998237182
 30
0.0
 11
0.1636949154491092
 21
0.1106556008509374
 31
0.0
  0
LINE
  5
19F4B
  8
0
 62
     0
 10
0.0782955642310466
 20
0.3810740272157149
 30
0.0
 11
0.0703023053750758
 21
0.4109052753842475
 31
0.0
  0
LINE
  5
19F4C
  8
0
 62
     0
 10
0.1509296309597838
 20
0.1099999998237182
 30
0.0
 11
0.1509286944866464
 21
0.1100034947890478
 31
0.0
  0
LINE
  5
19F4D
  8
0
 62
     0
 10
0.0672222326346792
 20
0.3741039720279602
 30
0.0
 11
0.0461541597178505
 21
0.4527310905711311
 31
0.0
  0
LINE
  5
19F4E
  8
0
 62
     0
 10
0.137988678704658
 20
0.1099999998237164
 30
0.0
 11
0.1378538804257865
 21
0.1105030738492374
 31
0.0
  0
LINE
  5
19F4F
  8
0
 62
     0
 10
0.0564847488440903
 20
0.3658805157654319
 30
0.0
 11
0.0550606693622515
 21
0.3711952527456708
 31
0.0
  0
LINE
  5
19F50
  8
0
 62
     0
 10
0.0400060140606229
 20
0.4273799912217849
 30
0.0
 11
0.022598130275562
 21
0.492347097959887
 31
0.0
  0
LINE
  5
19F51
  8
0
 62
     0
 10
0.1253637534819076
 20
0.1088205708823251
 30
0.0
 11
0.1244432185591486
 21
0.1122560539842032
 31
0.0
  0
LINE
  5
19F52
  8
0
 62
     0
 10
0.0461248236280321
 20
0.3562479917199228
 30
0.0
 11
0.0446283629281215
 21
0.3618328590835196
 31
0.0
  0
LINE
  5
19F53
  8
0
 62
     0
 10
0.0158578684033977
 20
0.4692058064086711
 30
0.0
 11
0.0099904444399439
 21
0.4911033307498274
 31
0.0
  0
LINE
  5
19F54
  8
0
 62
     0
 10
0.115026767292181
 20
0.0991024372250706
 30
0.0
 11
0.1106549981179805
 21
0.1154181019021498
 31
0.0
  0
LINE
  5
19F55
  8
0
 62
     0
 10
0.0362068729726775
 20
0.344965996158213
 30
0.0
 11
0.0346084880699982
 21
0.350931249825063
 31
0.0
  0
LINE
  5
19F56
  8
0
 62
     0
 10
0.0980231880187874
 20
0.1142643676694455
 30
0.0
 11
0.0964248031161084
 21
0.1202296213362954
 31
0.0
  0
LINE
  5
19F57
  8
0
 62
     0
 10
0.0268350111249518
 20
0.3316459694209879
 30
0.0
 11
0.0250880959011963
 21
0.3381655457925587
 31
0.0
  0
LINE
  5
19F58
  8
0
 62
     0
 10
0.0833954345303623
 20
0.1205595955743881
 30
0.0
 11
0.0816485193066068
 21
0.127079171945959
 31
0.0
  0
LINE
  5
19F59
  8
0
 62
     0
 10
0.0181931844413979
 20
0.3156014143597634
 30
0.0
 11
0.0162142090766224
 21
0.3229870509680328
 31
0.0
  0
LINE
  5
19F5A
  8
0
 62
     0
 10
0.06812117569771
 20
0.1292676142713516
 30
0.0
 11
0.0661422003329346
 21
0.1366532508796201
 31
0.0
  0
LINE
  5
19F5B
  8
0
 62
     0
 10
0.0106645083583548
 20
0.2954025247009539
 30
0.0
 11
0.0082693984558737
 21
0.3043411965467246
 31
0.0
  0
LINE
  5
19F5C
  8
0
 62
     0
 10
0.0519178406612317
 20
0.1414429925650946
 30
0.0
 11
0.0495227307587507
 21
0.1503816644108653
 31
0.0
  0
LINE
  5
19F5D
  8
0
 62
     0
 10
0.0053993184372767
 20
0.2667561896834636
 30
0.0
 11
0.0019547894374097
 21
0.2796113469191113
 31
0.0
  0
LINE
  5
19F5E
  8
0
 62
     0
 10
0.0340843040224688
 20
0.1597023660651455
 30
0.0
 11
0.0306397750226017
 21
0.1725575233007941
 31
0.0
  0
LINE
  5
19F5F
  8
0
 62
     0
 10
0.0102954964689066
 20
0.2001871131920661
 30
0.0
 11
0.0015954513337459
 21
0.2326561236646283
 31
0.0
  0
ENDBLK
  5
19F61
  8
0
 62
     1
  0
BLOCK
  8
0
 62
     1
  2
*X34
 70
     1
 10
0.0
 20
0.0
 30
0.0
  3
*X34
  1

  0
LINE
  5
19F7D
  8
0
 62
     0
 10
0.2141455252378184
 20
-0.000000000176283
 30
0.0
 11
0.2398259465310843
 21
0.0256804211169834
 31
0.0
  0
LINE
  5
19F7E
  8
0
 62
     0
 10
0.1699513514136588
 20
-0.0000000001762825
 30
0.0
 11
0.1979513514136593
 21
0.0279999998237179
 31
0.0
  0
LINE
  5
19F7F
  8
0
 62
     0
 10
0.1257571775894992
 20
-0.000000000176283
 30
0.0
 11
0.1899219533426164
 21
0.0641647755768342
 31
0.0
  0
LINE
  5
19F80
  8
0
 62
     0
 10
0.1099219533426154
 20
0.0283589494009919
 30
0.0
 11
0.1827401560153112
 21
0.1011771520736882
 31
0.0
  0
LINE
  5
19F81
  8
0
 62
     0
 10
0.0815630037653406
 20
-0.0000000001762825
 30
0.0
 11
0.109563003765341
 21
0.0279999998237175
 31
0.0
  0
LINE
  5
19F82
  8
0
 62
     0
 10
0.1099219533426159
 20
0.072553123225152
 30
0.0
 11
0.1473688299411799
 21
0.1099999998237164
 31
0.0
  0
LINE
  5
19F83
  8
0
 62
     0
 10
0.0564843695644015
 20
0.019115539446938
 30
0.0
 11
0.0653064137193948
 21
0.0279375836019309
 31
0.0
  0
ENDBLK
  5
19F85
  8
0
 62
     1
  0
BLOCK
  8
0
 62
     1
  2
*X35
 70
     1
 10
0.0
 20
0.0
 30
0.0
  3
*X35
  1

  0
LINE
  5
19F9B
  8
0
 62
     0
 10
0.0461560477265795
 20
0.4510844391351654
 30
0.0
 11
0.0406259197043069
 21
0.4717231578866468
 31
0.0
  0
LINE
  5
19F9C
  8
0
 62
     0
 10
0.0373172129617476
 20
0.4357751282427698
 30
0.0
 11
0.0307287556936278
 21
0.4603635855108897
 31
0.0
  0
LINE
  5
19F9D
  8
0
 62
     0
 10
0.0284783781969156
 20
0.4204658173503742
 30
0.0
 11
0.0218899209287957
 21
0.445054274618494
 31
0.0
  0
LINE
  5
19F9E
  8
0
 62
     0
 10
0.0196395434320842
 20
0.4051565064579786
 30
0.0
 11
0.0130510861639643
 21
0.4297449637260993
 31
0.0
  0
LINE
  5
19F9F
  8
0
 62
     0
 10
0.0321820075559116
 20
0.3100511017812915
 30
0.0
 11
0.0283961766442598
 21
0.3241800150924403
 31
0.0
  0
LINE
  5
19FA0
  8
0
 62
     0
 10
0.0108007086672524
 20
0.3898471955655838
 30
0.0
 11
0.0042122513991323
 21
0.4144356528337037
 31
0.0
  0
LINE
  5
19FA1
  8
0
 62
     0
 10
0.0582809715653348
 20
0.2126484420732124
 30
0.0
 11
0.0544951406536829
 21
0.2267773553843622
 31
0.0
  0
LINE
  5
19FA2
  8
0
 62
     0
 10
0.0126673799634298
 20
0.3345843921327649
 30
0.0
 11
0.0101775577842918
 21
0.3438765350071211
 31
0.0
  0
LINE
  5
19FA3
  8
0
 62
     0
 10
0.0019618739024201
 20
0.3745378846731899
 30
0.0
 11
-0.0046265833656998
 21
0.3991263419413098
 31
0.0
  0
LINE
  5
19FA4
  8
0
 62
     0
 10
0.052351444768076
 20
0.18648144603097
 30
0.0
 11
0.0498616225889377
 21
0.1957735889053254
 31
0.0
  0
LINE
  5
19FA5
  8
0
 62
     0
 10
-0.0041827042997566
 20
0.3491734714003414
 30
0.0
 11
-0.0134654181305312
 21
0.3838170310489133
 31
0.0
  0
LINE
  5
19FA6
  8
0
 62
     0
 10
0.0445894362851447
 20
0.167153364743597
 30
0.0
 11
0.042563561194898
 21
0.1747140335101855
 31
0.0
  0
LINE
  5
19FA7
  8
0
 62
     0
 10
-0.0198246951598893
 20
0.3592538847074307
 30
0.0
 11
-0.0233231855367075
 21
0.372310428543507
 31
0.0
  0
LINE
  5
19FA8
  8
0
 62
     0
 10
0.0358326659978578
 20
0.1515377850515067
 30
0.0
 11
0.0340574063978036
 21
0.1581631440755338
 31
0.0
  0
LINE
  5
19FA9
  8
0
 62
     0
 10
-0.034696640677965
 20
0.3664604496738315
 30
0.0
 11
-0.03631765240689
 21
0.372510147805845
 31
0.0
  0
LINE
  5
19FAA
  8
0
 62
     0
 10
0.026398459753789
 20
0.1384504307690024
 30
0.0
 11
0.0247812062586523
 21
0.1444861029815705
 31
0.0
  0
LINE
  5
19FAB
  8
0
 62
     0
 10
-0.0490013597942227
 20
0.371550096889254
 30
0.0
 11
-0.0505486554597787
 21
0.3773246829274397
 31
0.0
  0
LINE
  5
19FAC
  8
0
 62
     0
 10
0.0164474521139917
 20
0.1272918055527787
 30
0.0
 11
0.014937779717684
 21
0.1329259796385838
 31
0.0
  0
LINE
  5
19FAD
  8
0
 62
     0
 10
-0.0628515245295163
 20
0.3749433240601148
 30
0.0
 11
-0.0643423047614307
 21
0.3805069916285388
 31
0.0
  0
LINE
  5
19FAE
  8
0
 62
     0
 10
0.0060733347612312
 20
0.1177122472825092
 30
0.0
 11
0.0046397987957505
 21
0.1230622763401596
 31
0.0
  0
LINE
  5
19FAF
  8
0
 62
     0
 10
-0.0763161341389593
 20
0.3768976399121833
 30
0.0
 11
-0.0777618614440341
 21
0.3822931676686112
 31
0.0
  0
LINE
  5
19FB0
  8
0
 62
     0
 10
-0.0046647511037763
 20
0.1094910379923002
 30
0.0
 11
-0.0060437372520332
 21
0.1146374843605296
 31
0.0
  0
LINE
  5
19FB1
  8
0
 62
     0
 10
-0.0894396641131577
 20
0.3775790292360917
 30
0.0
 11
-0.0908484832192826
 21
0.3828368137188232
 31
0.0
  0
LINE
  5
19FB2
  8
0
 62
     0
 10
-0.0157279118030513
 20
0.1024830244998416
 30
0.0
 11
-0.0170683529350611
 21
0.1074856189090569
 31
0.0
  0
LINE
  5
19FB3
  8
0
 62
     0
 10
-0.1022512091874737
 20
0.3770960750624432
 30
0.0
 11
-0.1036292097682747
 21
0.3822388432428525
 31
0.0
  0
LINE
  5
19FB4
  8
0
 62
     0
 10
-0.0270903560829019
 20
0.0965919525359604
 30
0.0
 11
-0.0284049535179722
 21
0.101498096955142
 31
0.0
  0
LINE
  5
19FB5
  8
0
 62
     0
 10
-0.1147692458146812
 20
0.375517732451736
 30
0.0
 11
-0.1161211855254722
 21
0.3805632401411785
 31
0.0
  0
LINE
  5
19FB6
  8
0
 62
     0
 10
-0.0387355561690499
 20
0.0917561396073161
 30
0.0
 11
-0.0400350625479917
 21
0.0966059634382868
 31
0.0
  0
LINE
  5
19FB7
  8
0
 62
     0
 10
-0.1270041922426868
 20
0.3728828828344843
 30
0.0
 11
-0.1283339452436534
 21
0.3778455885956085
 31
0.0
  0
LINE
  5
19FB8
  8
0
 62
     0
 10
-0.0496780072647496
 20
0.084297631741352
 30
0.0
 11
-0.051948261777212
 21
0.0927703369279751
 31
0.0
  0
LINE
  5
19FB9
  8
0
 62
     0
 10
-0.1389597008124574
 20
0.3692051569327397
 30
0.0
 11
-0.1402705595330698
 21
0.3740973482796086
 31
0.0
  0
LINE
  5
19FBA
  8
0
 62
     0
 10
-0.062437732841814
 20
0.0836212845711391
 30
0.0
 11
-0.0641408988646686
 21
0.0899775867021573
 31
0.0
  0
LINE
  5
19FBB
  8
0
 62
     0
 10
-0.1506330859288263
 20
0.3644745319688925
 30
0.0
 11
-0.152381899327128
 21
0.3710011924243117
 31
0.0
  0
LINE
  5
19FBC
  8
0
 62
     0
 10
-0.0764399916397263
 20
0.0875821345112229
 30
0.0
 11
-0.0766156594055267
 21
0.0882377355384421
 31
0.0
  0
LINE
  5
19FBD
  8
0
 62
     0
 10
-0.1620150106235894
 20
0.3586561619032187
 30
0.0
 11
-0.1700082694795602
 21
0.3884874100717512
 31
0.0
  0
LINE
  5
19FBE
  8
0
 62
     0
 10
-0.0893809438948521
 20
0.087582134511222
 30
0.0
 11
-0.0893818803679896
 21
0.0875856294765516
 31
0.0
  0
LINE
  5
19FBF
  8
0
 62
     0
 10
-0.1730883422199567
 20
0.3516861067154648
 30
0.0
 11
-0.1941564151367854
 21
0.4303132252586357
 31
0.0
  0
LINE
  5
19FC0
  8
0
 62
     0
 10
-0.1023218961499779
 20
0.0875821345112211
 30
0.0
 11
-0.1024566944288494
 21
0.0880852085367421
 31
0.0
  0
LINE
  5
19FC1
  8
0
 62
     0
 10
-0.1838258260105456
 20
0.3434626504529366
 30
0.0
 11
-0.1852499054923844
 21
0.3487773874331754
 31
0.0
  0
LINE
  5
19FC2
  8
0
 62
     0
 10
-0.200304560794013
 20
0.4049621259092895
 30
0.0
 11
-0.2177124445790739
 21
0.4699292326473917
 31
0.0
  0
LINE
  5
19FC3
  8
0
 62
     0
 10
-0.1149468213727283
 20
0.0864027055698298
 30
0.0
 11
-0.1158673562954873
 21
0.0898381886717079
 31
0.0
  0
LINE
  5
19FC4
  8
0
 62
     0
 10
-0.1941857512266039
 20
0.3338301264074266
 30
0.0
 11
-0.1956822119265145
 21
0.3394149937710233
 31
0.0
  0
LINE
  5
19FC5
  8
0
 62
     0
 10
-0.2244527064512383
 20
0.4467879410961749
 30
0.0
 11
-0.230320130414692
 21
0.4686854654373312
 31
0.0
  0
LINE
  5
19FC6
  8
0
 62
     0
 10
-0.1252838075624549
 20
0.0766845719125744
 30
0.0
 11
-0.1296555767366554
 21
0.0930002365896536
 31
0.0
  0
LINE
  5
19FC7
  8
0
 62
     0
 10
-0.2041037018819585
 20
0.3225481308457176
 30
0.0
 11
-0.2057020867846377
 21
0.3285133845125676
 31
0.0
  0
LINE
  5
19FC8
  8
0
 62
     0
 10
-0.1422873868358485
 20
0.0918465023569502
 30
0.0
 11
-0.1438857717385276
 21
0.0978117560238001
 31
0.0
  0
LINE
  5
19FC9
  8
0
 62
     0
 10
-0.2134755637296841
 20
0.3092281041084925
 30
0.0
 11
-0.2152224789534396
 21
0.3157476804800634
 31
0.0
  0
LINE
  5
19FCA
  8
0
 62
     0
 10
-0.1569151403242737
 20
0.0981417302618928
 30
0.0
 11
-0.1586620555480291
 21
0.1046613066334636
 31
0.0
  0
LINE
  5
19FCB
  8
0
 62
     0
 10
-0.2221173904132381
 20
0.2931835490472681
 30
0.0
 11
-0.2240963657780135
 21
0.3005691856555375
 31
0.0
  0
LINE
  5
19FCC
  8
0
 62
     0
 10
-0.1721893991569259
 20
0.1068497489588562
 30
0.0
 11
-0.1741683745217013
 21
0.1142353855671248
 31
0.0
  0
LINE
  5
19FCD
  8
0
 62
     0
 10
-0.2296460664962812
 20
0.2729846593884586
 30
0.0
 11
-0.2320411763987622
 21
0.2819233312342293
 31
0.0
  0
LINE
  5
19FCE
  8
0
 62
     0
 10
-0.1883927341934042
 20
0.1190251272525993
 30
0.0
 11
-0.1907878440958852
 21
0.12796379909837
 31
0.0
  0
LINE
  5
19FCF
  8
0
 62
     0
 10
-0.2349112564173592
 20
0.2443383243709682
 30
0.0
 11
-0.2383557854172262
 21
0.2571934816066159
 31
0.0
  0
LINE
  5
19FD0
  8
0
 62
     0
 10
-0.2062262708321672
 20
0.1372845007526502
 30
0.0
 11
-0.2096707998320342
 21
0.1501396579882988
 31
0.0
  0
LINE
  5
19FD1
  8
0
 62
     0
 10
-0.2300150783857293
 20
0.1777692478795707
 30
0.0
 11
-0.23871512352089
 21
0.2102382583521329
 31
0.0
  0
ENDBLK
  5
19FD3
  8
0
 62
     1
  0
BLOCK
  8
0
 62
     1
  2
*X36
 70
     1
 10
0.0
 20
0.0
 30
0.0
  3
*X36
  1

  0
LINE
  5
19FEF
  8
0
 62
     0
 10
-0.0261650496168175
 20
-0.0224178654887783
 30
0.0
 11
-0.0004846283235516
 21
0.0032625558044881
 31
0.0
  0
LINE
  5
19FF0
  8
0
 62
     0
 10
-0.0703592234409771
 20
-0.0224178654887779
 30
0.0
 11
-0.0423592234409767
 21
0.0055821345112226
 31
0.0
  0
LINE
  5
19FF1
  8
0
 62
     0
 10
-0.1145533972651367
 20
-0.0224178654887783
 30
0.0
 11
-0.0503886215120186
 21
0.0417469102643398
 31
0.0
  0
LINE
  5
19FF2
  8
0
 62
     0
 10
-0.1303886215120205
 20
0.0059410840884966
 30
0.0
 11
-0.0575704188393247
 21
0.0787592867611928
 31
0.0
  0
LINE
  5
19FF3
  8
0
 62
     0
 10
-0.1587475710892954
 20
-0.0224178654887779
 30
0.0
 11
-0.1307475710892949
 21
0.0055821345112221
 31
0.0
  0
LINE
  5
19FF4
  8
0
 62
     0
 10
-0.13038862151202
 20
0.0501352579126566
 30
0.0
 11
-0.0929417449134555
 21
0.0875821345112216
 31
0.0
  0
LINE
  5
19FF5
  8
0
 62
     0
 10
-0.1838262052902344
 20
-0.0033023258655573
 30
0.0
 11
-0.1750041611352411
 21
0.0055197182894355
 31
0.0
  0
ENDBLK
  5
19FF7
  8
0
 62
     1
  0
BLOCK
  8
0
 62
     1
  2
*U37
 70
     1
 10
0.0
 20
0.0
 30
0.0
  3
*U37
  1

  0
TEXT
  5
1A00D
  8
PART
 10
-0.1149892274109297
 20
-0.0583731396939689
 30
0.0
 40
0.0172204241292372
  1
.187
  7
ROMANS
  0
ENDBLK
  5
1A00F
  8
0
 62
     1
  0
BLOCK
  8
0
 62
     1
  2
*U38
 70
     1
 10
0.0
 20
0.0
 30
0.0
  3
*U38
  1

  0
TEXT
  5
1A011
  8
PART
 10
-0.2567424269604088
 20
-0.0170280775533965
 30
0.0
 40
0.0172204241292372
  1
.028
  7
ROMANS
  0
ENDBLK
  5
1A013
  8
0
 62
     1
  0
BLOCK
  8
0
 62
     1
  2
*U39
 70
     1
 10
0.0
 20
0.0
 30
0.0
  3
*U39
  1

  0
TEXT
  5
1A015
  8
PART
 10
0.0708355472628833
 20
0.1715996224023303
 30
0.0
 40
0.0172204241292372
  1
.405
  7
ROMANS
  0
ENDBLK
  5
1A017
  8
0
 62
     1
  0
BLOCK
  8
0
 62
     1
  2
*U40
 70
     1
 10
0.0
 20
0.0
 30
0.0
  3
*U40
  1

  0
TEXT
  5
1A019
  8
PART
 10
0.1084843868811739
 20
0.2161533011499335
 30
0.0
 40
0.0172204241292372
  1
.494
  7
ROMANS
  0
ENDBLK
  5
1A01B
  8
0
 62
     1
  0
BLOCK
  8
0
 62
     1
  2
*U41
 70
     1
 10
0.0
 20
0.0
 30
0.0
  3
*U41
  1

  0
TEXT
  5
1A01D
  8
PART
 10
-0.1557310308871228
 20
0.4586289053330713
 30
0.0
 40
0.0172204241292372
  1
.018
  7
ROMANS
  0
ENDBLK
  5
1A01F
  8
0
 62
     1
  0
BLOCK
  8
0
 62
     1
  2
*U42
 70
     1
 10
0.0
 20
0.0
 30
0.0
  3
*U42
  1

  0
TEXT
  5
1A021
  8
PART
 10
-0.0436202352004429
 20
0.428140879987675
 30
0.0
 40
0.0172204241292372
  1
.125
  7
ROMANS
  0
ENDBLK
  5
1A023
  8
0
 62
     1
  0
BLOCK
  8
0
 62
     1
  2
*U43
 70
     1
 10
0.0
 20
0.0
 30
0.0
  3
*U43
  1

  0
TEXT
  5
1A025
  8
PART
 10
-0.1170392779025075
 20
0.4904395579977323
 30
0.0
 40
0.0172204241292372
  1
.284
  7
ROMANS
  0
ENDBLK
  5
1A027
  8
0
 62
     1
  0
BLOCK
  8
0
 62
     1
  2
*U44
 70
     1
 10
0.0
 20
0.0
 30
0.0
  3
*U44
  1

  0
TEXT
  5
1A029
  8
PART
 10
-0.1166292678041925
 20
0.5142048745792534
 30
0.0
 40
0.0172204241292372
  1
.300
  7
ROMANS
  0
ENDBLK
  5
1A02B
  8
0
 62
     1
  0
BLOCK
  8
0
 62
     1
  2
*U45
 70
     1
 10
0.0
 20
0.0
 30
0.0
  3
*U45
  1

  0
TEXT
  5
1A02D
  8
PART
 10
-0.0131925053928664
 20
0.0298980361802532
 30
0.0
 40
0.0172204241292372
  1
.080
  7
ROMANS
  0
ENDBLK
  5
1A02F
  8
0
 62
     1
  0
ENDSEC
  0
SECTION
  2
ENTITIES
  0
INSERT
  5
19D87
  8
HATCH
  6
CONTINUOUS
  2
*X35
 10
0.0
 20
0.0
 30
0.0
1001
ACAD
1000
HATCH
1002
{
1070
    19
1000
ANSI31
1040
0.1
1040
1.047197551196597
1000
ASC_BOUNDS
1070
     2
1070
     2
1070
     1
1005
19D8C
1070
     2
1070
     1
1005
19D8B
1000
ASC_SEEDPOINT
1011
-0.9467090115930343
1021
0.0
1031
0.0
1021
-5.3875350362572574
1031
0.0
1000
R14_HATCH_DATA
1000
19D87
1011
1.0
1021
0.0
1031
0.0
1021
0.0
1031
0.0
1011
0.0
1021
0.0
1031
0.0
1021
1.0
1031
0.0
1011
0.0
1021
0.0
1031
0.0
1021
0.0
1031
1.0
1040
0.0
1010
0.0
1020
0.0
1030
1.0
1000
ANSI31
1070
     0
1070
     1
1071
        2
1071
       16
1071
        1
1070
     2
1040
-0.0903886215120213
1040
0.2325821345112209
1040
0.145
1040
0.0
1040
6.2831853071795862
1070
     1
1071
        1
1005
19D8B
1071
        1
1071
       24
1070
     1
1040
-0.1303886215120205
1040
0.0674399988874914
1040
-0.1274596893238868
1040
0.0745110666993567
1070
     1
1040
-0.1274596893238868
1040
0.0745110666993567
1040
-0.1173064641135486
1040
0.0846532023230877
1070
     2
1040
-0.1102353963016852
1040
0.0775821345112242
1040
0.0099999999999971
1040
3.9269908169872489
1040
4.7123889803847891
1070
     0
1070
     1
1040
-0.1102353963016842
1040
0.0875821345112213
1040
-0.0705418467223549
1040
0.0875821345112222
1070
     2
1040
-0.070541846722355
1040
0.0775821345112242
1040
0.009999999999998
1040
4.7123889803847003
1040
5.4977871437822081
1070
     0
1070
     1
1040
-0.0634707789104905
1040
0.0846532023230877
1040
-0.0533175537001558
1040
0.0745110666993567
1070
     1
1040
-0.0533175537001558
1040
0.0745110666993567
1040
-0.0503886215120222
1040
0.0674399988874923
1070
     1
1040
-0.0503886215120222
1040
0.0674399988874923
1040
-0.0503886215120222
1040
0.0805952929755149
1070
     2
1040
-0.040388621512022
1040
0.0805952929755141
1040
0.0100000000000002
1040
3.141592653589881
1040
4.3945652764568868
1070
     0
1070
     2
1040
-0.0903886215120223
1040
0.2325821345112209
1040
0.1499999999999999
1040
5.030212684312577
1040
7.1844104698319784
1070
     1
1070
     2
1040
0.0120185953412825
1040
0.3619566371628651
1040
0.0150000000000007
1040
2.2403674909374991
1040
3.6651914291881762
1070
     0
1070
     1
1040
-0.0009717857154836
1040
0.3694566371628662
1040
0.0504056071220394
1040
0.458444891917883
1070
     2
1040
0.0426113784879796
1040
0.4629448919178831
1040
0.0089999999999999
1040
5.7595865315812604
1040
8.9011791851711397
1070
     1
1070
     1
1040
0.0348171498539198
1040
0.4674448919178824
1040
-0.0165602429836032
1040
0.3784566371628666
1070
     2
1040
-0.0295506240403699
1040
0.3859566371628678
1040
0.0150000000000008
1040
0.5235987755983605
1040
1.948422713849004
1070
     0
1070
     2
1040
-0.0903886215120213
1040
0.2361244923563117
1040
0.1467130420663641
1040
1.184267266942336
1040
1.957325386647456
1070
     1
1070
     2
1040
-0.151226618983671
1040
0.3859566371628651
1040
0.0149999999999978
1040
1.1931699397408331
1040
2.6179938779915259
1070
     0
1070
     1
1040
-0.1642170000404359
1040
0.3784566371628666
1040
-0.2155943928779624
1040
0.4674448919178824
1070
     2
1040
-0.2233886215120222
1040
0.4629448919178822
1040
0.0089999999999999
1040
0.5235987755983255
1040
3.665191429188118
1070
     1
1070
     1
1040
-0.231182850146082
1040
0.4584448919178821
1040
-0.1798054573085555
1040
0.3694566371628662
1070
     2
1040
-0.1927958383653228
1040
0.3619566371628669
1040
0.0150000000000003
1040
5.7595865315813457
1040
7.184410469832037
1070
     0
1070
     2
1040
-0.0903886215120208
1040
0.2325821345112209
1040
0.15
1040
2.2403674909373952
1040
4.3945652764568042
1070
     1
1070
     2
1040
-0.1403886215120207
1040
0.0805952929755141
1040
0.0100000000000004
1040
5.0302126843124908
1040
6.2831853071794974
1070
     0
1070
     1
1040
-0.1303886215120205
1040
0.0805952929755149
1040
-0.1303886215120205
1040
0.0674399988874914
1071
        1
1005
19D8C
1070
     0
1070
     1
1040
1.047197551196597
1040
0.1
1070
     0
1070
     1
1040
1.832595714594045
1040
-0.9865792637142938
1040
-5.4022494620021746
1040
-0.0120740728286134
1040
-0.0032352380637815
1070
     0
1071
        1
1040
-0.9467090115930343
1040
-5.3875350362572574
1040
0.0
1002
}
  0
CIRCLE
  5
19D88
  8
HATCH
 10
-0.0019784927734232
 20
0.2963047571364152
 30
0.0
 40
0.009
  0
CIRCLE
  5
19D89
  8
HATCH
 10
-0.0877621788419862
 20
0.2975169089352543
 30
0.0
 40
0.0045
  0
CIRCLE
  5
19D8A
  8
HATCH
 10
-0.2061056032677353
 20
0.295330711487978
 30
0.0
 40
0.0045
  0
CIRCLE
  5
19D8B
  8
PART
 10
-0.0903886215120213
 20
0.2325821345112209
 30
0.0
 40
0.145
1001
ACAD
1000
ASC_BOUNDS
1002
{
1070
    19
1005
19D87
1002
}
  0
POLYLINE
  5
19D8C
  8
PART
 66
     1
 10
0.0
 20
0.0
 30
0.0
 70
     1
1001
ACAD
1000
ASC_BOUNDS
1002
{
1070
    19
1005
19D87
1002
}
  0
VERTEX
  5
19FD4
  8
PART
 10
-0.1303886215120205
 20
0.0674399988874914
 30
0.0
  0
VERTEX
  5
19FD5
  8
PART
 10
-0.1274596893238868
 20
0.0745110666993567
 30
0.0
  0
VERTEX
  5
19FD6
  8
PART
 10
-0.1173064641135486
 20
0.0846532023230877
 30
0.0
 42
-0.1989123673796793
  0
VERTEX
  5
19FD7
  8
PART
 10
-0.1102353963016842
 20
0.0875821345112213
 30
0.0
  0
VERTEX
  5
19FD8
  8
PART
 10
-0.0705418467223549
 20
0.0875821345112222
 30
0.0
  0
VERTEX
  5
19FD9
  8
PART
 10
-0.0705418467223549
 20
0.0875821345112222
 30
0.0
 42
-0.1989123673796794
  0
VERTEX
  5
19FDA
  8
PART
 10
-0.0634707789104905
 20
0.0846532023230877
 30
0.0
  0
VERTEX
  5
19FDB
  8
PART
 10
-0.0533175537001558
 20
0.0745110666993567
 30
0.0
  0
VERTEX
  5
19FDC
  8
PART
 10
-0.0503886215120222
 20
0.0674399988874923
 30
0.0
  0
VERTEX
  5
19FDD
  8
PART
 10
-0.0503886215120222
 20
0.0805952929755149
 30
0.0
 42
-0.323907171429368
  0
VERTEX
  5
19FDE
  8
PART
 10
-0.0435136215120213
 20
0.0900944705714963
 30
0.0
 42
0.597459574187131
  0
VERTEX
  5
19FDF
  8
PART
 10
0.0027088483546169
 20
0.3501953187399887
 30
0.0
 42
-0.3720774597306149
  0
VERTEX
  5
19FE0
  8
PART
 10
-0.0009717857154836
 20
0.3694566371628662
 30
0.0
  0
VERTEX
  5
19FE1
  8
PART
 10
0.0504056071220394
 20
0.458444891917883
 30
0.0
 42
0.9999999999999939
  0
VERTEX
  5
19FE2
  8
PART
 10
0.0348171498539198
 20
0.4674448919178824
 30
0.0
  0
VERTEX
  5
19FE3
  8
PART
 10
-0.0165602429836032
 20
0.3784566371628666
 30
0.0
 42
-0.3720774597306172
  0
VERTEX
  5
19FE4
  8
PART
 10
-0.0350813510832477
 20
0.3720135005581719
 30
0.0
 42
0.1957072511550433
  0
VERTEX
  5
19FE5
  8
PART
 10
-0.1456958919407949
 20
0.3720135005581719
 30
0.0
 42
-0.372077459730617
  0
VERTEX
  5
19FE6
  8
PART
 10
-0.1642170000404359
 20
0.3784566371628666
 30
0.0
  0
VERTEX
  5
19FE7
  8
PART
 10
-0.2155943928779624
 20
0.4674448919178824
 30
0.0
 42
0.9999999999999939
  0
VERTEX
  5
19FE8
  8
PART
 10
-0.231182850146082
 20
0.4584448919178821
 30
0.0
  0
VERTEX
  5
19FE9
  8
PART
 10
-0.1798054573085555
 20
0.3694566371628662
 30
0.0
 42
-0.3720774597306149
  0
VERTEX
  5
19FEA
  8
PART
 10
-0.1834860913786596
 20
0.3501953187399895
 30
0.0
 42
0.5974595741871335
  0
VERTEX
  5
19FEB
  8
PART
 10
-0.1372636215120213
 20
0.0900944705714963
 30
0.0
 42
-0.3239071714293675
  0
VERTEX
  5
19FEC
  8
PART
 10
-0.1303886215120205
 20
0.0805952929755149
 30
0.0
  0
SEQEND
  5
19FED
  8
PART
  0
INSERT
  5
19D8D
  8
HATCH
  6
CONTINUOUS
  2
*X36
 10
0.0
 20
0.0
 30
0.0
1001
ACAD
1000
HATCH
1002
{
1070
    19
1000
ANSI31
1040
0.25
1040
0.0
1000
ASC_BOUNDS
1070
     1
1070
     2
1070
     1
1005
19D8E
1000
ASC_SEEDPOINT
1011
-0.9467090115930343
1021
0.0
1031
0.0
1021
-5.3875350362572574
1031
0.0
1000
R14_HATCH_DATA
1000
19D8D
1011
1.0
1021
0.0
1031
0.0
1021
0.0
1031
0.0
1011
0.0
1021
0.0
1031
0.0
1021
1.0
1031
0.0
1011
0.0
1021
0.0
1031
0.0
1021
0.0
1031
1.0
1040
0.0
1010
0.0
1020
0.0
1030
1.0
1000
ANSI31
1070
     0
1070
     1
1071
        1
1071
        1
1071
       18
1070
     2
1040
-0.1738886215120194
1040
-0.0044178654887783
1040
0.0100000000000007
1040
1.5707963267948071
1040
3.1415926535897931
1070
     1
1070
     1
1040
-0.1838886215120201
1040
-0.0044178654887783
1040
-0.1838886215120201
1040
-0.0124178654887783
1070
     2
1040
-0.1738886215120194
1040
-0.0124178654887774
1040
0.0100000000000007
1040
3.141592653589881
1040
4.7123889803847776
1070
     1
1070
     1
1040
-0.1738886215120186
1040
-0.0224178654887781
1040
-0.0068886215120205
1040
-0.0224178654887781
1070
     2
1040
-0.0068886215120196
1040
-0.0124178654887774
1040
0.0100000000000007
1040
4.7123889803846
1040
6.2831853071794974
1070
     1
1070
     1
1040
0.003111378487981
1040
-0.0124178654887783
1040
0.003111378487981
1040
-0.0044178654887774
1070
     2
1040
-0.0068886215120196
1040
-0.0044178654887783
1040
0.0100000000000007
1040
0.0000000000000888
1040
1.5707963267949849
1070
     1
1070
     1
1040
-0.0068886215120205
1040
0.0055821345112224
1040
-0.0503886215120186
1040
0.0055821345112224
1070
     1
1040
-0.0503886215120186
1040
0.0055821345112224
1040
-0.0503886215120186
1040
0.0674399988874914
1070
     1
1040
-0.0503886215120186
1040
0.0674399988874914
1040
-0.0533175537001558
1040
0.0745110666993567
1070
     1
1040
-0.0533175537001558
1040
0.0745110666993567
1040
-0.0634707789104905
1040
0.0846532023230877
1070
     2
1040
-0.070541846722355
1040
0.0775821345112242
1040
0.0099999999999979
1040
0.7853981633973777
1040
1.570796326794885
1070
     1
1070
     1
1040
-0.0705418467223549
1040
0.0875821345112222
1040
-0.1102353963016842
1040
0.0875821345112213
1070
     2
1040
-0.1102353963016852
1040
0.0775821345112242
1040
0.0099999999999971
1040
1.570796326794796
1040
2.356194490192336
1070
     1
1070
     1
1040
-0.1173064641135486
1040
0.0846532023230877
1040
-0.1274596893238868
1040
0.0745110666993567
1070
     1
1040
-0.1274596893238868
1040
0.0745110666993567
1040
-0.1303886215120205
1040
0.0674399988874914
1070
     1
1040
-0.1303886215120205
1040
0.0674399988874914
1040
-0.1303886215120205
1040
0.0055821345112224
1070
     1
1040
-0.1303886215120205
1040
0.0055821345112224
1040
-0.1738886215120186
1040
0.0055821345112224
1071
        1
1005
19D8E
1070
     0
1070
     1
1040
0.0
1040
0.25
1070
     0
1070
     1
1040
0.7853981633974483
1040
-0.9865792637142938
1040
-5.4022494620021746
1040
-0.0220970869120796
1040
0.0220970869120796
1070
     0
1071
        1
1040
-0.9467090115930343
1040
-5.3875350362572574
1040
0.0
1002
}
  0
POLYLINE
  5
19D8E
  8
PART
 66
     1
 10
0.0
 20
0.0
 30
0.0
 70
     1
1001
ACAD
1000
ASC_BOUNDS
1002
{
1070
    19
1005
19D8D
1002
}
  0
VERTEX
  5
19FF8
  8
PART
 10
-0.1738886215120186
 20
0.0055821345112224
 30
0.0
 42
0.4142135623731209
  0
VERTEX
  5
19FF9
  8
PART
 10
-0.1838886215120201
 20
-0.0044178654887783
 30
0.0
  0
VERTEX
  5
19FFA
  8
PART
 10
-0.1838886215120201
 20
-0.0124178654887783
 30
0.0
 42
0.4142135623730951
  0
VERTEX
  5
19FFB
  8
PART
 10
-0.1738886215120186
 20
-0.0224178654887781
 30
0.0
  0
VERTEX
  5
19FFC
  8
PART
 10
-0.0068886215120205
 20
-0.0224178654887781
 30
0.0
 42
0.4142135623730951
  0
VERTEX
  5
19FFD
  8
PART
 10
0.003111378487981
 20
-0.0124178654887783
 30
0.0
  0
VERTEX
  5
19FFE
  8
PART
 10
0.003111378487981
 20
-0.0044178654887774
 30
0.0
 42
0.4142135623730951
  0
VERTEX
  5
19FFF
  8
PART
 10
-0.0068886215120205
 20
0.0055821345112224
 30
0.0
  0
VERTEX
  5
1A000
  8
PART
 10
-0.0503886215120186
 20
0.0055821345112224
 30
0.0
  0
VERTEX
  5
1A001
  8
PART
 10
-0.0503886215120186
 20
0.0674399988874914
 30
0.0
  0
VERTEX
  5
1A002
  8
PART
 10
-0.0533175537001558
 20
0.0745110666993567
 30
0.0
  0
VERTEX
  5
1A003
  8
PART
 10
-0.0634707789104905
 20
0.0846532023230877
 30
0.0
 42
0.1989123673796794
  0
VERTEX
  5
1A004
  8
PART
 10
-0.0705418467223549
 20
0.0875821345112222
 30
0.0
  0
VERTEX
  5
1A005
  8
PART
 10
-0.0705418467223549
 20
0.0875821345112222
 30
0.0
  0
VERTEX
  5
1A006
  8
PART
 10
-0.1102353963016842
 20
0.0875821345112213
 30
0.0
 42
0.1989123673796793
  0
VERTEX
  5
1A007
  8
PART
 10
-0.1173064641135486
 20
0.0846532023230877
 30
0.0
  0
VERTEX
  5
1A008
  8
PART
 10
-0.1274596893238868
 20
0.0745110666993567
 30
0.0
  0
VERTEX
  5
1A009
  8
PART
 10
-0.1303886215120205
 20
0.0674399988874914
 30
0.0
  0
VERTEX
  5
1A00A
  8
PART
 10
-0.1303886215120205
 20
0.0055821345112224
 30
0.0
  0
SEQEND
  5
1A00B
  8
PART
  0
LINE
  5
19D8F
  8
HATCH
 10
-0.100058530800089
 20
0.1311313050288663
 30
0.0
 11
-0.100058530800089
 21
0.1311313050288663
 31
0.0
  0
CIRCLE
  5
19D90
  8
HATCH
 10
-0.1845633531757169
 20
0.1389335876706303
 30
0.0
 40
0.0045
  0
CIRCLE
  5
19D91
  8
HATCH
 10
-0.1487583469137181
 20
0.1402345394471942
 30
0.0
 40
0.009
  0
LINE
  5
19D92
  8
HATCH
 10
-0.0890982636115521
 20
0.1065729216732303
 30
0.0
 11
-0.0890982636115521
 21
0.1065729216732303
 31
0.0
  0
CIRCLE
  5
19D93
  8
HATCH
 10
-0.1198799326506421
 20
0.112635745816956
 30
0.0
 40
0.0045
  0
LINE
  5
19D95
  8
HATCH
 10
-0.1515126095337127
 20
0.1098439189384133
 30
0.0
 11
-0.1515126095337127
 21
0.1098439189384133
 31
0.0
  0
CIRCLE
  5
19D96
  8
HATCH
 10
-0.0609764658457319
 20
0.1247059848087277
 30
0.0
 40
0.0045
  0
CIRCLE
  5
19D97
  8
HATCH
 10
-0.2039976365629403
 20
0.1839114831328479
 30
0.0
 40
0.0045
  0
CIRCLE
  5
19D98
  8
HATCH
 10
-0.2134225183907201
 20
0.2368838487269207
 30
0.0
 40
0.0045
  0
CIRCLE
  5
19D99
  8
HATCH
 10
-0.217413303161619
 20
0.2750631622870829
 30
0.0
 40
0.00675
  0
LINE
  5
19D9A
  8
HATCH
 10
-0.1182060725405289
 20
0.2785948313861726
 30
0.0
 11
-0.1182060725405289
 21
0.2785948313861726
 31
0.0
  0
LINE
  5
19D9B
  8
HATCH
 10
-0.0979539511038912
 20
0.261324169554719
 30
0.0
 11
-0.0979539511038912
 21
0.261324169554719
 31
0.0
  0
CIRCLE
  5
19D9C
  8
HATCH
 10
-0.1669139852864934
 20
0.2766576390359996
 30
0.0
 40
0.009
  0
CIRCLE
  5
19D9D
  8
HATCH
 10
-0.127521604180588
 20
0.1637527291873904
 30
0.0
 40
0.0045
  0
CIRCLE
  5
19D9E
  8
HATCH
 10
-0.0917165979185928
 20
0.1650536809639524
 30
0.0
 40
0.009
  0
CIRCLE
  5
19D9F
  8
HATCH
 10
-0.1289861887788835
 20
0.2441519773068512
 30
0.0
 40
0.0045
  0
CIRCLE
  5
19DA0
  8
HATCH
 10
-0.1048163921498837
 20
0.2011148246501231
 30
0.0
 40
0.009
  0
CIRCLE
  5
19DA1
  8
HATCH
 10
-0.1681926303009416
 20
0.1852124349094117
 30
0.0
 40
0.009
  0
CIRCLE
  5
19DA2
  8
HATCH
 10
-0.1776175121287213
 20
0.2381848005034846
 30
0.0
 40
0.009
  0
LINE
  5
19DA3
  8
HATCH
 10
-0.1553798212688537
 20
0.2369221484296597
 30
0.0
 11
-0.1553798212688537
 21
0.2369221484296597
 31
0.0
  0
CIRCLE
  5
19DA4
  8
HATCH
 10
-0.1462083490612525
 20
0.2145639387314502
 30
0.0
 40
0.009
  0
CIRCLE
  5
19DA5
  8
HATCH
 10
-0.0710549190576604
 20
0.2370583107291291
 30
0.0
 40
0.009
  0
CIRCLE
  5
19DA6
  8
HATCH
 10
-0.066321274220817
 20
0.2641159964332618
 30
0.0
 40
0.0045
  0
CIRCLE
  5
19DA7
  8
HATCH
 10
-0.0606958740612829
 20
0.2045694915058986
 30
0.0
 40
0.009
  0
CIRCLE
  5
19DA8
  8
HATCH
 10
-0.0154666260119765
 20
0.15485130302762
 30
0.0
 40
0.0045
  0
CIRCLE
  5
19DA9
  8
HATCH
 10
-0.0387226023440963
 20
0.1411251997532832
 30
0.0
 40
0.0045
  0
CIRCLE
  5
19DAA
  8
HATCH
 10
-0.0149916710418747
 20
0.1312879473440633
 30
0.0
 40
0.0045
  0
CIRCLE
  5
19DAB
  8
HATCH
 10
-0.0417790720158049
 20
0.2853217677081938
 30
0.0
 40
0.0045
  0
LINE
  5
19DAC
  8
HATCH
 10
-0.0384689941453313
 20
0.259449443496049
 30
0.0
 11
-0.0384689941453313
 21
0.259449443496049
 31
0.0
  0
CIRCLE
  5
19DAD
  8
HATCH
 10
0.0186164691643374
 20
0.2681775764874656
 30
0.0
 40
0.00675
  0
CIRCLE
  5
19DAE
  8
HATCH
 10
0.0283107064308457
 20
0.193997464037251
 30
0.0
 40
0.009
  0
LINE
  5
19DAF
  8
HATCH
 10
0.0246902571231456
 20
0.2493152822020443
 30
0.0
 11
0.0246902571231456
 21
0.2493152822020443
 31
0.0
  0
CIRCLE
  5
19DB0
  8
HATCH
 10
-0.035091556065316
 20
0.1733784115372681
 30
0.0
 40
0.0045
  0
CIRCLE
  5
19DB1
  8
HATCH
 10
0.0042290170532144
 20
0.1711700900435533
 30
0.0
 40
0.009
  0
LINE
  5
19DB2
  8
HATCH
 10
-0.0172610329724901
 20
0.1853363692436167
 30
0.0
 11
-0.0172610329724901
 21
0.1853363692436167
 31
0.0
  0
CIRCLE
  5
19DB3
  8
HATCH
 10
-0.0239478881830149
 20
0.2326680004925523
 30
0.0
 40
0.009
  0
CIRCLE
  5
19DB4
  8
HATCH
 10
0.0050958407673338
 20
0.2162001974974042
 30
0.0
 40
0.0045
  0
CIRCLE
  5
19DB5
  8
HATCH
 10
-0.1263823714331504
 20
0.3198909004115296
 30
0.0
 40
0.009
  0
LINE
  5
19DB6
  8
HATCH
 10
-0.0731333843642812
 20
0.3134360583531228
 30
0.0
 11
-0.0731333843642812
 21
0.3134360583531228
 31
0.0
  0
LINE
  5
19DB7
  8
HATCH
 10
-0.1385712426087107
 20
0.3347652988720269
 30
0.0
 11
-0.1385712426087107
 21
0.3347652988720269
 31
0.0
  0
CIRCLE
  5
19DB8
  8
HATCH
 10
-0.1106762660017377
 20
0.3502808086477833
 30
0.0
 40
0.00675
  0
CIRCLE
  5
19DB9
  8
HATCH
 10
-0.1731690323435462
 20
0.3341519698910391
 30
0.0
 40
0.009
  0
CIRCLE
  5
19DBA
  8
HATCH
 10
-0.1727287788342178
 20
0.3081945196221805
 30
0.0
 40
0.0045
  0
LINE
  5
19DBB
  8
HATCH
 10
-0.1945766941370106
 20
0.3005691398023631
 30
0.0
 11
-0.1945766941370106
 21
0.3005691398023631
 31
0.0
  0
CIRCLE
  5
19DBC
  8
HATCH
 10
-0.0712025031579291
 20
0.3586131758250757
 30
0.0
 40
0.009
  0
CIRCLE
  5
19DBD
  8
HATCH
 10
-0.0330104837003003
 20
0.3207203144151107
 30
0.0
 40
0.0045
  0
CIRCLE
  5
19DBE
  8
HATCH
 10
-0.0318867483233891
 20
0.3467831690163854
 30
0.0
 40
0.0045
  0
VIEWPORT
  5
B94C
 67
     1
  8
0
 10
4.2500000197906029
 20
5.499999966006726
 30
0.0
 40
22.947263149938831
 41
11.07296507552604
 68
     1
 69
     1
1001
ACAD
1000
MVIEW
1002
{
1070
    16
1010
0.0
1020
0.0
1030
0.0
1010
0.0
1020
0.0
1030
1.0
1040
0.0
1040
11.07296507552604
1040
4.2500000197906029
1040
5.499999966006726
1040
50.0
1040
0.0
1040
0.0
1070
     0
1070
   500
1070
     1
1070
     1
1070
     0
1070
     0
1070
     0
1070
     0
1040
0.0
1040
0.0
1040
0.0
1040
0.5
1040
0.5
1040
0.5
1040
0.5
1070
     0
1002
{
1002
}
1002
}
  0
ENDSEC
  0
EOF
