  0
SECTION
  2
HEADER
  9
$ACADVER
  1
AC1009
  9
$INSBASE
 10
0.0
 20
0.0
 30
0.0
  9
$EXTMIN
 10
0.6887208334639956
 20
0.0600891137263844
 30
-0.0000000349181948
  9
$EXTMAX
 10
1.044808121960572
 20
0.6901245136863139
 30
0.0000000814935746
  9
$LIMMIN
 10
0.0
 20
0.0
  9
$LIMMAX
 10
1.1999999999999991
 20
1.0
  9
$ORTHOMODE
 70
     1
  9
$REGENMODE
 70
     1
  9
$FILLMODE
 70
     1
  9
$QTEXTMODE
 70
     0
  9
$MIRRTEXT
 70
     1
  9
$DRAGMODE
 70
     2
  9
$LTSCALE
 40
1.0
  9
$OSMODE
 70
    19
  9
$ATTMODE
 70
     1
  9
$TEXTSIZE
 40
0.125
  9
$TRACEWID
 40
0.05
  9
$TEXTSTYLE
  7
STANDARD
  9
$CLAYER
  8
PART
  9
$CELTYPE
  6
BYLAYER
  9
$CECOLOR
 62
     1
  9
$DIMSCALE
 40
0.0
  9
$DIMASZ
 40
0.125
  9
$DIMEXO
 40
0.05
  9
$DIMDLI
 40
0.02
  9
$DIMRND
 40
0.0
  9
$DIMDLE
 40
0.0
  9
$DIMEXE
 40
0.05
  9
$DIMTP
 40
0.005
  9
$DIMTM
 40
0.005
  9
$DIMTXT
 40
0.125
  9
$DIMCEN
 40
0.02
  9
$DIMTSZ
 40
0.0
  9
$DIMTOL
 70
     0
  9
$DIMLIM
 70
     0
  9
$DIMTIH
 70
     1
  9
$DIMTOH
 70
     1
  9
$DIMSE1
 70
     0
  9
$DIMSE2
 70
     0
  9
$DIMTAD
 70
     0
  9
$DIMZIN
 70
     4
  9
$DIMBLK
  1

  9
$DIMASO
 70
     1
  9
$DIMSHO
 70
     1
  9
$DIMPOST
  1

  9
$DIMAPOST
  1

  9
$DIMALT
 70
     0
  9
$DIMALTD
 70
     1
  9
$DIMALTF
 40
25.399999999999999
  9
$DIMLFAC
 40
1.0
  9
$DIMTOFL
 70
     0
  9
$DIMTVP
 40
0.0
  9
$DIMTIX
 70
     0
  9
$DIMSOXD
 70
     0
  9
$DIMSAH
 70
     0
  9
$DIMBLK1
  1

  9
$DIMBLK2
  1

  9
$DIMSTYLE
  2
SCOTTG
  9
$DIMCLRD
 70
   256
  9
$DIMCLRE
 70
   256
  9
$DIMCLRT
 70
   256
  9
$DIMTFAC
 40
1.0
  9
$DIMGAP
 40
0.02
  9
$LUNITS
 70
     2
  9
$LUPREC
 70
     5
  9
$SKETCHINC
 40
0.1
  9
$FILLETRAD
 40
0.01
  9
$AUNITS
 70
     0
  9
$AUPREC
 70
     0
  9
$MENU
  1
.
  9
$ELEVATION
 40
0.0
  9
$PELEVATION
 40
0.0
  9
$THICKNESS
 40
0.0
  9
$LIMCHECK
 70
     0
  9
$BLIPMODE
 70
     0
  9
$CHAMFERA
 40
0.0
  9
$CHAMFERB
 40
0.0
  9
$SKPOLY
 70
     0
  9
$TDCREATE
 40
2450919.3750775461
  9
$TDUPDATE
 40
2455826.6332708909
  9
$TDINDWG
 40
2.4084048031999998
  9
$TDUSRTIMER
 40
2.4084048031999998
  9
$USRTIMER
 70
     1
  9
$ANGBASE
 50
0.0
  9
$ANGDIR
 70
     0
  9
$PDMODE
 70
     0
  9
$PDSIZE
 40
0.0
  9
$PLINEWID
 40
0.0
  9
$COORDS
 70
     0
  9
$SPLFRAME
 70
     0
  9
$SPLINETYPE
 70
     6
  9
$SPLINESEGS
 70
     8
  9
$ATTDIA
 70
     0
  9
$ATTREQ
 70
     1
  9
$HANDLING
 70
     1
  9
$HANDSEED
  5
1A27E
  9
$SURFTAB1
 70
     6
  9
$SURFTAB2
 70
     6
  9
$SURFTYPE
 70
     6
  9
$SURFU
 70
     6
  9
$SURFV
 70
     6
  9
$UCSNAME
  2

  9
$UCSORG
 10
0.0
 20
0.0
 30
0.0
  9
$UCSXDIR
 10
1.0
 20
0.0
 30
0.0
  9
$UCSYDIR
 10
0.0
 20
1.0
 30
0.0
  9
$PUCSNAME
  2

  9
$PUCSORG
 10
0.0
 20
0.0
 30
0.0
  9
$PUCSXDIR
 10
1.0
 20
0.0
 30
0.0
  9
$PUCSYDIR
 10
0.0
 20
1.0
 30
0.0
  9
$USERI1
 70
     0
  9
$USERI2
 70
     0
  9
$USERI3
 70
     0
  9
$USERI4
 70
     0
  9
$USERI5
 70
     0
  9
$USERR1
 40
0.0
  9
$USERR2
 40
0.0
  9
$USERR3
 40
0.0
  9
$USERR4
 40
0.0
  9
$USERR5
 40
0.0
  9
$WORLDVIEW
 70
     1
  9
$SHADEDGE
 70
     3
  9
$SHADEDIF
 70
    70
  9
$TILEMODE
 70
     1
  9
$MAXACTVP
 70
    48
  9
$PLIMCHECK
 70
     0
  9
$PEXTMIN
 10
-0.0002593796237598
 20
-0.0003357869613225
 30
-0.0015258207003583
  9
$PEXTMAX
 10
8.5002594192049692
 20
11.000335718974769
 30
0.0000000349246037
  9
$PLIMMIN
 10
0.0000001811605737
 20
-0.0000001192092895
  9
$PLIMMAX
 10
8.4999999408646811
 20
10.999999640494821
  9
$UNITMODE
 70
     0
  9
$VISRETAIN
 70
     1
  9
$PLINEGEN
 70
     0
  9
$PSLTSCALE
 70
     1
  0
ENDSEC
  0
SECTION
  2
TABLES
  0
TABLE
  2
VPORT
 70
     1
  0
VPORT
  2
*ACTIVE
 70
     0
 10
0.0
 20
0.0
 11
1.0
 21
1.0
 12
-18.855222568283072
 22
-0.2640710350067092
 13
0.0
 23
0.0
 14
0.5
 24
0.5
 15
0.5
 25
0.5
 16
0.0
 26
0.0
 36
5.6148375865943736
 17
19.721987045995348
 27
0.6391778487130584
 37
0.0
 40
0.634175829751561
 41
2.072368421052631
 42
50.0
 43
0.0
 44
0.0
 50
0.0
 51
0.0
 71
     0
 72
 20000
 73
     1
 74
     0
 75
     0
 76
     0
 77
     0
 78
     0
  0
ENDTAB
  0
TABLE
  2
LTYPE
 70
     2
  0
LTYPE
  2
CONTINUOUS
 70
     0
  3
Solid line
 72
    65
 73
     0
 40
0.0
  0
ENDTAB
  0
TABLE
  2
LAYER
 70
    10
  0
LAYER
  2
0
 70
     0
 62
     7
  6
CONTINUOUS
  0
LAYER
  2
DEFPOINTS
 70
     0
 62
     7
  6
CONTINUOUS
  0
LAYER
  2
HATCH
 70
     0
 62
     7
  6
CONTINUOUS
  0
LAYER
  2
PART
 70
     0
 62
     7
  6
CONTINUOUS
  0
ENDTAB
  0
TABLE
  2
STYLE
 70
     3
  0
STYLE
  2
STANDARD
 70
     0
 40
0.0
 41
1.0
 50
0.0
 71
     0
 42
0.125
  3
txt
  4

  0
STYLE
  2
ROMANS
 70
     0
 40
0.0
 41
1.0
 50
0.0
 71
     0
 42
0.1
  3
SIMPLEX.shx
  4

  0
ENDTAB
  0
TABLE
  2
VIEW
 70
     0
  0
ENDTAB
  0
TABLE
  2
UCS
 70
     0
  0
ENDTAB
  0
TABLE
  2
APPID
 70
    17
  0
APPID
  2
ACAD
 70
     0
  0
APPID
  2
ADP_SK
 70
     0
  0
APPID
  2
ADP_SOL
 70
     0
  0
APPID
  2
ACIS_LNK
 70
     0
  0
APPID
  2
AME_SOL
 70
     0
  0
APPID
  2
ACAD_MLEADERVER
 70
     0
  0
APPID
  2
ACAD_EXEMPT_FROM_CAD_STANDARDS
 70
     0
  0
APPID
  2
ACAD_PSEXT
 70
     0
  0
APPID
  2
ACDBDYNAMICBLOCKGUID
 70
     0
  0
APPID
  2
ACDBBLOCKREPETAG
 70
     0
  0
APPID
  2
ACDBDYNAMICBLOCKTRUENAME
 70
     0
  0
APPID
  2
ACAD_DSTYLE_DIMJAG
 70
     0
  0
APPID
  2
ACAD_DSTYLE_DIMTALN
 70
     0
  0
APPID
  2
ACAECLAYERSTANDARD
 70
     0
  0
APPID
  2
ACAUTHENVIRON
 70
     0
  0
APPID
  2
ACADANNOPO
 70
     0
  0
APPID
  2
ACAD_DSTYLE_DIMRADIAL_EXTENSION
 70
     0
  0
ENDTAB
  0
TABLE
  2
DIMSTYLE
 70
     2
  0
DIMSTYLE
  2
SCOTTG
 70
     0
  3

  4

  5

  6

  7

 40
0.15
 41
0.125
 42
0.1
 43
0.25
 44
0.1
 45
0.0
 46
0.0
 47
0.01
 48
0.01
140
0.125
141
0.06
142
0.0
143
25.399999999999999
144
1.0
145
0.0
146
1.0
147
0.09
 71
     1
 72
     0
 73
     1
 74
     1
 75
     0
 76
     0
 77
     0
 78
     4
170
     0
171
     1
172
     0
173
     0
174
     1
175
     0
176
   256
177
   256
178
   256
  0
ENDTAB
  0
ENDSEC
  0
SECTION
  2
BLOCKS
  0
BLOCK
  8
0
  2
$MODEL_SPACE
 70
     0
 10
0.0
 20
0.0
 30
0.0
  3
$MODEL_SPACE
  1

  0
ENDBLK
  5
1A
  8
0
  0
BLOCK
 67
     1
  8
0
  2
$PAPER_SPACE
 70
     0
 10
0.0
 20
0.0
 30
0.0
  3
$PAPER_SPACE
  1

  0
ENDBLK
  5
B932
 67
     1
  8
0
  0
BLOCK
  8
0
 62
     1
  2
*U30
 70
     1
 10
0.0
 20
0.0
 30
0.0
  3
*U30
  1

  0
TEXT
  5
1A179
  8
PART
 10
-0.3733034910232481
 20
0.7141972627033814
 30
0.0
 40
0.0378374821074757
  1
.400
  7
ROMANS
  0
ENDBLK
  5
1A17B
  8
0
 62
     1
  0
BLOCK
  8
0
 62
     1
  2
*U31
 70
     1
 10
0.0
 20
0.0
 30
0.0
  3
*U31
  1

  0
TEXT
  5
1A17D
  8
PART
 10
-0.2841244632638552
 20
0.8031443739727691
 30
0.0
 40
0.0378374821074757
  1
.561
  7
ROMANS
  0
ENDBLK
  5
1A17F
  8
0
 62
     1
  0
BLOCK
  8
0
 62
     1
  2
*U32
 70
     1
 10
0.0
 20
0.0
 30
0.0
  3
*U32
  1

  0
TEXT
  5
1A181
  8
PART
 10
-0.7225985692659322
 20
0.3060812574018382
 30
0.0
 40
0.0378374821074757
  1
.650
  7
ROMANS
  0
ENDBLK
  5
1A183
  8
0
 62
     1
  0
BLOCK
  8
0
 62
     1
  2
*U33
 70
     1
 10
0.0
 20
0.0
 30
0.0
  3
*U33
  1

  0
TEXT
  5
1A185
  8
PART
 10
0.1457500447553917
 20
-0.4352694319903586
 30
0.0
 40
0.0378374821394327
  1
.018
  7
ROMANS
  0
ENDBLK
  5
1A187
  8
0
 62
     1
  0
BLOCK
  8
0
 62
     1
  2
*U34
 70
     1
 10
0.0
 20
0.0
 30
0.0
  3
*U34
  1

  0
TEXT
  5
1A189
  8
PART
 10
-0.0855716434774586
 20
-0.5545369172463596
 30
0.0
 40
0.0378374821394327
  1
.155
  7
ROMANS
  0
ENDBLK
  5
1A18B
  8
0
 62
     1
  0
BLOCK
  8
0
 62
     1
  2
*U35
 70
     1
 10
0.0
 20
0.0
 30
0.0
  3
*U35
  1

  0
TEXT
  5
1A18D
  8
PART
 10
0.1468273350806249
 20
-0.4926613062714235
 30
0.0
 40
0.0378374821394327
  1
.040
  7
ROMANS
  0
ENDBLK
  5
1A18F
  8
0
 62
     1
  0
BLOCK
  8
0
 62
     1
  2
*U36
 70
     1
 10
0.0
 20
0.0
 30
0.0
  3
*U36
  1

  0
TEXT
  5
1A191
  8
PART
 10
-0.7225985693146287
 20
-0.1939187410697232
 30
0.0
 40
0.0378374821394327
  1
.350
  7
ROMANS
  0
ENDBLK
  5
1A193
  8
0
 62
     1
  0
BLOCK
  8
0
 62
     1
  2
*U37
 70
     1
 10
0.0
 20
0.0
 30
0.0
  3
*U37
  1

  0
TEXT
  5
1A195
  8
PART
 10
-0.3754939488229078
 20
-0.229541701938869
 30
0.0
 40
0.0378374821394327
  1
.030
  7
ROMANS
  0
ENDBLK
  5
1A197
  8
0
 62
     1
  0
BLOCK
  8
0
 62
     1
  2
*U38
 70
     1
 10
0.0
 20
0.0
 30
0.0
  3
*U38
  1

  0
TEXT
  5
1A199
  8
PART
 10
-0.2079462264281474
 20
0.3460745370676188
 30
0.0
 40
0.0378374821074757
  1
.135
  7
ROMANS
  0
ENDBLK
  5
1A19B
  8
0
 62
     1
  0
BLOCK
  8
0
 62
     1
  2
*U39
 70
     1
 10
0.0
 20
0.0
 30
0.0
  3
*U39
  1

  0
TEXT
  5
1A1A2
  8
PART
 62
     6
 10
-0.0472299610824315
 20
-0.0106395529445078
 30
0.0
 40
0.02
  1
KC
  0
ENDBLK
  5
1A1A4
  8
0
 62
     1
  0
BLOCK
  8
0
 62
     1
  2
*U40
 70
     1
 10
0.0
 20
0.0
 30
0.0
  3
*U40
  1

  0
TEXT
  5
1A1A6
  8
PART
 10
0.9597010690693162
 20
5.5049000257387766
 30
0.0
 40
0.02
  1
.050±.006
  7
ROMANS
  0
ENDBLK
  5
1A1A8
  8
0
 62
     1
  0
BLOCK
  8
0
 62
     1
  2
*U41
 70
     1
 10
0.0
 20
0.0
 30
0.0
  3
*U41
  1

  0
TEXT
  5
1A1AA
  8
PART
 10
0.7324153547836021
 20
5.4687273364978068
 30
0.0
 40
0.015
  1
.147±.010
  7
ROMANS
  0
ENDBLK
  5
1A1AC
  8
0
 62
     1
  0
BLOCK
  8
0
 62
     1
  2
*X42
 70
     1
 10
0.0
 20
0.0
 30
0.0
  3
*X42
  1

  0
LINE
  5
1A1AE
  8
0
 62
     0
 10
0.3458492206236499
 20
0.2516661804223146
 30
0.0
 11
0.3446047137259428
 21
0.2587241297656693
 31
0.0
  0
LINE
  5
1A1AF
  8
0
 62
     0
 10
0.3349403193136828
 20
0.2415490030542404
 30
0.0
 11
0.3328612560457176
 21
0.2533399567676868
 31
0.0
  0
LINE
  5
1A1B0
  8
0
 62
     0
 10
0.3235375018357388
 20
0.2342329634700251
 30
0.0
 11
0.32096509479152
 21
0.2488218087725604
 31
0.0
  0
LINE
  5
1A1B1
  8
0
 62
     0
 10
0.3117386856235996
 20
0.2291627443076472
 30
0.0
 11
0.3089219512487952
 21
0.2451372387581685
 31
0.0
  0
LINE
  5
1A1B2
  8
0
 62
     0
 10
0.2995875195262057
 20
0.2260908006436564
 30
0.0
 11
0.2967353636176279
 21
0.2422661805946884
 31
0.0
  0
LINE
  5
1A1B3
  8
0
 62
     0
 10
0.2870962214691198
 20
0.2249478411789383
 30
0.0
 11
0.2844069303183262
 21
0.2401995691900929
 31
0.0
  0
LINE
  5
1A1B4
  8
0
 62
     0
 10
0.2743941883644659
 20
0.225000019558248
 30
0.0
 11
0.2717499261572507
 21
0.2399963757403301
 31
0.0
  0
LINE
  5
1A1B5
  8
0
 62
     0
 10
0.2617013557158943
 20
0.2250000195582489
 30
0.0
 11
0.259057826588193
 21
0.2399922182398102
 31
0.0
  0
LINE
  5
1A1B6
  8
0
 62
     0
 10
0.2490223381645351
 20
0.2249216702485883
 30
0.0
 11
0.246365727019135
 21
0.2399880607392903
 31
0.0
  0
LINE
  5
1A1B7
  8
0
 62
     0
 10
0.2370641143691791
 20
0.2207554964148173
 30
0.0
 11
0.2336736274500772
 21
0.2399839032387705
 31
0.0
  0
LINE
  5
1A1B8
  8
0
 62
     0
 10
0.2268750113173519
 20
0.2065561402715597
 30
0.0
 11
0.2209815278810192
 21
0.2399797457382515
 31
0.0
  0
LINE
  5
1A1B9
  8
0
 62
     0
 10
0.2086555182008015
 20
0.2378993893068069
 30
0.0
 11
0.2082894283119615
 21
0.2399755882377308
 31
0.0
  0
LINE
  5
1A1BA
  8
0
 62
     0
 10
0.2199678956773426
 20
0.1737437085874465
 30
0.0
 11
0.2160000456425621
 21
0.1962465043526666
 31
0.0
  0
ENDBLK
  5
1A1BC
  8
0
 62
     1
  0
BLOCK
  8
0
 62
     1
  2
*X43
 70
     1
 10
0.0
 20
0.0
 30
0.0
  3
*X43
  1

  0
LINE
  5
1A1BE
  8
0
 62
     0
 10
0.195758990078804
 20
0.2390546037419829
 30
0.0
 11
0.1955973287429035
 21
0.2399714307372118
 31
0.0
  0
LINE
  5
1A1BF
  8
0
 62
     0
 10
0.1860000456425609
 20
0.2224156968626145
 30
0.0
 11
0.1829052291738459
 21
0.2399672732366911
 31
0.0
  0
LINE
  5
1A1C0
  8
0
 62
     0
 10
0.1818251167283358
 20
0.1741082642727587
 30
0.0
 11
0.1702131296047878
 21
0.2399631157361712
 31
0.0
  0
LINE
  5
1A1C1
  8
0
 62
     0
 10
0.1604885338873575
 20
0.2231294075922721
 30
0.0
 11
0.15752103003573
 21
0.2399589582356523
 31
0.0
  0
LINE
  5
1A1C2
  8
0
 62
     0
 10
0.1474658618787473
 20
0.2250000195582498
 30
0.0
 11
0.1448289304666721
 21
0.2399548007351306
 31
0.0
  0
LINE
  5
1A1C3
  8
0
 62
     0
 10
0.1347730292301758
 20
0.2250000195582498
 30
0.0
 11
0.1321368308976144
 21
0.2399506432346117
 31
0.0
  0
LINE
  5
1A1C4
  8
0
 62
     0
 10
0.1220801965816037
 20
0.2250000195582498
 30
0.0
 11
0.1194447313285564
 21
0.2399464857340918
 31
0.0
  0
LINE
  5
1A1C5
  8
0
 62
     0
 10
0.1093873639330322
 20
0.2250000195582507
 30
0.0
 11
0.1067526317594987
 21
0.2399423282335729
 31
0.0
  0
LINE
  5
1A1C6
  8
0
 62
     0
 10
0.0966945312844605
 20
0.2250000195582498
 30
0.0
 11
0.094060532190441
 21
0.2399381707330521
 31
0.0
  0
LINE
  5
1A1C7
  8
0
 62
     0
 10
0.0840016986358885
 20
0.2250000195582507
 30
0.0
 11
0.081368432621383
 21
0.2399340132325332
 31
0.0
  0
LINE
  5
1A1C8
  8
0
 62
     0
 10
0.0713088659873169
 20
0.2250000195582489
 30
0.0
 11
0.0686708873192132
 21
0.2399607400192059
 31
0.0
  0
LINE
  5
1A1C9
  8
0
 62
     0
 10
0.0586160333387449
 20
0.2250000195582498
 30
0.0
 11
0.0502224522458078
 21
0.272602383412111
 31
0.0
  0
LINE
  5
1A1CA
  8
0
 62
     0
 10
0.0448823112118216
 20
0.2309031971330571
 30
0.0
 11
0.0412246348588427
 21
0.2516469105357526
 31
0.0
  0
ENDBLK
  5
1A1CC
  8
0
 62
     1
  0
BLOCK
  8
0
 62
     1
  2
*X44
 70
     1
 10
0.0
 20
0.0
 30
0.0
  3
*X44
  1

  0
LINE
  5
1A1E2
  8
0
 62
     0
 10
0.2008201343259204
 20
0.0000010985331151
 30
0.0
 11
0.2160000456425521
 21
0.0151810098497469
 31
0.0
  0
LINE
  5
1A1E3
  8
0
 62
     0
 10
0.1860000456425519
 20
0.0293751836739045
 30
0.0
 11
0.2160000456425521
 21
0.0593751836739056
 31
0.0
  0
LINE
  5
1A1E4
  8
0
 62
     0
 10
0.186000045642551
 20
0.0735693574980632
 30
0.0
 11
0.2160000456425521
 21
0.1035693574980643
 31
0.0
  0
LINE
  5
1A1E5
  8
0
 62
     0
 10
0.1860000456425501
 20
0.1177635313222227
 30
0.0
 11
0.2160000456425521
 21
0.1477635313222239
 31
0.0
  0
LINE
  5
1A1E6
  8
0
 62
     0
 10
0.186000045642551
 20
0.1619577051463823
 30
0.0
 11
0.2160000456425513
 21
0.1919577051463825
 31
0.0
  0
LINE
  5
1A1E7
  8
0
 62
     0
 10
0.186000045642551
 20
0.206151878970541
 30
0.0
 11
0.2133547416848582
 21
0.2335065750128482
 31
0.0
  0
ENDBLK
  5
1A1E9
  8
0
 62
     1
  0
BLOCK
  8
0
 62
     1
  2
*X45
 70
     1
 10
0.0
 20
0.0
 30
0.0
  3
*X45
  1

  0
LINE
  5
1A1F8
  8
0
 62
     0
 10
0.9946547018271783
 20
0.3117898736222857
 30
0.0
 11
0.9934101949294714
 21
0.3188478229656395
 31
0.0
  0
LINE
  5
1A1F9
  8
0
 62
     0
 10
0.9837458005172114
 20
0.3016726962542107
 30
0.0
 11
0.981666737249246
 21
0.3134636499676571
 31
0.0
  0
LINE
  5
1A1FA
  8
0
 62
     0
 10
0.9723429830392674
 20
0.2943566566699971
 30
0.0
 11
0.9697705759950484
 21
0.3089455019725324
 31
0.0
  0
LINE
  5
1A1FB
  8
0
 62
     0
 10
0.960544166827128
 20
0.2892864375076192
 30
0.0
 11
0.9577274324523237
 21
0.3052609319581387
 31
0.0
  0
LINE
  5
1A1FC
  8
0
 62
     0
 10
0.9483930007297342
 20
0.2862144938436266
 30
0.0
 11
0.9455408448211565
 21
0.3023898737946595
 31
0.0
  0
LINE
  5
1A1FD
  8
0
 62
     0
 10
0.9359017026726485
 20
0.2850715343789085
 30
0.0
 11
0.9332124115218548
 21
0.300323262390064
 31
0.0
  0
LINE
  5
1A1FE
  8
0
 62
     0
 10
0.9231996695679946
 20
0.2851237127582191
 30
0.0
 11
0.9205554073607792
 21
0.3001200689403003
 31
0.0
  0
LINE
  5
1A1FF
  8
0
 62
     0
 10
0.910506836919423
 20
0.2851237127582182
 30
0.0
 11
0.9078633077917215
 21
0.3001159114397813
 31
0.0
  0
LINE
  5
1A200
  8
0
 62
     0
 10
0.8978278193680637
 20
0.2850453634485594
 30
0.0
 11
0.8951712082226636
 21
0.3001117539392606
 31
0.0
  0
LINE
  5
1A201
  8
0
 62
     0
 10
0.8858695955727075
 20
0.2808791896147884
 30
0.0
 11
0.8824791086536061
 21
0.3001075964387407
 31
0.0
  0
LINE
  5
1A202
  8
0
 62
     0
 10
0.8756804925208797
 20
0.2666798334715343
 30
0.0
 11
0.8697870090845478
 21
0.3001034389382218
 31
0.0
  0
LINE
  5
1A203
  8
0
 62
     0
 10
0.8574609994043303
 20
0.2980230825067762
 30
0.0
 11
0.8570949095154901
 21
0.3000992814377028
 31
0.0
  0
LINE
  5
1A204
  8
0
 62
     0
 10
0.8687733768808708
 20
0.2338674017874185
 30
0.0
 11
0.8648055268460888
 21
0.2563701975526476
 31
0.0
  0
ENDBLK
  5
1A206
  8
0
 62
     1
  0
BLOCK
  8
0
 62
     1
  2
*X46
 70
     1
 10
0.0
 20
0.0
 30
0.0
  3
*X46
  1

  0
LINE
  5
1A208
  8
0
 62
     0
 10
0.8445644712823327
 20
0.2991782969419541
 30
0.0
 11
0.8444028099464322
 21
0.3000951239371812
 31
0.0
  0
LINE
  5
1A209
  8
0
 62
     0
 10
0.834805526846088
 20
0.2825393900625936
 30
0.0
 11
0.8317107103773745
 21
0.3000909664366613
 31
0.0
  0
LINE
  5
1A20A
  8
0
 62
     0
 10
0.8306305979318651
 20
0.2342319574727245
 30
0.0
 11
0.8190186108083164
 21
0.3000868089361415
 31
0.0
  0
LINE
  5
1A20B
  8
0
 62
     0
 10
0.8092940150908861
 20
0.2832531007922423
 30
0.0
 11
0.8063265112392588
 21
0.3000826514356216
 31
0.0
  0
LINE
  5
1A20C
  8
0
 62
     0
 10
0.7962713430822762
 20
0.28512371275822
 30
0.0
 11
0.7936344116702009
 21
0.3000784939351027
 31
0.0
  0
LINE
  5
1A20D
  8
0
 62
     0
 10
0.7835785104337046
 20
0.28512371275822
 30
0.0
 11
0.7809423121011431
 21
0.3000743364345819
 31
0.0
  0
LINE
  5
1A20E
  8
0
 62
     0
 10
0.7708856777851324
 20
0.28512371275822
 30
0.0
 11
0.768250212532085
 21
0.300070178934063
 31
0.0
  0
LINE
  5
1A20F
  8
0
 62
     0
 10
0.758192845136561
 20
0.28512371275822
 30
0.0
 11
0.7555581129630273
 21
0.3000660214335431
 31
0.0
  0
LINE
  5
1A210
  8
0
 62
     0
 10
0.745500012487989
 20
0.28512371275822
 30
0.0
 11
0.7428660133939691
 21
0.3000618639330241
 31
0.0
  0
LINE
  5
1A211
  8
0
 62
     0
 10
0.7328071798394173
 20
0.28512371275822
 30
0.0
 11
0.7301739138249114
 21
0.3000577064325043
 31
0.0
  0
LINE
  5
1A212
  8
0
 62
     0
 10
0.7201143471908451
 20
0.2851237127582209
 30
0.0
 11
0.7174763685227416
 21
0.3000844332191761
 31
0.0
  0
LINE
  5
1A213
  8
0
 62
     0
 10
0.7074215145422736
 20
0.28512371275822
 30
0.0
 11
0.6990279334493361
 21
0.3327260766120839
 31
0.0
  0
LINE
  5
1A214
  8
0
 62
     0
 10
0.6936877924153503
 20
0.2910268903330246
 30
0.0
 11
0.6900301160623701
 21
0.3117706037357273
 31
0.0
  0
ENDBLK
  5
1A216
  8
0
 62
     1
  0
BLOCK
  8
0
 62
     1
  2
*X47
 70
     1
 10
0.0
 20
0.0
 30
0.0
  3
*X47
  1

  0
LINE
  5
1A22C
  8
0
 62
     0
 10
0.834934391190151
 20
0.0731617432622862
 30
0.0
 11
0.8648055268460793
 21
0.1030328789182144
 31
0.0
  0
LINE
  5
1A22D
  8
0
 62
     0
 10
0.8348055268460781
 20
0.1172270527423729
 30
0.0
 11
0.8648055268460793
 21
0.147227052742374
 31
0.0
  0
LINE
  5
1A22E
  8
0
 62
     0
 10
0.834805526846079
 20
0.1614212265665333
 30
0.0
 11
0.8648055268460793
 21
0.1914212265665336
 31
0.0
  0
LINE
  5
1A22F
  8
0
 62
     0
 10
0.834805526846079
 20
0.2056154003906911
 30
0.0
 11
0.8648055268460801
 21
0.2356154003906923
 31
0.0
  0
LINE
  5
1A230
  8
0
 62
     0
 10
0.834805526846079
 20
0.2498095742148507
 30
0.0
 11
0.8648055268460793
 21
0.2798095742148519
 31
0.0
  0
ENDBLK
  5
1A232
  8
0
 62
     1
  0
BLOCK
  8
0
 62
     1
  2
*U48
 70
     1
 10
0.0
 20
0.0
 30
0.0
  3
*U48
  1

  0
TEXT
  5
1A241
  8
PART
 10
0.9348055268460855
 20
0.2392440216837555
 30
0.0
 40
0.02
  1
.050±.006
  7
ROMANS
  0
ENDBLK
  5
1A243
  8
0
 62
     1
  0
BLOCK
  8
0
 62
     1
  2
*U49
 70
     1
 10
0.0
 20
0.0
 30
0.0
  3
*U49
  1

  0
TEXT
  5
1A245
  8
PART
 10
0.7075198125603716
 20
0.2030713324427853
 30
0.0
 40
0.015
  1
.147±.010
  7
ROMANS
  0
ENDBLK
  5
1A247
  8
0
 62
     1
  0
BLOCK
  8
0
 62
     1
  2
*U50
 70
     1
 10
0.0
 20
0.0
 30
0.0
  3
*U50
  1

  0
TEXT
  5
1A249
  8
PART
 10
0.9466277509939024
 20
0.0145181874603601
 30
0.0
 40
0.0216307679659133
  1
.100
  7
ROMANS
  0
ENDBLK
  5
1A24B
  8
0
 62
     1
  0
BLOCK
  8
0
 62
     1
  2
*U51
 70
     1
 10
0.0
 20
0.0
 30
0.0
  3
*U51
  1

  0
TEXT
  5
1A24D
  8
PART
 10
0.9115279856524526
 20
0.1990326549452234
 30
0.0
 40
0.0216307679659133
  1
.030
  7
ROMANS
  0
ENDBLK
  5
1A24F
  8
0
 62
     1
  0
BLOCK
  8
0
 62
     1
  2
*U52
 70
     1
 10
0.0
 20
0.0
 30
0.0
  3
*U52
  1

  0
TEXT
  5
1A251
  8
PART
 10
0.6043997015015512
 20
0.0775375858605506
 30
0.0
 40
0.0216307679659133
  1
.020
  7
ROMANS
  0
ENDBLK
  5
1A253
  8
0
 62
     1
  0
BLOCK
  8
0
 62
     1
  2
*U53
 70
     1
 10
0.0
 20
0.0
 30
0.0
  3
*U53
  1

  0
TEXT
  5
1A255
  8
PART
 10
0.543602072600947
 20
0.1618083287752624
 30
0.0
 40
0.0216307679659133
  1
.225
  7
ROMANS
  0
ENDBLK
  5
1A257
  8
0
 62
     1
  0
BLOCK
  8
0
 62
     1
  2
*U54
 70
     1
 10
0.0
 20
0.0
 30
0.0
  3
*U54
  1

  0
TEXT
  5
1A259
  8
PART
 10
0.543602072600947
 20
0.4768082617136365
 30
0.0
 40
0.0216307679659133
  1
.405
  7
ROMANS
  0
ENDBLK
  5
1A25B
  8
0
 62
     1
  0
BLOCK
  8
0
 62
     1
  2
*U55
 70
     1
 10
0.0
 20
0.0
 30
0.0
  3
*U55
  1

  0
TEXT
  5
1A25D
  8
PART
 10
0.8343501422815958
 20
0.7505595090717734
 30
0.0
 40
0.0216307679659133
  1
.356
  7
ROMANS
  0
ENDBLK
  5
1A25F
  8
0
 62
     1
  0
BLOCK
  8
0
 62
     1
  2
*U56
 70
     1
 10
0.0
 20
0.0
 30
0.0
  3
*U56
  1

  0
TEXT
  5
1A261
  8
PART
 10
0.8810794789322876
 20
0.6893687136758518
 30
0.0
 40
0.0216307679659133
  1
.098
  7
ROMANS
  0
ENDBLK
  5
1A263
  8
0
 62
     1
  0
ENDSEC
  0
SECTION
  2
ENTITIES
  0
INSERT
  5
19F8F
  8
HATCH
  6
CONTINUOUS
  2
*X45
 10
0.0
 20
0.0
 30
0.0
1001
ACAD
1000
HATCH
1002
{
1070
    19
1000
ANSI31
1040
0.1
1040
0.9599310885968813
1000
R14_HATCH_DATA
1000
19F8F
1011
1.0
1021
0.0
1031
0.0
1021
0.0
1031
0.0
1011
0.0
1021
0.0
1031
0.0
1021
1.0
1031
0.0
1011
0.0
1021
0.0
1031
0.0
1021
0.0
1031
1.0
1040
0.0
1010
0.0
1020
0.0
1030
1.0
1000
ANSI31
1070
     0
1070
     0
1071
        1
1071
        7
1070
     1
1070
     1
1071
       10
1040
1.003996278629206
1040
0.3245622875537546
1040
-0.1005806447426199
1040
0.9316793265555212
1040
0.300123712758219
1040
0.0
1040
0.8506972139907173
1040
0.3000971857700521
1040
-0.3968973984577091
1040
0.8648055268460886
1040
0.2851237127582193
1040
0.0
1040
0.864805526846089
1040
0.2251237127582197
1040
-0.0652227519030258
1040
0.8713151961531178
1040
0.2379554956784446
1040
0.1510682486555076
1040
0.874805526846087
1040
0.2492440216837519
1040
0.0
1040
0.874805526846087
1040
0.2601237127582181
1040
-0.4142135623730951
1040
0.8998055268460873
1040
0.2851237127582185
1040
0.0
1040
0.9317794692931045
1040
0.2851237127582185
1040
0.2757872064756363
1071
        0
1070
     0
1070
     1
1040
0.9599310885968813
1040
0.1
1070
     0
1070
     1
1040
1.745329251994328
1040
-1.9390663373579671
1040
-5.2215176931200391
1040
-0.0123100969126526
1040
-0.0021706022208366
1070
     0
1040
0.0000902306484514
1071
        1
1040
0.8857037689339399
1040
0.2920777021246252
1040
0.0
1002
}
  0
INSERT
  5
19F90
  8
HATCH
  6
CONTINUOUS
  2
*X46
 10
0.0
 20
0.0
 30
0.0
1001
ACAD
1000
HATCH
1002
{
1070
    19
1000
ANSI31
1040
0.1
1040
0.9599310885968813
1000
R14_HATCH_DATA
1000
19F90
1011
1.0
1021
0.0
1031
0.0
1021
0.0
1031
0.0
1011
0.0
1021
0.0
1031
0.0
1021
1.0
1031
0.0
1011
0.0
1021
0.0
1031
0.0
1021
0.0
1031
1.0
1040
0.0
1010
0.0
1020
0.0
1030
1.0
1000
ANSI31
1070
     0
1070
     0
1071
        1
1071
        7
1070
     1
1070
     1
1071
       13
1040
0.8489040302919583
1040
0.3000965983840074
1040
0.0
1040
0.7183787044982211
1040
0.3000538427227488
1040
-0.0349020372924899
1040
0.7165254167394082
1040
0.3001833675406351
1040
-0.3969897333164261
1040
0.7044690369662008
1040
0.3139208336264743
1040
-0.0839518469673278
1040
0.7077842272763532
1040
0.3431237127582201
1040
0.1803801282122032
1040
0.6888055268460885
1040
0.3041005033868551
1040
0.423524692343542
1040
0.7071903623858927
1040
0.2851237127582202
1040
0.0
1040
0.7998055268460913
1040
0.2851237127582202
1040
-0.4142135623730951
1040
0.8248055268460898
1040
0.2601237127582181
1040
0.0
1040
0.8248055268460898
1040
0.2492440216837519
1040
0.1510682486555207
1040
0.8282958575390594
1040
0.2379554956784438
1040
-0.0652227519030241
1040
0.8348055268460878
1040
0.2251237127582197
1040
0.0
1040
0.8348055268460876
1040
0.2851237127582193
1040
-0.3967078274408313
1071
        0
1070
     0
1070
     1
1040
0.9599310885968813
1040
0.1
1070
     0
1070
     1
1040
1.745329251994328
1040
-1.9390663373579671
1040
-5.2215176931200391
1040
-0.0123100969126526
1040
-0.0021706022208366
1070
     0
1040
0.0004631982850896
1071
        1
1040
0.8206790744126415
1040
0.2903504102199819
1040
0.0
1002
}
  0
CIRCLE
  5
19F91
  8
HATCH
 10
0.9090771577711613
 20
0.3402242353892533
 30
0.0
 40
0.0119911651935214
  0
CIRCLE
  5
19F92
  8
HATCH
 10
0.7315755998722829
 20
0.3197901192517343
 30
0.0
 40
0.0119911651935214
  0
CIRCLE
  5
19F93
  8
HATCH
 10
0.8233144090356709
 20
0.3216160505872481
 30
0.0
 40
0.0059955825967607
  0
CIRCLE
  5
19F94
  8
HATCH
 10
0.745259602087895
 20
0.3898337898663613
 30
0.0
 40
0.0059955825967607
  0
CIRCLE
  5
19F95
  8
HATCH
 10
0.939275024230735
 20
0.4834855810845042
 30
0.0
 40
0.0089933738951411
  0
LINE
  5
19F96
  8
HATCH
 10
0.8859531239905713
 20
0.5005604269896946
 30
0.0
 11
0.8859531239905713
 21
0.5005604269896946
 31
0.0
  0
LINE
  5
19F97
  8
HATCH
 10
0.9609603207569215
 20
0.4493022650522225
 30
0.0
 11
0.9609603207569215
 21
0.4493022650522225
 31
0.0
  0
CIRCLE
  5
19F98
  8
HATCH
 10
0.9703822333868536
 20
0.4200190976039242
 30
0.0
 40
0.0059955825967607
  0
LINE
  5
19F99
  8
HATCH
 10
0.9591432820153578
 20
0.3771960759776534
 30
0.0
 11
0.9591432820153578
 21
0.3771960759776534
 31
0.0
  0
CIRCLE
  5
19F9A
  8
HATCH
 10
0.8921490961935739
 20
0.4137905987426571
 30
0.0
 40
0.0059955825967607
  0
LINE
  5
19F9B
  8
HATCH
 10
0.8390790408394047
 20
0.5231659547305114
 30
0.0
 11
0.8390790408394047
 21
0.5231659547305114
 31
0.0
  0
CIRCLE
  5
19F9C
  8
HATCH
 10
0.8215142195187291
 20
0.4063588084228347
 30
0.0
 40
0.0089933738951411
  0
LINE
  5
19F9D
  8
HATCH
 10
0.7919129336844116
 20
0.430547126942906
 30
0.0
 11
0.7919129336844116
 21
0.430547126942906
 31
0.0
  0
LINE
  5
19F9E
  8
HATCH
 10
0.8630747826846167
 20
0.3712681814259604
 30
0.0
 11
0.8630747826846167
 21
0.3712681814259604
 31
0.0
  0
LINE
  5
19F9F
  8
HATCH
 10
0.785982782974255
 20
0.3629691307478915
 30
0.0
 11
0.785982782974255
 21
0.3629691307478915
 31
0.0
  0
CIRCLE
  5
19FA0
  8
HATCH
 10
0.8551507451415396
 20
0.4680526357912147
 30
0.0
 40
0.0119911651935214
  0
LINE
  5
19FA1
  8
HATCH
 10
0.8127555311274896
 20
0.6672568642510044
 30
0.0
 11
0.8127555311274896
 21
0.6672568642510044
 31
0.0
  0
CIRCLE
  5
19FA2
  8
HATCH
 10
0.7635069105596664
 20
0.6330172567052383
 30
0.0
 40
0.0059955825967607
  0
CIRCLE
  5
19FA3
  8
HATCH
 10
0.8244280601713391
 20
0.5791341344401915
 30
0.0
 40
0.0059955825967607
  0
CIRCLE
  5
19FA4
  8
HATCH
 10
0.814853380575041
 20
0.6355409741137887
 30
0.0
 40
0.0119911651935214
  0
CIRCLE
  5
19FA5
  8
HATCH
 10
0.8791512594331685
 20
0.5573288487624446
 30
0.0
 40
0.0119911651935214
  0
POLYLINE
  5
19FAB
  8
PART
 66
     1
 10
0.0
 20
0.0
 30
0.0
 70
     1
  0
VERTEX
  5
1A217
  8
PART
 10
0.8648055268460799
 20
0.0959122236056047
 30
0.0
  0
VERTEX
  5
1A218
  8
PART
 10
0.8648055268460799
 20
0.0728182128380202
 30
0.0
  0
VERTEX
  5
1A219
  8
PART
 10
0.8949052921875269
 20
0.0901963204604457
 30
0.0
 42
0.9999999999999998
  0
VERTEX
  5
1A21A
  8
PART
 10
0.884905292187536
 20
0.1075168285361354
 30
0.0
  0
SEQEND
  5
1A21B
  8
PART
  0
POLYLINE
  5
19FAC
  8
PART
 66
     1
 10
0.0
 20
0.0
 30
0.0
 70
     1
  0
VERTEX
  5
1A21C
  8
PART
 10
0.8147057615046511
 20
0.1075168285361354
 30
0.0
  0
VERTEX
  5
1A21D
  8
PART
 10
0.8348055268460788
 20
0.0959122236056047
 30
0.0
  0
VERTEX
  5
1A21E
  8
PART
 10
0.8348055268460788
 20
0.0728182128380202
 30
0.0
  0
VERTEX
  5
1A21F
  8
PART
 10
0.804705761504646
 20
0.0901963204604457
 30
0.0
 42
-0.9999999999999998
  0
SEQEND
  5
1A220
  8
PART
  0
POLYLINE
  5
19FAD
  8
PART
 66
     1
 10
0.0
 20
0.0
 30
0.0
 70
     1
  0
VERTEX
  5
1A221
  8
PART
 10
0.8348055268460788
 20
0.1732177235258032
 30
0.0
  0
VERTEX
  5
1A222
  8
PART
 10
0.8348055268460788
 20
0.1501237127582187
 30
0.0
  0
VERTEX
  5
1A223
  8
PART
 10
0.804705761504646
 20
0.1675018203806442
 30
0.0
 42
-0.9999999999999998
  0
VERTEX
  5
1A224
  8
PART
 10
0.8147057615046511
 20
0.1848223284563339
 30
0.0
  0
SEQEND
  5
1A225
  8
PART
  0
POLYLINE
  5
19FAE
  8
PART
 66
     1
 10
0.0
 20
0.0
 30
0.0
 70
     1
  0
VERTEX
  5
1A226
  8
PART
 10
0.8648055268460799
 20
0.1732177235258032
 30
0.0
  0
VERTEX
  5
1A227
  8
PART
 10
0.8648055268460799
 20
0.1501237127582187
 30
0.0
  0
VERTEX
  5
1A228
  8
PART
 10
0.8949052921875269
 20
0.1675018203806442
 30
0.0
 42
0.9999999999999998
  0
VERTEX
  5
1A229
  8
PART
 10
0.884905292187536
 20
0.1848223284563339
 30
0.0
  0
SEQEND
  5
1A22A
  8
PART
  0
INSERT
  5
19FAF
  8
HATCH
  6
CONTINUOUS
  2
*X47
 10
0.0
 20
0.0
 30
0.0
1001
ACAD
1000
HATCH
1002
{
1070
    19
1000
ANSI31
1040
0.25
1040
0.0
1000
R14_HATCH_DATA
1000
19FAF
1011
1.0
1021
0.0
1031
0.0
1021
0.0
1031
0.0
1011
0.0
1021
0.0
1031
0.0
1021
1.0
1031
0.0
1011
0.0
1021
0.0
1031
0.0
1021
0.0
1031
1.0
1040
0.0
1010
0.0
1020
0.0
1030
1.0
1000
ANSI31
1070
     0
1070
     0
1071
        1
1071
        7
1070
     1
1070
     1
1071
        4
1040
0.834805526846079
1040
0.2851237127582182
1040
0.0
1040
0.834805526846079
1040
0.0751237127582192
1040
1.0
1040
0.8648055268460801
1040
0.0751237127582192
1040
0.0
1040
0.8648055268460801
1040
0.2851237127582182
1040
1.0
1071
        0
1070
     0
1070
     1
1040
0.0
1040
0.25
1070
     0
1070
     1
1040
0.7853981633974483
1040
-4.5154241823409889
1040
-5.2771968302688528
1040
-0.0220970869120796
1040
0.0220970869120796
1070
     0
1040
0.0008910564995728
1071
        1
1040
-0.1484983385130185
1040
0.130399591477466
1040
0.0
1002
}
  0
POLYLINE
  5
19FB2
  8
PART
 66
     1
 10
0.0
 20
0.0
 30
0.0
 70
     1
  0
VERTEX
  5
1A233
  8
PART
 10
0.7183787044982211
 20
0.3000538427227488
 30
0.0
  0
VERTEX
  5
1A234
  8
PART
 10
0.9316793265555208
 20
0.300123712758219
 30
0.0
 42
0.1005806447426216
  0
VERTEX
  5
1A235
  8
PART
 10
1.003996278629177
 20
0.3245622875537386
 30
0.0
  0
VERTEX
  5
1A236
  8
PART
 10
1.036751033201188
 20
0.3680420581272819
 30
0.0
 42
0.3485134137765646
  0
VERTEX
  5
1A237
  8
PART
 10
1.0355055937710771
 20
0.4177125813094131
 30
0.0
  0
VERTEX
  5
1A238
  8
PART
 10
0.8227355739689656
 20
0.6725024320345698
 30
0.0
 42
0.9835515604290915
  0
VERTEX
  5
1A239
  8
PART
 10
0.7463682337645534
 20
0.6108501104154016
 30
0.0
  0
VERTEX
  5
1A23A
  8
PART
 10
0.8095637834271849
 20
0.4970723354145126
 30
0.0
 42
-0.2321244554558336
  0
VERTEX
  5
1A23B
  8
PART
 10
0.7992491743370209
 20
0.4552528561348652
 30
0.0
  0
VERTEX
  5
1A23C
  8
PART
 10
0.7287958388860573
 20
0.4008192682297766
 30
0.0
 42
0.1524592576958775
  0
VERTEX
  5
1A23D
  8
PART
 10
0.7225693274546045
 20
0.3921422928551002
 30
0.0
 42
0.0943659318562244
  0
VERTEX
  5
1A23E
  8
PART
 10
0.7050618751480254
 20
0.3137994474559973
 30
0.0
 42
0.4235246923436146
  0
SEQEND
  5
1A23F
  8
PART
  0
POLYLINE
  5
1A10C
  8
PART
 66
     1
 10
0.0
 20
0.0
 30
0.0
 70
     1
  0
VERTEX
  5
1A264
  8
PART
 10
0.8998055268460873
 20
0.2851237127582182
 30
0.0
  0
VERTEX
  5
1A265
  8
PART
 10
0.9317794692931045
 20
0.2851237127582182
 30
0.0
 42
0.275787206475641
  0
VERTEX
  5
1A266
  8
PART
 10
1.0039962786292069
 20
0.324562287553755
 30
0.0
 42
-0.1005806447426214
  0
VERTEX
  5
1A267
  8
PART
 10
0.931679326555521
 20
0.3001237127582188
 30
0.0
  0
VERTEX
  5
1A268
  8
PART
 10
0.7177842272763524
 20
0.3001237127582188
 30
0.0
 42
-0.4246366397759187
  0
VERTEX
  5
1A269
  8
PART
 10
0.7044690369662005
 20
0.3139208336264625
 30
0.0
 42
-0.0839518469673659
  0
VERTEX
  5
1A26A
  8
PART
 10
0.7077842272763532
 20
0.3431237127582199
 30
0.0
 42
0.1803801282122031
  0
VERTEX
  5
1A26B
  8
PART
 10
0.6888055268460882
 20
0.3041005033868549
 30
0.0
 42
0.4235246923435704
  0
VERTEX
  5
1A26C
  8
PART
 10
0.7071903623858927
 20
0.28512371275822
 30
0.0
  0
VERTEX
  5
1A26D
  8
PART
 10
0.7998055268460913
 20
0.28512371275822
 30
0.0
 42
-0.4142135623730951
  0
VERTEX
  5
1A26E
  8
PART
 10
0.8248055268460898
 20
0.2601237127582179
 30
0.0
  0
VERTEX
  5
1A26F
  8
PART
 10
0.8248055268460898
 20
0.2492440216837517
 30
0.0
 42
0.1510682486555076
  0
VERTEX
  5
1A270
  8
PART
 10
0.828295857539059
 20
0.2379554956784444
 30
0.0
 42
-0.0652227519030286
  0
VERTEX
  5
1A271
  8
PART
 10
0.8348055268460878
 20
0.2251237127582195
 30
0.0
  0
VERTEX
  5
1A272
  8
PART
 10
0.8348055268460876
 20
0.2851237127582191
 30
0.0
 42
-0.9999999999999998
  0
VERTEX
  5
1A273
  8
PART
 10
0.8648055268460886
 20
0.2851237127582191
 30
0.0
  0
VERTEX
  5
1A274
  8
PART
 10
0.864805526846089
 20
0.2251237127582195
 30
0.0
 42
-0.0652227519030259
  0
VERTEX
  5
1A275
  8
PART
 10
0.8713151961531178
 20
0.2379554956784445
 30
0.0
 42
0.1510682486555076
  0
VERTEX
  5
1A276
  8
PART
 10
0.874805526846087
 20
0.2492440216837517
 30
0.0
  0
VERTEX
  5
1A277
  8
PART
 10
0.874805526846087
 20
0.2601237127582179
 30
0.0
 42
-0.4142135623730951
  0
SEQEND
  5
1A278
  8
PART
  0
POLYLINE
  5
1A111
  8
PART
 66
     1
 10
0.0
 20
0.0
 30
0.0
 70
     1
  0
VERTEX
  5
1A279
  8
PART
 10
0.834805526846079
 20
0.0751237127582192
 30
0.0
 42
1.0000000000000591
  0
VERTEX
  5
1A27A
  8
PART
 10
0.8648055268460801
 20
0.0751237127582192
 30
0.0
  0
VERTEX
  5
1A27B
  8
PART
 10
0.8648055268460801
 20
0.2851237127582182
 30
0.0
 42
0.9999999999999998
  0
VERTEX
  5
1A27C
  8
PART
 10
0.834805526846079
 20
0.2851237127582182
 30
0.0
  0
SEQEND
  5
1A27D
  8
PART
  0
VIEWPORT
  5
B94C
 67
     1
  8
0
 10
4.2500000197906029
 20
5.499999966006726
 30
0.0
 40
22.947263149938831
 41
11.07296507552604
 68
     1
 69
     1
1001
ACAD
1000
MVIEW
1002
{
1070
    16
1010
0.0
1020
0.0
1030
0.0
1010
0.0
1020
0.0
1030
1.0
1040
0.0
1040
11.07296507552604
1040
4.2500000197906029
1040
5.499999966006726
1040
50.0
1040
0.0
1040
0.0
1070
     0
1070
   500
1070
     1
1070
     1
1070
     0
1070
     0
1070
     0
1070
     0
1040
0.0
1040
0.0
1040
0.0
1040
0.5
1040
0.5
1040
0.5
1040
0.5
1070
     0
1002
{
1002
}
1002
}
  0
ENDSEC
  0
EOF
