  0
SECTION
  2
HEADER
  9
$ACADVER
  1
AC1009
  9
$INSBASE
 10
0.0
 20
0.0
 30
0.0
  9
$EXTMIN
 10
-0.3491102978517953
 20
-0.0459690877047345
 30
-0.0000000349181948
  9
$EXTMAX
 10
-0.0789744454073191
 20
0.2041546820677063
 30
0.0000000814935746
  9
$LIMMIN
 10
0.0
 20
0.0
  9
$LIMMAX
 10
1.1999999999999991
 20
1.0
  9
$ORTHOMODE
 70
     0
  9
$REGENMODE
 70
     1
  9
$FILLMODE
 70
     1
  9
$QTEXTMODE
 70
     0
  9
$MIRRTEXT
 70
     1
  9
$DRAGMODE
 70
     2
  9
$LTSCALE
 40
1.0
  9
$OSMODE
 70
    49
  9
$ATTMODE
 70
     1
  9
$TEXTSIZE
 40
0.125
  9
$TRACEWID
 40
0.05
  9
$TEXTSTYLE
  7
STANDARD
  9
$CLAYER
  8
PART
  9
$CELTYPE
  6
BYLAYER
  9
$CECOLOR
 62
     1
  9
$DIMSCALE
 40
0.0
  9
$DIMASZ
 40
0.125
  9
$DIMEXO
 40
0.05
  9
$DIMDLI
 40
0.02
  9
$DIMRND
 40
0.0
  9
$DIMDLE
 40
0.0
  9
$DIMEXE
 40
0.05
  9
$DIMTP
 40
0.005
  9
$DIMTM
 40
0.005
  9
$DIMTXT
 40
0.125
  9
$DIMCEN
 40
0.02
  9
$DIMTSZ
 40
0.0
  9
$DIMTOL
 70
     0
  9
$DIMLIM
 70
     0
  9
$DIMTIH
 70
     1
  9
$DIMTOH
 70
     1
  9
$DIMSE1
 70
     0
  9
$DIMSE2
 70
     0
  9
$DIMTAD
 70
     0
  9
$DIMZIN
 70
     4
  9
$DIMBLK
  1

  9
$DIMASO
 70
     1
  9
$DIMSHO
 70
     1
  9
$DIMPOST
  1

  9
$DIMAPOST
  1

  9
$DIMALT
 70
     0
  9
$DIMALTD
 70
     1
  9
$DIMALTF
 40
25.399999999999999
  9
$DIMLFAC
 40
1.0
  9
$DIMTOFL
 70
     0
  9
$DIMTVP
 40
0.0
  9
$DIMTIX
 70
     0
  9
$DIMSOXD
 70
     0
  9
$DIMSAH
 70
     0
  9
$DIMBLK1
  1

  9
$DIMBLK2
  1

  9
$DIMSTYLE
  2
SCOTTG
  9
$DIMCLRD
 70
   256
  9
$DIMCLRE
 70
   256
  9
$DIMCLRT
 70
   256
  9
$DIMTFAC
 40
1.0
  9
$DIMGAP
 40
0.02
  9
$LUNITS
 70
     2
  9
$LUPREC
 70
     5
  9
$SKETCHINC
 40
0.1
  9
$FILLETRAD
 40
0.01
  9
$AUNITS
 70
     0
  9
$AUPREC
 70
     0
  9
$MENU
  1
.
  9
$ELEVATION
 40
0.0
  9
$PELEVATION
 40
0.0
  9
$THICKNESS
 40
0.0
  9
$LIMCHECK
 70
     0
  9
$BLIPMODE
 70
     0
  9
$CHAMFERA
 40
0.0
  9
$CHAMFERB
 40
0.0
  9
$SKPOLY
 70
     0
  9
$TDCREATE
 40
2450919.3750775461
  9
$TDUPDATE
 40
2455812.5182126621
  9
$TDINDWG
 40
2.4028225579
  9
$TDUSRTIMER
 40
2.4028225579
  9
$USRTIMER
 70
     1
  9
$ANGBASE
 50
0.0
  9
$ANGDIR
 70
     0
  9
$PDMODE
 70
     0
  9
$PDSIZE
 40
0.0
  9
$PLINEWID
 40
0.0
  9
$COORDS
 70
     0
  9
$SPLFRAME
 70
     0
  9
$SPLINETYPE
 70
     6
  9
$SPLINESEGS
 70
     8
  9
$ATTDIA
 70
     0
  9
$ATTREQ
 70
     1
  9
$HANDLING
 70
     1
  9
$HANDSEED
  5
19F55
  9
$SURFTAB1
 70
     6
  9
$SURFTAB2
 70
     6
  9
$SURFTYPE
 70
     6
  9
$SURFU
 70
     6
  9
$SURFV
 70
     6
  9
$UCSNAME
  2

  9
$UCSORG
 10
0.0
 20
0.0
 30
0.0
  9
$UCSXDIR
 10
1.0
 20
0.0
 30
0.0
  9
$UCSYDIR
 10
0.0
 20
1.0
 30
0.0
  9
$PUCSNAME
  2

  9
$PUCSORG
 10
0.0
 20
0.0
 30
0.0
  9
$PUCSXDIR
 10
1.0
 20
0.0
 30
0.0
  9
$PUCSYDIR
 10
0.0
 20
1.0
 30
0.0
  9
$USERI1
 70
     0
  9
$USERI2
 70
     0
  9
$USERI3
 70
     0
  9
$USERI4
 70
     0
  9
$USERI5
 70
     0
  9
$USERR1
 40
0.0
  9
$USERR2
 40
0.0
  9
$USERR3
 40
0.0
  9
$USERR4
 40
0.0
  9
$USERR5
 40
0.0
  9
$WORLDVIEW
 70
     1
  9
$SHADEDGE
 70
     3
  9
$SHADEDIF
 70
    70
  9
$TILEMODE
 70
     1
  9
$MAXACTVP
 70
    48
  9
$PLIMCHECK
 70
     0
  9
$PEXTMIN
 10
-0.0002593796237598
 20
-0.0003357869613225
 30
-0.0015258207003583
  9
$PEXTMAX
 10
8.5002594192049692
 20
11.000335718974769
 30
0.0000000349246037
  9
$PLIMMIN
 10
0.0000001811605737
 20
-0.0000001192092895
  9
$PLIMMAX
 10
8.4999999408646811
 20
10.999999640494821
  9
$UNITMODE
 70
     0
  9
$VISRETAIN
 70
     1
  9
$PLINEGEN
 70
     0
  9
$PSLTSCALE
 70
     1
  0
ENDSEC
  0
SECTION
  2
TABLES
  0
TABLE
  2
VPORT
 70
     1
  0
VPORT
  2
*ACTIVE
 70
     0
 10
0.0
 20
0.0
 11
1.0
 21
1.0
 12
-19.936029417624908
 22
-0.5600850515315726
 13
0.0
 23
0.0
 14
0.5
 24
0.5
 15
0.5
 25
0.5
 16
0.0
 26
0.0
 36
5.6148375865943736
 17
19.721987045995348
 27
0.6391778487130584
 37
0.0
 40
0.251763925639801
 41
2.067833698030634
 42
50.0
 43
0.0
 44
0.0
 50
0.0
 51
0.0
 71
     0
 72
 20000
 73
     1
 74
     0
 75
     0
 76
     0
 77
     0
 78
     0
  0
ENDTAB
  0
TABLE
  2
LTYPE
 70
     1
  0
LTYPE
  2
CONTINUOUS
 70
     0
  3
Solid line
 72
    65
 73
     0
 40
0.0
  0
ENDTAB
  0
TABLE
  2
LAYER
 70
     6
  0
LAYER
  2
0
 70
     0
 62
     7
  6
CONTINUOUS
  0
LAYER
  2
DEFPOINTS
 70
     0
 62
     7
  6
CONTINUOUS
  0
LAYER
  2
HATCH
 70
     0
 62
     7
  6
CONTINUOUS
  0
LAYER
  2
PART
 70
     0
 62
     7
  6
CONTINUOUS
  0
ENDTAB
  0
TABLE
  2
STYLE
 70
     3
  0
STYLE
  2
STANDARD
 70
     0
 40
0.0
 41
1.0
 50
0.0
 71
     0
 42
0.125
  3
txt
  4

  0
STYLE
  2
ROMANS
 70
     0
 40
0.0
 41
1.0
 50
0.0
 71
     0
 42
0.1
  3
SIMPLEX.shx
  4

  0
ENDTAB
  0
TABLE
  2
VIEW
 70
     0
  0
ENDTAB
  0
TABLE
  2
UCS
 70
     0
  0
ENDTAB
  0
TABLE
  2
APPID
 70
    16
  0
APPID
  2
ACAD
 70
     0
  0
APPID
  2
ADP_SK
 70
     0
  0
APPID
  2
ADP_SOL
 70
     0
  0
APPID
  2
ACIS_LNK
 70
     0
  0
APPID
  2
AME_SOL
 70
     0
  0
APPID
  2
ACAD_MLEADERVER
 70
     0
  0
APPID
  2
ACAD_EXEMPT_FROM_CAD_STANDARDS
 70
     0
  0
APPID
  2
ACAD_PSEXT
 70
     0
  0
APPID
  2
ACDBDYNAMICBLOCKGUID
 70
     0
  0
APPID
  2
ACDBBLOCKREPETAG
 70
     0
  0
APPID
  2
ACDBDYNAMICBLOCKTRUENAME
 70
     0
  0
APPID
  2
ACAD_DSTYLE_DIMJAG
 70
     0
  0
APPID
  2
ACAD_DSTYLE_DIMTALN
 70
     0
  0
APPID
  2
ACAECLAYERSTANDARD
 70
     0
  0
APPID
  2
ACAUTHENVIRON
 70
     0
  0
APPID
  2
ACADANNOPO
 70
     0
  0
ENDTAB
  0
TABLE
  2
DIMSTYLE
 70
     2
  0
DIMSTYLE
  2
SCOTTG
 70
     0
  3

  4

  5

  6

  7

 40
0.15
 41
0.125
 42
0.1
 43
0.25
 44
0.1
 45
0.0
 46
0.0
 47
0.01
 48
0.01
140
0.125
141
0.06
142
0.0
143
25.399999999999999
144
1.0
145
0.0
146
1.0
147
0.09
 71
     1
 72
     0
 73
     1
 74
     1
 75
     0
 76
     0
 77
     0
 78
     4
170
     0
171
     1
172
     0
173
     0
174
     1
175
     0
176
   256
177
   256
178
   256
  0
ENDTAB
  0
ENDSEC
  0
SECTION
  2
BLOCKS
  0
BLOCK
  8
0
  2
$MODEL_SPACE
 70
     0
 10
0.0
 20
0.0
 30
0.0
  3
$MODEL_SPACE
  1

  0
ENDBLK
  5
1A
  8
0
  0
BLOCK
 67
     1
  8
0
  2
$PAPER_SPACE
 70
     0
 10
0.0
 20
0.0
 30
0.0
  3
$PAPER_SPACE
  1

  0
ENDBLK
  5
B932
 67
     1
  8
0
  0
BLOCK
  8
0
 62
     1
  2
*U20
 70
     1
 10
0.0
 20
0.0
 30
0.0
  3
*U20
  1

  0
TEXT
  5
19E80
  8
PART
 10
-0.3733034910232481
 20
0.7141972627033814
 30
0.0
 40
0.0378374821074757
  1
.400
  7
ROMANS
  0
ENDBLK
  5
19E82
  8
0
 62
     1
  0
BLOCK
  8
0
 62
     1
  2
*U21
 70
     1
 10
0.0
 20
0.0
 30
0.0
  3
*U21
  1

  0
TEXT
  5
19E84
  8
PART
 10
-0.2841244632638552
 20
0.8031443739727691
 30
0.0
 40
0.0378374821074757
  1
.561
  7
ROMANS
  0
ENDBLK
  5
19E86
  8
0
 62
     1
  0
BLOCK
  8
0
 62
     1
  2
*U22
 70
     1
 10
0.0
 20
0.0
 30
0.0
  3
*U22
  1

  0
TEXT
  5
19E88
  8
PART
 10
-0.7225985692659322
 20
0.3060812574018382
 30
0.0
 40
0.0378374821074757
  1
.650
  7
ROMANS
  0
ENDBLK
  5
19E8A
  8
0
 62
     1
  0
BLOCK
  8
0
 62
     1
  2
*U23
 70
     1
 10
0.0
 20
0.0
 30
0.0
  3
*U23
  1

  0
TEXT
  5
19E8C
  8
PART
 10
0.1457500447553917
 20
-0.4352694319903586
 30
0.0
 40
0.0378374821394327
  1
.018
  7
ROMANS
  0
ENDBLK
  5
19E8E
  8
0
 62
     1
  0
BLOCK
  8
0
 62
     1
  2
*U24
 70
     1
 10
0.0
 20
0.0
 30
0.0
  3
*U24
  1

  0
TEXT
  5
19E90
  8
PART
 10
-0.0855716434774586
 20
-0.5545369172463596
 30
0.0
 40
0.0378374821394327
  1
.155
  7
ROMANS
  0
ENDBLK
  5
19E92
  8
0
 62
     1
  0
BLOCK
  8
0
 62
     1
  2
*U25
 70
     1
 10
0.0
 20
0.0
 30
0.0
  3
*U25
  1

  0
TEXT
  5
19E94
  8
PART
 10
0.1468273350806249
 20
-0.4926613062714235
 30
0.0
 40
0.0378374821394327
  1
.040
  7
ROMANS
  0
ENDBLK
  5
19E96
  8
0
 62
     1
  0
BLOCK
  8
0
 62
     1
  2
*U26
 70
     1
 10
0.0
 20
0.0
 30
0.0
  3
*U26
  1

  0
TEXT
  5
19E98
  8
PART
 10
-0.7225985693146287
 20
-0.1939187410697232
 30
0.0
 40
0.0378374821394327
  1
.350
  7
ROMANS
  0
ENDBLK
  5
19E9A
  8
0
 62
     1
  0
BLOCK
  8
0
 62
     1
  2
*U27
 70
     1
 10
0.0
 20
0.0
 30
0.0
  3
*U27
  1

  0
TEXT
  5
19E9C
  8
PART
 10
-0.3754939488229078
 20
-0.229541701938869
 30
0.0
 40
0.0378374821394327
  1
.030
  7
ROMANS
  0
ENDBLK
  5
19E9E
  8
0
 62
     1
  0
BLOCK
  8
0
 62
     1
  2
*U28
 70
     1
 10
0.0
 20
0.0
 30
0.0
  3
*U28
  1

  0
TEXT
  5
19EA0
  8
PART
 10
-0.2079462264281474
 20
0.3460745370676188
 30
0.0
 40
0.0378374821074757
  1
.135
  7
ROMANS
  0
ENDBLK
  5
19EA2
  8
0
 62
     1
  0
BLOCK
  8
0
 62
     1
  2
*X29
 70
     1
 10
0.0
 20
0.0
 30
0.0
  3
*X29
  1

  0
LINE
  5
19EA4
  8
0
 62
     0
 10
0.2246922900432282
 20
0.1674360701090869
 30
0.0
 11
0.2163938355245181
 21
0.1984063239972125
 31
0.0
  0
LINE
  5
19EA5
  8
0
 62
     0
 10
0.1986482741347362
 20
0.2163373693982571
 30
0.0
 11
0.1960166670767038
 21
0.2261586606443915
 31
0.0
  0
LINE
  5
19EA6
  8
0
 62
     0
 10
0.2209213128338154
 20
0.1332132573343463
 30
0.0
 11
0.2182897057757833
 21
0.143034548580478
 31
0.0
  0
LINE
  5
19EA7
  8
0
 62
     0
 10
0.1817881657153697
 20
0.2309638593259988
 30
0.0
 11
0.1799033716370579
 21
0.2379980065880627
 31
0.0
  0
LINE
  5
19EA8
  8
0
 62
     0
 10
0.2128864626162341
 20
0.11490343526311
 30
0.0
 11
0.211001668537923
 21
0.1219375825251729
 31
0.0
  0
LINE
  5
19EA9
  8
0
 62
     0
 10
0.1667329398266217
 20
0.2388544359477809
 30
0.0
 11
0.1651388665704936
 21
0.2448035983306376
 31
0.0
  0
LINE
  5
19EAA
  8
0
 62
     0
 10
0.2035028220255726
 20
0.1016273673929735
 30
0.0
 11
0.2019087487694449
 21
0.1075765297758284
 31
0.0
  0
LINE
  5
19EAB
  8
0
 62
     0
 10
0.1526412097600096
 20
0.2431491972084689
 30
0.0
 11
0.1511993978616315
 21
0.2485301124681731
 31
0.0
  0
LINE
  5
19EAC
  8
0
 62
     0
 10
0.1932941450772074
 20
0.0914303771278755
 30
0.0
 11
0.1918523331788298
 21
0.0968112923875779
 31
0.0
  0
LINE
  5
19EAD
  8
0
 62
     0
 10
0.1392325891490009
 20
0.2448945592737139
 30
0.0
 11
0.1378769126853139
 21
0.2499540127148192
 31
0.0
  0
LINE
  5
19EAE
  8
0
 62
     0
 10
0.1824684845962983
 20
0.0835360007536643
 30
0.0
 11
0.1811128081326117
 21
0.0885954541947678
 31
0.0
  0
LINE
  5
19EAF
  8
0
 62
     0
 10
0.1263807808349073
 20
0.2445618695565956
 30
0.0
 11
0.1250708452786342
 21
0.2494506156072473
 31
0.0
  0
LINE
  5
19EB0
  8
0
 62
     0
 10
0.1750000108810241
 20
0.063112432799608
 30
0.0
 11
0.1698164707894791
 21
0.0824576677843245
 31
0.0
  0
LINE
  5
19EB1
  8
0
 62
     0
 10
0.1602916958741403
 20
0.0697083203845725
 30
0.0
 11
0.1580224589004475
 21
0.0781772280648081
 31
0.0
  0
LINE
  5
19EB2
  8
0
 62
     0
 10
0.1140266470667119
 20
0.2423718331485496
 30
0.0
 11
0.112732456672348
 21
0.2472018174549833
 31
0.0
  0
LINE
  5
19EB3
  8
0
 62
     0
 10
0.1714674051978984
 20
0.0280000053776863
 30
0.0
 11
0.1700000108810233
 21
0.0334763955230013
 31
0.0
  0
LINE
  5
19EB4
  8
0
 62
     0
 10
0.1021509983184954
 20
0.238396066335282
 30
0.0
 11
0.1008456907340915
 21
0.2432675405597813
 31
0.0
  0
LINE
  5
19EB5
  8
0
 62
     0
 10
0.1459328408985085
 20
0.0750000053776896
 30
0.0
 11
0.1457499619914371
 21
0.0756825187505133
 31
0.0
  0
LINE
  5
19EB6
  8
0
 62
     0
 10
0.0907673234691318
 20
0.2325842279354982
 30
0.0
 11
0.089421846383517
 21
0.2376056167794314
 31
0.0
  0
LINE
  5
19EB7
  8
0
 62
     0
 10
0.1329918886433832
 20
0.0750000053776878
 30
0.0
 11
0.1329854911835746
 21
0.0750238810227328
 31
0.0
  0
LINE
  5
19EB8
  8
0
 62
     0
 10
0.0799268243512024
 20
0.2247452301085628
 30
0.0
 11
0.0785032784287625
 21
0.2300579758180152
 31
0.0
  0
LINE
  5
19EB9
  8
0
 62
     0
 10
0.1200509363882569
 20
0.0750000053776878
 30
0.0
 11
0.119677844644277
 21
0.0763924027221057
 31
0.0
  0
LINE
  5
19EBA
  8
0
 62
     0
 10
0.0697409090228824
 20
0.2144632923209926
 30
0.0
 11
0.068179380855518
 21
0.220290994779047
 31
0.0
  0
LINE
  5
19EBB
  8
0
 62
     0
 10
0.1087773429736729
 20
0.068777337470336
 30
0.0
 11
0.1057156143153697
 21
0.0802038643821135
 31
0.0
  0
LINE
  5
19EBC
  8
0
 62
     0
 10
0.0937581953210391
 20
0.0765332682818913
 30
0.0
 11
0.0908568292755447
 21
0.0873613137750313
 31
0.0
  0
LINE
  5
19EBD
  8
0
 62
     0
 10
0.0604515484054813
 20
0.2008353668005105
 30
0.0
 11
0.0586326095353724
 21
0.2076237390796187
 31
0.0
  0
LINE
  5
19EBE
  8
0
 62
     0
 10
0.1000000108810237
 20
0.0532384954805547
 30
0.0
 11
0.094902939118128
 21
0.0722610262695067
 31
0.0
  0
LINE
  5
19EBF
  8
0
 62
     0
 10
0.0527282882158682
 20
0.1813626749137675
 30
0.0
 11
0.050299451406578
 21
0.190427217289332
 31
0.0
  0
LINE
  5
19EC0
  8
0
 62
     0
 10
0.0768607806172208
 20
0.0912989871586492
 30
0.0
 11
0.0744319438079311
 21
0.1003635295342118
 31
0.0
  0
LINE
  5
19EC1
  8
0
 62
     0
 10
0.0579932931413352
 20
0.11341711771537
 30
0.0
 11
0.0450187932252366
 21
0.1618386106050478
 31
0.0
  0
ENDBLK
  5
19EC3
  8
0
 62
     1
  0
BLOCK
  8
0
 62
     1
  2
*X30
 70
     1
 10
0.0
 20
0.0
 30
0.0
  3
*X30
  1

  0
LINE
  5
19EC5
  8
0
 62
     0
 10
0.2423338225618914
 20
0.0000000053776867
 30
0.0
 11
0.2672360144319459
 21
0.0249021972477412
 31
0.0
  0
LINE
  5
19EC6
  8
0
 62
     0
 10
0.1981396487377323
 20
0.0000000053776867
 30
0.0
 11
0.2261396487377323
 21
0.0280000053776863
 31
0.0
  0
LINE
  5
19EC7
  8
0
 62
     0
 10
0.1539454749135731
 20
0.0000000053776867
 30
0.0
 11
0.1819454749135727
 21
0.0280000053776868
 31
0.0
  0
LINE
  5
19EC8
  8
0
 62
     0
 10
0.109751301089414
 20
0.0000000053776867
 30
0.0
 11
0.1692956856315151
 21
0.0595443899197878
 31
0.0
  0
LINE
  5
19EC9
  8
0
 62
     0
 10
0.1000000108810237
 20
0.0344428889934561
 30
0.0
 11
0.1405571272652559
 21
0.0750000053776878
 31
0.0
  0
LINE
  5
19ECA
  8
0
 62
     0
 10
0.0655571272652544
 20
0.0000000053776867
 30
0.0
 11
0.0935571272652545
 21
0.0280000053776868
 31
0.0
  0
LINE
  5
19ECB
  8
0
 62
     0
 10
0.0213629534410953
 20
0.0000000053776867
 30
0.0
 11
0.0493629534410949
 21
0.0280000053776863
 31
0.0
  0
ENDBLK
  5
19ECD
  8
0
 62
     1
  0
BLOCK
  8
0
 62
     1
  2
*X31
 70
     1
 10
0.0
 20
0.0
 30
0.0
  3
*X31
  1

  0
LINE
  5
19EF3
  8
0
 62
     0
 10
-0.1243937244462798
 20
0.1215383527705205
 30
0.0
 11
-0.13269217896499
 21
0.1525086066586461
 31
0.0
  0
LINE
  5
19EF4
  8
0
 62
     0
 10
-0.1504377403547719
 20
0.1704396520596907
 30
0.0
 11
-0.1530693474128042
 21
0.1802609433058251
 31
0.0
  0
LINE
  5
19EF5
  8
0
 62
     0
 10
-0.1281647016556926
 20
0.0873155399957799
 30
0.0
 11
-0.1307963087137247
 21
0.0971368312419117
 31
0.0
  0
LINE
  5
19EF6
  8
0
 62
     0
 10
-0.1672978487741383
 20
0.1850661419874333
 30
0.0
 11
-0.1691826428524501
 21
0.1921002892494972
 31
0.0
  0
LINE
  5
19EF7
  8
0
 62
     0
 10
-0.1361995518732739
 20
0.0690057179245445
 30
0.0
 11
-0.138084345951585
 21
0.0760398651866074
 31
0.0
  0
LINE
  5
19EF8
  8
0
 62
     0
 10
-0.1823530746628863
 20
0.1929567186092145
 30
0.0
 11
-0.1839471479190144
 21
0.1989058809920712
 31
0.0
  0
LINE
  5
19EF9
  8
0
 62
     0
 10
-0.1455831924639355
 20
0.0557296500544071
 30
0.0
 11
-0.1471772657200632
 21
0.061678812437262
 31
0.0
  0
LINE
  5
19EFA
  8
0
 62
     0
 10
-0.1964448047294984
 20
0.1972514798699025
 30
0.0
 11
-0.1978866166278765
 21
0.2026323951296067
 31
0.0
  0
LINE
  5
19EFB
  8
0
 62
     0
 10
-0.1557918694123006
 20
0.0455326597893091
 30
0.0
 11
-0.1572336813106783
 21
0.0509135750490115
 31
0.0
  0
LINE
  5
19EFC
  8
0
 62
     0
 10
-0.2098534253405071
 20
0.1989968419351484
 30
0.0
 11
-0.2112091018041942
 21
0.2040562953762537
 31
0.0
  0
LINE
  5
19EFD
  8
0
 62
     0
 10
-0.1666175298932098
 20
0.0376382834150988
 30
0.0
 11
-0.1679732063568964
 21
0.0426977368562023
 31
0.0
  0
LINE
  5
19EFE
  8
0
 62
     0
 10
-0.2227052336546007
 20
0.1986641522180292
 30
0.0
 11
-0.2240151692108738
 21
0.2035528982686809
 31
0.0
  0
LINE
  5
19EFF
  8
0
 62
     0
 10
-0.1740860036084839
 20
0.0172147154610416
 30
0.0
 11
-0.1792695437000289
 21
0.0365599504457581
 31
0.0
  0
LINE
  5
19F00
  8
0
 62
     0
 10
-0.188794318615368
 20
0.023810603046007
 30
0.0
 11
-0.1910635555890605
 21
0.0322795107262417
 31
0.0
  0
LINE
  5
19F01
  8
0
 62
     0
 10
-0.2350593674227961
 20
0.1964741158099832
 30
0.0
 11
-0.23635355781716
 21
0.2013041001164169
 31
0.0
  0
LINE
  5
19F02
  8
0
 62
     0
 10
-0.1776186092916097
 20
-0.0178977119608801
 30
0.0
 11
-0.1790860036084845
 21
-0.012421321815566
 31
0.0
  0
LINE
  5
19F03
  8
0
 62
     0
 10
-0.2469350161710127
 20
0.1924983489967156
 30
0.0
 11
-0.2482403237554165
 21
0.1973698232212149
 31
0.0
  0
LINE
  5
19F04
  8
0
 62
     0
 10
-0.2031531735909995
 20
0.0291022880391232
 30
0.0
 11
-0.203336052498071
 21
0.0297848014119468
 31
0.0
  0
LINE
  5
19F05
  8
0
 62
     0
 10
-0.2583186910203763
 20
0.1866865105969317
 30
0.0
 11
-0.259664168105991
 21
0.191707899440865
 31
0.0
  0
LINE
  5
19F06
  8
0
 62
     0
 10
-0.2160941258461249
 20
0.0291022880391214
 30
0.0
 11
-0.2161005233059334
 21
0.0291261636841664
 31
0.0
  0
LINE
  5
19F07
  8
0
 62
     0
 10
-0.2691591901383057
 20
0.1788475127699964
 30
0.0
 11
-0.2705827360607456
 21
0.1841602584794488
 31
0.0
  0
LINE
  5
19F08
  8
0
 62
     0
 10
-0.2290350781012511
 20
0.0291022880391214
 30
0.0
 11
-0.229408169845231
 21
0.0304946853835393
 31
0.0
  0
LINE
  5
19F09
  8
0
 62
     0
 10
-0.2793451054666256
 20
0.1685655749824262
 30
0.0
 11
-0.28090663363399
 21
0.1743932774404806
 31
0.0
  0
LINE
  5
19F0A
  8
0
 62
     0
 10
-0.2403086715158351
 20
0.0228796201317696
 30
0.0
 11
-0.2433704001741384
 21
0.0343061470435471
 31
0.0
  0
LINE
  5
19F0B
  8
0
 62
     0
 10
-0.2553278191684689
 20
0.0306355509433249
 30
0.0
 11
-0.2582291852139633
 21
0.0414635964364649
 31
0.0
  0
LINE
  5
19F0C
  8
0
 62
     0
 10
-0.2886344660840268
 20
0.1549376494619441
 30
0.0
 11
-0.2904534049541356
 21
0.1617260217410523
 31
0.0
  0
LINE
  5
19F0D
  8
0
 62
     0
 10
-0.2490860036084841
 20
0.0073407781419874
 30
0.0
 11
-0.2541830753713801
 21
0.0263633089309403
 31
0.0
  0
LINE
  5
19F0E
  8
0
 62
     0
 10
-0.2963577262736399
 20
0.1354649575752012
 30
0.0
 11
-0.2987865630829301
 21
0.1445294999507656
 31
0.0
  0
LINE
  5
19F0F
  8
0
 62
     0
 10
-0.2722252338722872
 20
0.0454012698200828
 30
0.0
 11
-0.274654070681577
 21
0.0544658121956454
 31
0.0
  0
LINE
  5
19F10
  8
0
 62
     0
 10
-0.2910927213481729
 20
0.0675194003768036
 30
0.0
 11
-0.3040672212642714
 21
0.1159408932664814
 31
0.0
  0
ENDBLK
  5
19F12
  8
0
 62
     1
  0
BLOCK
  8
0
 62
     1
  2
*X32
 70
     1
 10
0.0
 20
0.0
 30
0.0
  3
*X32
  1

  0
LINE
  5
19F14
  8
0
 62
     0
 10
-0.1067521919276166
 20
-0.0458977119608797
 30
0.0
 11
-0.0818500000575622
 21
-0.0209955200908252
 31
0.0
  0
LINE
  5
19F15
  8
0
 62
     0
 10
-0.1509463657517758
 20
-0.0458977119608797
 30
0.0
 11
-0.1229463657517757
 21
-0.0178977119608801
 31
0.0
  0
LINE
  5
19F16
  8
0
 62
     0
 10
-0.1951405395759349
 20
-0.0458977119608797
 30
0.0
 11
-0.1671405395759353
 21
-0.0178977119608797
 31
0.0
  0
LINE
  5
19F17
  8
0
 62
     0
 10
-0.239334713400094
 20
-0.0458977119608797
 30
0.0
 11
-0.1797903288579929
 21
0.0136466725812214
 31
0.0
  0
LINE
  5
19F18
  8
0
 62
     0
 10
-0.2490860036084843
 20
-0.0114548283451104
 30
0.0
 11
-0.2085288872242521
 21
0.0291022880391214
 31
0.0
  0
LINE
  5
19F19
  8
0
 62
     0
 10
-0.2835288872242536
 20
-0.0458977119608797
 30
0.0
 11
-0.2555288872242536
 21
-0.0178977119608797
 31
0.0
  0
LINE
  5
19F1A
  8
0
 62
     0
 10
-0.3277230610484128
 20
-0.0458977119608797
 30
0.0
 11
-0.2997230610484132
 21
-0.0178977119608801
 31
0.0
  0
ENDBLK
  5
19F1C
  8
0
 62
     1
  0
BLOCK
  8
0
 62
     1
  2
*U33
 70
     1
 10
0.0
 20
0.0
 30
0.0
  3
*U33
  1

  0
TEXT
  5
19F42
  8
PART
 10
-0.2302792335297311
 20
-0.0738846937473179
 30
0.0
 40
0.0106268071358183
  1
.080
  7
ROMANS
  0
ENDBLK
  5
19F44
  8
0
 62
     1
  0
BLOCK
  8
0
 62
     1
  2
*U34
 70
     1
 10
0.0
 20
0.0
 30
0.0
  3
*U34
  1

  0
TEXT
  5
19F46
  8
PART
 10
-0.2322841501441043
 20
-0.0964623037041602
 30
0.0
 40
0.0106268071358183
  1
.270
  7
ROMANS
  0
ENDBLK
  5
19F48
  8
0
 62
     1
  0
BLOCK
  8
0
 62
     1
  2
*U35
 70
     1
 10
0.0
 20
0.0
 30
0.0
  3
*U35
  1

  0
TEXT
  5
19F4A
  8
PART
 10
-0.0464353521765155
 20
-0.0125843083929712
 30
0.0
 40
0.0106268071358183
  1
.028
  7
ROMANS
  0
ENDBLK
  5
19F4C
  8
0
 62
     1
  0
BLOCK
  8
0
 62
     1
  2
*U36
 70
     1
 10
0.0
 20
0.0
 30
0.0
  3
*U36
  1

  0
TEXT
  5
19F4E
  8
PART
 10
-0.3891941944737286
 20
0.0737888844712118
 30
0.0
 40
0.0106268071358183
  1
.250
  7
ROMANS
  0
ENDBLK
  5
19F50
  8
0
 62
     1
  0
BLOCK
  8
0
 62
     1
  2
*U37
 70
     1
 10
0.0
 20
0.0
 30
0.0
  3
*U37
  1

  0
TEXT
  5
19F52
  8
PART
 10
-0.2292671566596532
 20
0.2229690670932579
 30
0.0
 40
0.0106268071358183
  1
.180
  7
ROMANS
  0
ENDBLK
  5
19F54
  8
0
 62
     1
  0
ENDSEC
  0
SECTION
  2
ENTITIES
  0
INSERT
  5
19D69
  8
HATCH
  6
CONTINUOUS
  2
*X31
 10
0.0
 20
0.0
 30
0.0
1001
ACAD
1000
HATCH
1002
{
1070
    19
1000
ANSI31
1040
0.1
1040
1.047197551196597
1000
ASC_BOUNDS
1070
     2
1070
     2
1070
     1
1005
19D6D
1070
     2
1070
     1
1005
19D6C
1000
ASC_SEEDPOINT
1011
-1.1135129761074021
1021
0.0
1031
0.0
1021
-5.6675427326466066
1031
0.0
1000
R14_HATCH_DATA
1000
19D69
1011
1.0
1021
0.0
1031
0.0
1021
0.0
1031
0.0
1011
0.0
1021
0.0
1031
0.0
1021
1.0
1031
0.0
1011
0.0
1021
0.0
1031
0.0
1021
0.0
1031
1.0
1040
0.0
1010
0.0
1020
0.0
1030
1.0
1000
ANSI31
1070
     0
1070
     1
1071
        2
1071
        1
1071
       16
1070
     2
1040
-0.2299438679847529
1040
0.0191022880391214
1040
0.0099999999999998
1040
3.926990816987233
1040
4.712388980384679
1070
     0
1070
     1
1040
-0.229943867984753
1040
0.0291022880391212
1040
-0.1982281392322163
1040
0.0291022880391221
1070
     2
1040
-0.1982281392322156
1040
0.0191022880391223
1040
0.0099999999999998
1040
4.7123889803846231
1040
5.4977871437821531
1070
     0
1070
     1
1040
-0.1911570714203501
1040
0.0261733558509876
1040
-0.1820149357966185
1040
0.0170312202272569
1070
     2
1040
-0.1890860036084836
1040
0.0099601524153916
1040
0.0099999999999996
1040
5.4977871437821211
1040
6.2831853071795862
1070
     0
1070
     1
1040
-0.179086003608484
1040
0.0099601524153916
1040
-0.1790860036084849
1040
-0.0178977119608803
1070
     1
1040
-0.1790860036084849
1040
-0.0178977119608803
1040
-0.1740860036084841
1040
-0.0178977119608803
1070
     1
1040
-0.1740860036084841
1040
-0.0178977119608803
1040
-0.1740860036084841
1040
0.0246595689391087
1070
     2
1040
-0.1590860036084757
1040
0.0246595689391238
1040
0.0150000000000085
1040
3.1415926535887859
1040
4.1610720112519104
1070
     0
1070
     2
1040
-0.2140860036084842
1040
0.1141022880391211
1040
0.0900000000000015
1040
5.2637059495164689
1040
10.44425731843249
1070
     1
1070
     2
1040
-0.2690860036084925
1040
0.0246595689391238
1040
0.0150000000000078
1040
5.263705949517461
1040
6.2831853071805916
1070
     0
1070
     1
1040
-0.2540860036084842
1040
0.0246595689391087
1040
-0.2540860036084842
1040
-0.0178977119608803
1070
     1
1040
-0.2540860036084842
1040
-0.0178977119608803
1040
-0.2490860036084843
1040
-0.0178977119608803
1070
     1
1040
-0.2490860036084843
1040
-0.0178977119608803
1040
-0.2490860036084843
1040
0.0099601524153898
1070
     2
1040
-0.2390860036084845
1040
0.0099601524153898
1040
0.0099999999999998
1040
3.1415926535897931
1040
3.926990816987241
1070
     0
1070
     1
1040
-0.2461570714203498
1040
0.0170312202272551
1040
-0.2370149357966182
1040
0.0261733558509867
1071
        1
1005
19D6C
1071
       16
1071
        1
1070
     2
1040
-0.2140860036084842
1040
0.1141022880391203
1040
0.0850000000000004
1040
0.0
1040
6.2831853071795862
1070
     1
1071
        1
1005
19D6D
1070
     0
1070
     1
1040
1.047197551196597
1040
0.1
1070
     0
1070
     1
1040
1.832595714594045
1040
-1.153499824735462
1040
-5.6004510748329652
1040
-0.0120740728286134
1040
-0.0032352380637815
1070
     0
1071
        1
1040
-1.1135129761074021
1040
-5.6675427326466066
1040
0.0
1002
}
  0
INSERT
  5
19D6A
  8
HATCH
  6
CONTINUOUS
  2
*X32
 10
0.0
 20
0.0
 30
0.0
1001
ACAD
1000
HATCH
1002
{
1070
    19
1000
ANSI31
1040
0.25
1040
0.0
1000
ASC_BOUNDS
1070
     1
1070
     2
1070
     1
1005
19D6B
1000
ASC_SEEDPOINT
1011
-3.1986824003810148
1021
0.0
1031
0.0
1021
-4.8933605553982567
1031
0.0
1000
R14_HATCH_DATA
1000
19D6A
1011
1.0
1021
0.0
1031
0.0
1021
0.0
1031
0.0
1011
0.0
1021
0.0
1031
0.0
1021
1.0
1031
0.0
1011
0.0
1021
0.0
1031
0.0
1021
0.0
1031
1.0
1040
0.0
1010
0.0
1020
0.0
1030
1.0
1000
ANSI31
1070
     0
1070
     1
1071
        1
1071
        1
1071
       18
1070
     1
1040
-0.179086003608484
1040
-0.0178977119608803
1040
-0.0890860036084842
1040
-0.0178977119608803
1070
     2
1040
-0.0890860036084842
1040
-0.0278977119608801
1040
0.0099999999999998
1040
4.7123889803846888
1040
6.2831853071795862
1070
     0
1070
     1
1040
-0.0790860036084844
1040
-0.0278977119608801
1040
-0.0790860036084844
1040
-0.0358977119608801
1070
     2
1040
-0.0890860036084842
1040
-0.0358977119608801
1040
0.0099999999999998
1040
6.2831853071795862
1040
7.8539816339744819
1070
     0
1070
     1
1040
-0.0890860036084842
1040
-0.0458977119608799
1040
-0.3390860036084842
1040
-0.0458977119608799
1070
     2
1040
-0.3390860036084841
1040
-0.0358977119608801
1040
0.0099999999999998
1040
1.570796326794907
1040
3.1415926535897931
1070
     0
1070
     1
1040
-0.349086003608484
1040
-0.0358977119608801
1040
-0.349086003608484
1040
-0.0278977119608801
1070
     2
1040
-0.3390860036084843
1040
-0.0278977119608801
1040
0.0099999999999997
1040
3.1415926535897931
1040
4.7123889803847003
1070
     0
1070
     1
1040
-0.3390860036084842
1040
-0.0178977119608803
1040
-0.2490860036084843
1040
-0.0178977119608803
1070
     1
1040
-0.2490860036084843
1040
-0.0178977119608803
1040
-0.2490860036084843
1040
0.0099601524153889
1070
     2
1040
-0.2390860036084837
1040
0.0099601524153872
1040
0.0100000000000006
1040
3.1415926535899699
1040
3.9269908169873751
1070
     0
1070
     1
1040
-0.2461570714203489
1040
0.0170312202272542
1040
-0.2370149357966174
1040
0.0261733558509867
1070
     2
1040
-0.2299438679847524
1040
0.0191022880391223
1040
0.0099999999999989
1040
3.9269908169872019
1040
4.7123889803846337
1070
     0
1070
     1
1040
-0.229943867984753
1040
0.0291022880391212
1040
-0.1982281392322136
1040
0.0291022880391212
1070
     2
1040
-0.1982281392322133
1040
0.0191022880391223
1040
0.0099999999999989
1040
4.7123889803846559
1040
5.4977871437820509
1070
     0
1070
     1
1040
-0.1911570714203492
1040
0.0261733558509876
1040
-0.1820149357966194
1040
0.0170312202272569
1070
     2
1040
-0.1890860036084848
1040
0.0099601524153907
1040
0.0100000000000004
1040
5.497787143782082
1040
6.2831853071794974
1070
     0
1070
     1
1040
-0.179086003608484
1040
0.0099601524153916
1040
-0.179086003608484
1040
-0.0178977119608803
1071
        1
1005
19D6B
1070
     0
1070
     1
1040
0.0
1040
0.25
1070
     0
1070
     1
1040
0.7853981633974483
1040
-1.153499824735462
1040
-5.6004510748329652
1040
-0.0220970869120796
1040
0.0220970869120796
1070
     0
1071
        1
1040
-3.1986824003810148
1040
-4.8933605553982567
1040
0.0
1002
}
  0
POLYLINE
  5
19D6B
  8
PART
 66
     1
 10
0.0
 20
0.0
 30
0.0
 70
     1
1001
ACAD
1000
ASC_BOUNDS
1002
{
1070
    19
1005
19D6A
1002
}
  0
VERTEX
  5
19F1D
  8
PART
 10
-0.179086003608484
 20
-0.0178977119608803
 30
0.0
  0
VERTEX
  5
19F1E
  8
PART
 10
-0.0890860036084842
 20
-0.0178977119608803
 30
0.0
 42
-0.4142135623730904
  0
VERTEX
  5
19F1F
  8
PART
 10
-0.0790860036084844
 20
-0.0278977119608801
 30
0.0
  0
VERTEX
  5
19F20
  8
PART
 10
-0.0790860036084844
 20
-0.0358977119608801
 30
0.0
 42
-0.4142135623731003
  0
VERTEX
  5
19F21
  8
PART
 10
-0.0890860036084842
 20
-0.0458977119608799
 30
0.0
  0
VERTEX
  5
19F22
  8
PART
 10
-0.3390860036084842
 20
-0.0458977119608799
 30
0.0
 42
-0.4142135623730905
  0
VERTEX
  5
19F23
  8
PART
 10
-0.349086003608484
 20
-0.0358977119608801
 30
0.0
  0
VERTEX
  5
19F24
  8
PART
 10
-0.349086003608484
 20
-0.0278977119608801
 30
0.0
 42
-0.4142135623730987
  0
VERTEX
  5
19F25
  8
PART
 10
-0.3390860036084842
 20
-0.0178977119608803
 30
0.0
  0
VERTEX
  5
19F26
  8
PART
 10
-0.2490860036084843
 20
-0.0178977119608803
 30
0.0
  0
VERTEX
  5
19F27
  8
PART
 10
-0.2490860036084843
 20
0.0099601524153889
 30
0.0
 42
-0.1989123673796493
  0
VERTEX
  5
19F28
  8
PART
 10
-0.2461570714203489
 20
0.0170312202272542
 30
0.0
  0
VERTEX
  5
19F29
  8
PART
 10
-0.2370149357966174
 20
0.0261733558509867
 30
0.0
 42
-0.198912367379658
  0
VERTEX
  5
19F2A
  8
PART
 10
-0.229943867984753
 20
0.0291022880391212
 30
0.0
  0
VERTEX
  5
19F2B
  8
PART
 10
-0.1982281392322136
 20
0.0291022880391212
 30
0.0
 42
-0.1989123673796486
  0
VERTEX
  5
19F2C
  8
PART
 10
-0.1911570714203492
 20
0.0261733558509876
 30
0.0
  0
VERTEX
  5
19F2D
  8
PART
 10
-0.1820149357966194
 20
0.0170312202272569
 30
0.0
 42
-0.1989123673796466
  0
VERTEX
  5
19F2E
  8
PART
 10
-0.179086003608484
 20
0.0099601524153916
 30
0.0
  0
SEQEND
  5
19F2F
  8
PART
  0
POLYLINE
  5
19D6C
  8
PART
 66
     1
 10
0.0
 20
0.0
 30
0.0
 70
     1
1001
ACAD
1000
ASC_BOUNDS
1002
{
1070
    19
1005
19D69
1002
}
  0
VERTEX
  5
19F30
  8
PART
 10
-0.2370149357966182
 20
0.0261733558509867
 30
0.0
 42
-0.1989123673796562
  0
VERTEX
  5
19F31
  8
PART
 10
-0.229943867984753
 20
0.0291022880391212
 30
0.0
  0
VERTEX
  5
19F32
  8
PART
 10
-0.1982281392322163
 20
0.0291022880391221
 30
0.0
 42
-0.1989123673796744
  0
VERTEX
  5
19F33
  8
PART
 10
-0.1911570714203501
 20
0.0261733558509876
 30
0.0
  0
VERTEX
  5
19F34
  8
PART
 10
-0.1820149357966185
 20
0.0170312202272569
 30
0.0
 42
-0.1989123673796621
  0
VERTEX
  5
19F35
  8
PART
 10
-0.179086003608484
 20
0.0099601524153916
 30
0.0
  0
VERTEX
  5
19F36
  8
PART
 10
-0.1790860036084849
 20
-0.0178977119608803
 30
0.0
  0
VERTEX
  5
19F37
  8
PART
 10
-0.1740860036084841
 20
-0.0178977119608803
 30
0.0
  0
VERTEX
  5
19F38
  8
PART
 10
-0.1740860036084841
 20
0.0246595689391087
 30
0.0
 42
-0.2605357711921123
  0
VERTEX
  5
19F39
  8
PART
 10
-0.1669431464656341
 20
0.0374371002391223
 30
0.0
 42
3.5353221654550659
  0
VERTEX
  5
19F3A
  8
PART
 10
-0.2612288607513342
 20
0.0374371002391223
 30
0.0
 42
-0.260535771192114
  0
VERTEX
  5
19F3B
  8
PART
 10
-0.2540860036084842
 20
0.0246595689391087
 30
0.0
  0
VERTEX
  5
19F3C
  8
PART
 10
-0.2540860036084842
 20
-0.0178977119608803
 30
0.0
  0
VERTEX
  5
19F3D
  8
PART
 10
-0.2490860036084843
 20
-0.0178977119608803
 30
0.0
  0
VERTEX
  5
19F3E
  8
PART
 10
-0.2490860036084843
 20
0.0099601524153898
 30
0.0
 42
-0.198912367379658
  0
VERTEX
  5
19F3F
  8
PART
 10
-0.2461570714203498
 20
0.0170312202272551
 30
0.0
  0
SEQEND
  5
19F40
  8
PART
  0
CIRCLE
  5
19D6D
  8
PART
 10
-0.2140860036084842
 20
0.1141022880391203
 30
0.0
 40
0.0850000000000004
1001
ACAD
1000
ASC_BOUNDS
1002
{
1070
    19
1005
19D69
1002
}
  0
LINE
  5
19D6E
  8
HATCH
 10
-0.1945944076016097
 20
0.1285013087056341
 30
0.0
 11
-0.1945944076016097
 21
0.1285013087056341
 31
0.0
  0
CIRCLE
  5
19D6F
  8
HATCH
 10
-0.1863750120318785
 20
0.1190047244183476
 30
0.0
 40
0.0045
  0
LINE
  5
19D70
  8
HATCH
 10
-0.1789694076016097
 20
0.0972513087056342
 30
0.0
 11
-0.1789694076016097
 21
0.0972513087056342
 31
0.0
  0
CIRCLE
  5
19D71
  8
HATCH
 10
-0.1867018573878623
 20
0.0798525441572398
 30
0.0
 40
0.003375
  0
LINE
  5
19D72
  8
HATCH
 10
-0.1945944076016097
 20
0.0660013087056342
 30
0.0
 11
-0.1945944076016097
 21
0.0660013087056342
 31
0.0
  0
CIRCLE
  5
19D73
  8
HATCH
 10
-0.206243479487239
 20
0.0461625845115472
 30
0.0
 40
0.00225
  0
CIRCLE
  5
19D74
  8
HATCH
 10
-0.2645600892959914
 20
0.1162834200747651
 30
0.0
 40
0.00225
  0
LINE
  5
19D75
  8
HATCH
 10
-0.2727194076016097
 20
0.0972513087056342
 30
0.0
 11
-0.2727194076016097
 21
0.0972513087056342
 31
0.0
  0
LINE
  5
19D76
  8
HATCH
 10
-0.2570944076016097
 20
0.1285013087056341
 30
0.0
 11
-0.2570944076016097
 21
0.1285013087056341
 31
0.0
  0
CIRCLE
  5
19D77
  8
HATCH
 10
-0.2510760749637466
 20
0.0514447852380122
 30
0.0
 40
0.00225
  0
LINE
  5
19D78
  8
HATCH
 10
-0.2643425581314425
 20
0.060890962326728
 30
0.0
 11
-0.2643425581314425
 21
0.060890962326728
 31
0.0
  0
LINE
  5
19D79
  8
HATCH
 10
-0.2841117604886483
 20
0.1302584430054663
 30
0.0
 11
-0.2841117604886483
 21
0.1302584430054663
 31
0.0
  0
LINE
  5
19D7A
  8
HATCH
 10
-0.2841117604886483
 20
0.0923483105436416
 30
0.0
 11
-0.2841117604886483
 21
0.0923483105436416
 31
0.0
  0
CIRCLE
  5
19D7B
  8
HATCH
 10
-0.2883917370669415
 20
0.1074432648704373
 30
0.0
 40
0.00225
  0
CIRCLE
  5
19D7C
  8
HATCH
 10
-0.2757757004866868
 20
0.076674741578066
 30
0.0
 40
0.0045
  0
LINE
  5
19D7D
  8
HATCH
 10
-0.2258444076016097
 20
0.1285013087056341
 30
0.0
 11
-0.2258444076016097
 21
0.1285013087056341
 31
0.0
  0
CIRCLE
  5
19D7E
  8
HATCH
 10
-0.2237892181200864
 20
0.1021609056847008
 30
0.0
 40
0.00225
  0
LINE
  5
19D7F
  8
HATCH
 10
-0.2102194076016097
 20
0.0972513087056342
 30
0.0
 11
-0.2102194076016097
 21
0.0972513087056342
 31
0.0
  0
LINE
  5
19D80
  8
HATCH
 10
-0.2260145203976451
 20
0.0500018822212505
 30
0.0
 11
-0.2260145203976451
 21
0.0500018822212505
 31
0.0
  0
CIRCLE
  5
19D81
  8
HATCH
 10
-0.2316052971801588
 20
0.0730537290379381
 30
0.0
 40
0.00225
  0
CIRCLE
  5
19D82
  8
HATCH
 10
-0.2853976143541583
 20
0.1483332457802928
 30
0.0
 40
0.00225
  0
CIRCLE
  5
19D83
  8
HATCH
 10
-0.2419982840757742
 20
0.1429460991140414
 30
0.0
 40
0.00225
  0
CIRCLE
  5
19D84
  8
HATCH
 10
-0.2155582770409197
 20
0.1398532378176644
 30
0.0
 40
0.00225
  0
CIRCLE
  5
19D85
  8
HATCH
 10
-0.1933053675766283
 20
0.1921643323735516
 30
0.0
 40
0.00225
  0
CIRCLE
  5
19D86
  8
HATCH
 10
-0.1848512721165054
 20
0.1658615621883317
 30
0.0
 40
0.00225
  0
LINE
  5
19D87
  8
HATCH
 10
-0.2691839942760623
 20
0.1693784768776829
 30
0.0
 11
-0.2691839942760623
 21
0.1693784768776829
 31
0.0
  0
CIRCLE
  5
19D88
  8
HATCH
 10
-0.2589269175382975
 20
0.177158524530564
 30
0.0
 40
0.00225
  0
LINE
  5
19D89
  8
HATCH
 10
-0.2102798513387389
 20
0.1871236463536394
 30
0.0
 11
-0.2102798513387389
 21
0.1871236463536394
 31
0.0
  0
CIRCLE
  5
19D8A
  8
HATCH
 10
-0.2327931344943854
 20
0.1887185035791485
 30
0.0
 40
0.003375
  0
LINE
  5
19D8B
  8
HATCH
 10
-0.2414694076016097
 20
0.1597513087056341
 30
0.0
 11
-0.2414694076016097
 21
0.1597513087056341
 31
0.0
  0
LINE
  5
19D8C
  8
HATCH
 10
-0.2102194076016097
 20
0.1597513087056341
 30
0.0
 11
-0.2102194076016097
 21
0.1597513087056341
 31
0.0
  0
CIRCLE
  5
19D8D
  8
HATCH
 10
-0.2209407372590135
 20
0.1663790693599025
 30
0.0
 40
0.00225
  0
LINE
  5
19D8E
  8
HATCH
 10
-0.1633444076016097
 20
0.1285013087056341
 30
0.0
 11
-0.1633444076016097
 21
0.1285013087056341
 31
0.0
  0
CIRCLE
  5
19D8F
  8
HATCH
 10
-0.1525366997728241
 20
0.1201798639177134
 30
0.0
 40
0.00225
  0
CIRCLE
  5
19D90
  8
HATCH
 10
-0.1607341292565438
 20
0.0683644468760745
 30
0.0
 40
0.00225
  0
CIRCLE
  5
19D91
  8
HATCH
 10
-0.1427440530481716
 20
0.0876120413678743
 30
0.0
 40
0.00225
  0
CIRCLE
  5
19D92
  8
HATCH
 10
-0.1397208228437661
 20
0.1457823083856613
 30
0.0
 40
0.00225
  0
CIRCLE
  5
19D93
  8
HATCH
 10
-0.1691439752306296
 20
0.147894154673718
 30
0.0
 40
0.00225
  0
CIRCLE
  5
19D94
  8
HATCH
 10
-0.1558114656554697
 20
0.1662978257770378
 30
0.0
 40
0.00225
  0
VIEWPORT
  5
B94C
 67
     1
  8
0
 10
4.2500000197906047
 20
5.499999966006726
 30
0.0
 40
22.896723563831479
 41
11.072807056794691
 68
     1
 69
     1
1001
ACAD
1000
MVIEW
1002
{
1070
    16
1010
0.0
1020
0.0
1030
0.0
1010
0.0
1020
0.0
1030
1.0
1040
0.0
1040
11.072807056794691
1040
4.2500000197906047
1040
5.499999966006726
1040
50.0
1040
0.0
1040
0.0
1070
     0
1070
   500
1070
     1
1070
     1
1070
     0
1070
     0
1070
     0
1070
     0
1040
0.0
1040
0.0
1040
0.0
1040
0.5
1040
0.5
1040
0.5
1040
0.5
1070
     0
1002
{
1002
}
1002
}
  0
ENDSEC
  0
EOF
