  0
SECTION
  2
HEADER
  9
$ACADVER
  1
AC1009
  9
$INSBASE
 10
0.0
 20
0.0
 30
0.0
  9
$EXTMIN
 10
0.7428489211965969
 20
0.0225317839865471
 30
-0.0015258207003583
  9
$EXTMAX
 10
1.0910734832334841
 20
0.6225380591470966
 30
0.0000000349246037
  9
$LIMMIN
 10
0.0
 20
0.0
  9
$LIMMAX
 10
1.1999999999999991
 20
1.0
  9
$ORTHOMODE
 70
     0
  9
$REGENMODE
 70
     1
  9
$FILLMODE
 70
     1
  9
$QTEXTMODE
 70
     0
  9
$MIRRTEXT
 70
     1
  9
$DRAGMODE
 70
     2
  9
$LTSCALE
 40
1.0
  9
$OSMODE
 70
    49
  9
$ATTMODE
 70
     1
  9
$TEXTSIZE
 40
0.125
  9
$TRACEWID
 40
0.05
  9
$TEXTSTYLE
  7
STANDARD
  9
$CLAYER
  8
DIM
  9
$CELTYPE
  6
BYLAYER
  9
$CECOLOR
 62
     1
  9
$DIMSCALE
 40
0.0
  9
$DIMASZ
 40
0.125
  9
$DIMEXO
 40
0.05
  9
$DIMDLI
 40
0.02
  9
$DIMRND
 40
0.0
  9
$DIMDLE
 40
0.0
  9
$DIMEXE
 40
0.05
  9
$DIMTP
 40
0.005
  9
$DIMTM
 40
0.005
  9
$DIMTXT
 40
0.125
  9
$DIMCEN
 40
0.02
  9
$DIMTSZ
 40
0.0
  9
$DIMTOL
 70
     0
  9
$DIMLIM
 70
     0
  9
$DIMTIH
 70
     1
  9
$DIMTOH
 70
     1
  9
$DIMSE1
 70
     0
  9
$DIMSE2
 70
     0
  9
$DIMTAD
 70
     0
  9
$DIMZIN
 70
     4
  9
$DIMBLK
  1

  9
$DIMASO
 70
     1
  9
$DIMSHO
 70
     1
  9
$DIMPOST
  1

  9
$DIMAPOST
  1

  9
$DIMALT
 70
     0
  9
$DIMALTD
 70
     1
  9
$DIMALTF
 40
25.399999999999999
  9
$DIMLFAC
 40
1.0
  9
$DIMTOFL
 70
     0
  9
$DIMTVP
 40
0.0
  9
$DIMTIX
 70
     0
  9
$DIMSOXD
 70
     0
  9
$DIMSAH
 70
     0
  9
$DIMBLK1
  1

  9
$DIMBLK2
  1

  9
$DIMSTYLE
  2
SCOTTG
  9
$DIMCLRD
 70
   256
  9
$DIMCLRE
 70
   256
  9
$DIMCLRT
 70
   256
  9
$DIMTFAC
 40
1.0
  9
$DIMGAP
 40
0.02
  9
$LUNITS
 70
     2
  9
$LUPREC
 70
     5
  9
$SKETCHINC
 40
0.1
  9
$FILLETRAD
 40
0.01
  9
$AUNITS
 70
     0
  9
$AUPREC
 70
     0
  9
$MENU
  1
.
  9
$ELEVATION
 40
0.0
  9
$PELEVATION
 40
0.0
  9
$THICKNESS
 40
0.0
  9
$LIMCHECK
 70
     0
  9
$BLIPMODE
 70
     0
  9
$CHAMFERA
 40
0.0
  9
$CHAMFERB
 40
0.0
  9
$SKPOLY
 70
     0
  9
$TDCREATE
 40
2450919.3750775461
  9
$TDUPDATE
 40
2455805.474116412
  9
$TDINDWG
 40
2.4011017130000001
  9
$TDUSRTIMER
 40
2.4011017130000001
  9
$USRTIMER
 70
     1
  9
$ANGBASE
 50
0.0
  9
$ANGDIR
 70
     0
  9
$PDMODE
 70
     0
  9
$PDSIZE
 40
0.0
  9
$PLINEWID
 40
0.0
  9
$COORDS
 70
     1
  9
$SPLFRAME
 70
     0
  9
$SPLINETYPE
 70
     6
  9
$SPLINESEGS
 70
     8
  9
$ATTDIA
 70
     0
  9
$ATTREQ
 70
     1
  9
$HANDLING
 70
     1
  9
$HANDSEED
  5
19F7E
  9
$SURFTAB1
 70
     6
  9
$SURFTAB2
 70
     6
  9
$SURFTYPE
 70
     6
  9
$SURFU
 70
     6
  9
$SURFV
 70
     6
  9
$UCSNAME
  2

  9
$UCSORG
 10
0.0
 20
0.0
 30
0.0
  9
$UCSXDIR
 10
1.0
 20
0.0
 30
0.0
  9
$UCSYDIR
 10
0.0
 20
1.0
 30
0.0
  9
$PUCSNAME
  2

  9
$PUCSORG
 10
0.0
 20
0.0
 30
0.0
  9
$PUCSXDIR
 10
1.0
 20
0.0
 30
0.0
  9
$PUCSYDIR
 10
0.0
 20
1.0
 30
0.0
  9
$USERI1
 70
     0
  9
$USERI2
 70
     0
  9
$USERI3
 70
     0
  9
$USERI4
 70
     0
  9
$USERI5
 70
     0
  9
$USERR1
 40
0.0
  9
$USERR2
 40
0.0
  9
$USERR3
 40
0.0
  9
$USERR4
 40
0.0
  9
$USERR5
 40
0.0
  9
$WORLDVIEW
 70
     1
  9
$SHADEDGE
 70
     3
  9
$SHADEDIF
 70
    70
  9
$TILEMODE
 70
     1
  9
$MAXACTVP
 70
    48
  9
$PLIMCHECK
 70
     0
  9
$PEXTMIN
 10
-0.0005187750787954
 20
-0.0006714752008889
 30
-0.0000000349181948
  9
$PEXTMAX
 10
8.5005188542436301
 20
11.000671458440211
 30
0.0000000814935746
  9
$PLIMMIN
 10
0.0000001811605737
 20
-0.0000001192092895
  9
$PLIMMAX
 10
8.4999999408646811
 20
10.999999640494821
  9
$UNITMODE
 70
     0
  9
$VISRETAIN
 70
     1
  9
$PLINEGEN
 70
     0
  9
$PSLTSCALE
 70
     1
  0
ENDSEC
  0
SECTION
  2
TABLES
  0
TABLE
  2
VPORT
 70
     1
  0
VPORT
  2
*ACTIVE
 70
     0
 10
0.0
 20
0.0
 11
1.0
 21
1.0
 12
-18.80502584378031
 22
-0.3166429271462365
 13
0.0
 23
0.0
 14
0.5
 24
0.5
 15
0.5
 25
0.5
 16
0.0
 26
0.0
 36
5.6148375865943736
 17
19.721987045995348
 27
0.6391778487130584
 37
0.0
 40
0.6039493613061829
 41
2.072368421052631
 42
50.0
 43
0.0
 44
0.0
 50
0.0
 51
0.0
 71
     0
 72
 20000
 73
     1
 74
     0
 75
     0
 76
     0
 77
     0
 78
     0
  0
ENDTAB
  0
TABLE
  2
LTYPE
 70
     1
  0
LTYPE
  2
CONTINUOUS
 70
     0
  3
Solid line
 72
    65
 73
     0
 40
0.0
  0
ENDTAB
  0
TABLE
  2
LAYER
 70
     6
  0
LAYER
  2
0
 70
     0
 62
     7
  6
CONTINUOUS
  0
LAYER
  2
DEFPOINTS
 70
     0
 62
     7
  6
CONTINUOUS
  0
LAYER
  2
HATCH
 70
     0
 62
     7
  6
CONTINUOUS
  0
LAYER
  2
PART
 70
     0
 62
     7
  6
CONTINUOUS
  0
LAYER
  2
DIM
 70
     0
 62
     7
  6
CONTINUOUS
  0
ENDTAB
  0
TABLE
  2
STYLE
 70
     3
  0
STYLE
  2
STANDARD
 70
     0
 40
0.0
 41
1.0
 50
0.0
 71
     0
 42
0.125
  3
txt
  4

  0
STYLE
  2
ROMANS
 70
     0
 40
0.0
 41
1.0
 50
0.0
 71
     0
 42
0.1
  3
SIMPLEX.shx
  4

  0
ENDTAB
  0
TABLE
  2
VIEW
 70
     0
  0
ENDTAB
  0
TABLE
  2
UCS
 70
     0
  0
ENDTAB
  0
TABLE
  2
APPID
 70
    16
  0
APPID
  2
ACAD
 70
     0
  0
APPID
  2
ADP_SK
 70
     0
  0
APPID
  2
ADP_SOL
 70
     0
  0
APPID
  2
ACIS_LNK
 70
     0
  0
APPID
  2
AME_SOL
 70
     0
  0
APPID
  2
ACAD_MLEADERVER
 70
     0
  0
APPID
  2
ACAD_EXEMPT_FROM_CAD_STANDARDS
 70
     0
  0
APPID
  2
ACAD_PSEXT
 70
     0
  0
APPID
  2
ACDBDYNAMICBLOCKGUID
 70
     0
  0
APPID
  2
ACDBBLOCKREPETAG
 70
     0
  0
APPID
  2
ACDBDYNAMICBLOCKTRUENAME
 70
     0
  0
APPID
  2
ACAD_DSTYLE_DIMJAG
 70
     0
  0
APPID
  2
ACAD_DSTYLE_DIMTALN
 70
     0
  0
APPID
  2
ACAECLAYERSTANDARD
 70
     0
  0
APPID
  2
ACAUTHENVIRON
 70
     0
  0
APPID
  2
ACADANNOPO
 70
     0
  0
ENDTAB
  0
TABLE
  2
DIMSTYLE
 70
     2
  0
DIMSTYLE
  2
SCOTTG
 70
     0
  3

  4

  5

  6

  7

 40
0.15
 41
0.125
 42
0.1
 43
0.25
 44
0.1
 45
0.0
 46
0.0
 47
0.01
 48
0.01
140
0.125
141
0.06
142
0.0
143
25.399999999999999
144
1.0
145
0.0
146
1.0
147
0.09
 71
     1
 72
     0
 73
     1
 74
     1
 75
     0
 76
     0
 77
     0
 78
     4
170
     0
171
     1
172
     0
173
     0
174
     1
175
     0
176
   256
177
   256
178
   256
  0
ENDTAB
  0
ENDSEC
  0
SECTION
  2
BLOCKS
  0
BLOCK
  8
0
  2
$MODEL_SPACE
 70
     0
 10
0.0
 20
0.0
 30
0.0
  3
$MODEL_SPACE
  1

  0
ENDBLK
  5
1A
  8
0
  0
BLOCK
 67
     1
  8
0
  2
$PAPER_SPACE
 70
     0
 10
0.0
 20
0.0
 30
0.0
  3
$PAPER_SPACE
  1

  0
ENDBLK
  5
B932
 67
     1
  8
0
  0
BLOCK
  8
0
 62
     1
  2
*U25
 70
     1
 10
0.0
 20
0.0
 30
0.0
  3
*U25
  1

  0
TEXT
  5
19E2F
  8
DIM
 10
-0.3733034910232481
 20
0.7141972627033814
 30
0.0
 40
0.0378374821074757
  1
.400
  7
ROMANS
  0
ENDBLK
  5
19E31
  8
0
 62
     1
  0
BLOCK
  8
0
 62
     1
  2
*U26
 70
     1
 10
0.0
 20
0.0
 30
0.0
  3
*U26
  1

  0
TEXT
  5
19E33
  8
DIM
 10
-0.2841244632638552
 20
0.8031443739727691
 30
0.0
 40
0.0378374821074757
  1
.561
  7
ROMANS
  0
ENDBLK
  5
19E35
  8
0
 62
     1
  0
BLOCK
  8
0
 62
     1
  2
*U27
 70
     1
 10
0.0
 20
0.0
 30
0.0
  3
*U27
  1

  0
TEXT
  5
19E37
  8
DIM
 10
-0.7225985692659322
 20
0.3060812574018382
 30
0.0
 40
0.0378374821074757
  1
.650
  7
ROMANS
  0
ENDBLK
  5
19E39
  8
0
 62
     1
  0
BLOCK
  8
0
 62
     1
  2
*U28
 70
     1
 10
0.0
 20
0.0
 30
0.0
  3
*U28
  1

  0
TEXT
  5
19E3B
  8
DIM
 10
0.1457500447553917
 20
-0.4352694319903586
 30
0.0
 40
0.0378374821394327
  1
.018
  7
ROMANS
  0
ENDBLK
  5
19E3D
  8
0
 62
     1
  0
BLOCK
  8
0
 62
     1
  2
*U29
 70
     1
 10
0.0
 20
0.0
 30
0.0
  3
*U29
  1

  0
TEXT
  5
19E3F
  8
DIM
 10
-0.0855716434774586
 20
-0.5545369172463596
 30
0.0
 40
0.0378374821394327
  1
.155
  7
ROMANS
  0
ENDBLK
  5
19E41
  8
0
 62
     1
  0
BLOCK
  8
0
 62
     1
  2
*U30
 70
     1
 10
0.0
 20
0.0
 30
0.0
  3
*U30
  1

  0
TEXT
  5
19E43
  8
DIM
 10
0.1468273350806249
 20
-0.4926613062714235
 30
0.0
 40
0.0378374821394327
  1
.040
  7
ROMANS
  0
ENDBLK
  5
19E45
  8
0
 62
     1
  0
BLOCK
  8
0
 62
     1
  2
*U31
 70
     1
 10
0.0
 20
0.0
 30
0.0
  3
*U31
  1

  0
TEXT
  5
19E47
  8
DIM
 10
-0.7225985693146287
 20
-0.1939187410697232
 30
0.0
 40
0.0378374821394327
  1
.350
  7
ROMANS
  0
ENDBLK
  5
19E49
  8
0
 62
     1
  0
BLOCK
  8
0
 62
     1
  2
*U32
 70
     1
 10
0.0
 20
0.0
 30
0.0
  3
*U32
  1

  0
TEXT
  5
19E4B
  8
DIM
 10
-0.3754939488229078
 20
-0.229541701938869
 30
0.0
 40
0.0378374821394327
  1
.030
  7
ROMANS
  0
ENDBLK
  5
19E4D
  8
0
 62
     1
  0
BLOCK
  8
0
 62
     1
  2
*U33
 70
     1
 10
0.0
 20
0.0
 30
0.0
  3
*U33
  1

  0
TEXT
  5
19E4F
  8
DIM
 10
-0.2079462264281474
 20
0.3460745370676188
 30
0.0
 40
0.0378374821074757
  1
.135
  7
ROMANS
  0
ENDBLK
  5
19E51
  8
0
 62
     1
  0
BLOCK
  8
0
 62
     1
  2
*X34
 70
     1
 10
0.0
 20
0.0
 30
0.0
  3
*X34
  1

  0
LINE
  5
19E53
  8
0
 62
     0
 10
0.3276709611599835
 20
0.501614296606669
 30
0.0
 11
0.3222293435278698
 21
0.5219226900850799
 31
0.0
  0
LINE
  5
19E54
  8
0
 62
     0
 10
0.3479776778175732
 20
0.4258285983056389
 30
0.0
 11
0.3425360601854601
 21
0.4461369917840479
 31
0.0
  0
LINE
  5
19E55
  8
0
 62
     0
 10
0.3053501128669021
 20
0.5366205451900337
 30
0.0
 11
0.3024610174121953
 21
0.5474027962149153
 31
0.0
  0
LINE
  5
19E56
  8
0
 62
     0
 10
0.3435978582760215
 20
0.39387801604824
 30
0.0
 11
0.3407087628213155
 21
0.4046602670731199
 31
0.0
  0
LINE
  5
19E57
  8
0
 62
     0
 10
0.2875258805913474
 20
0.5548451943338586
 30
0.0
 11
0.2852757597265574
 21
0.5632427597244263
 31
0.0
  0
LINE
  5
19E58
  8
0
 62
     0
 10
0.3366349703044325
 20
0.3715675764111674
 30
0.0
 11
0.3343848494396429
 21
0.3799651418017325
 31
0.0
  0
LINE
  5
19E59
  8
0
 62
     0
 10
0.2712336988295132
 20
0.5673521531207167
 30
0.0
 11
0.2693027390466645
 21
0.5745585931376809
 31
0.0
  0
LINE
  5
19E5A
  8
0
 62
     0
 10
0.3284598453270986
 20
0.3537812668703486
 30
0.0
 11
0.3265288855442501
 21
0.3609877068873102
 31
0.0
  0
LINE
  5
19E5B
  8
0
 62
     0
 10
0.2558410351266147
 20
0.5765020648093034
 30
0.0
 11
0.2541054464203534
 21
0.5829793700421133
 31
0.0
  0
LINE
  5
19E5C
  8
0
 62
     0
 10
0.3195089922961836
 20
0.3388900138383528
 30
0.0
 11
0.3177734035899224
 21
0.3453673190711619
 31
0.0
  0
LINE
  5
19E5D
  8
0
 62
     0
 10
0.241080714483451
 20
0.5832920400711448
 30
0.0
 11
0.2394771176829653
 21
0.589276744805412
 31
0.0
  0
LINE
  5
19E5E
  8
0
 62
     0
 10
0.3099891753763446
 20
0.3261221629474917
 30
0.0
 11
0.3083855785758593
 21
0.332106867681758
 31
0.0
  0
LINE
  5
19E5F
  8
0
 62
     0
 10
0.2268103042839282
 20
0.5882536446661577
 30
0.0
 11
0.2253008663546554
 21
0.5938869437090757
 31
0.0
  0
LINE
  5
19E60
  8
0
 62
     0
 10
0.3000172810474275
 20
0.3150414879162637
 30
0.0
 11
0.2985078431181552
 21
0.3206747869591799
 31
0.0
  0
LINE
  5
19E61
  8
0
 62
     0
 10
0.2129439484939462
 20
0.5917072976757459
 30
0.0
 11
0.2115036727018833
 21
0.5970824801086359
 31
0.0
  0
LINE
  5
19E62
  8
0
 62
     0
 10
0.2896663290429735
 20
0.3053754753891411
 30
0.0
 11
0.2882260532509109
 21
0.3107506578220303
 31
0.0
  0
LINE
  5
19E63
  8
0
 62
     0
 10
0.1994260224031554
 20
0.5938605933450845
 30
0.0
 11
0.1980370940723037
 21
0.5990441444438943
 31
0.0
  0
LINE
  5
19E64
  8
0
 62
     0
 10
0.2789847620153261
 20
0.2969433349263202
 30
0.0
 11
0.2775958336844748
 21
0.3021268860251292
 31
0.0
  0
LINE
  5
19E65
  8
0
 62
     0
 10
0.2683216921167446
 20
0.2884421622380309
 30
0.0
 11
0.2666547286430718
 21
0.294663354616139
 31
0.0
  0
LINE
  5
19E66
  8
0
 62
     0
 10
0.1862189817873314
 20
0.5948536486265114
 30
0.0
 11
0.1848678916669679
 21
0.5998959856013127
 31
0.0
  0
LINE
  5
19E67
  8
0
 62
     0
 10
0.273254576178902
 20
0.270032388290212
 30
0.0
 11
0.2728859038411522
 21
0.2714082921860399
 31
0.0
  0
LINE
  5
19E68
  8
0
 62
     0
 10
0.1732970873781945
 20
0.5947825237769973
 30
0.0
 11
0.1719730112862794
 21
0.5997240430251125
 31
0.0
  0
LINE
  5
19E69
  8
0
 62
     0
 10
0.2603133149109489
 20
0.2700335415417836
 30
0.0
 11
0.2554284773949824
 21
0.2882640033380888
 31
0.0
  0
LINE
  5
19E6A
  8
0
 62
     0
 10
0.1606429205832658
 20
0.5937122258686687
 30
0.0
 11
0.1593367232623428
 21
0.5985870206350638
 31
0.0
  0
LINE
  5
19E6B
  8
0
 62
     0
 10
0.2473720536429953
 20
0.2700346947933561
 30
0.0
 11
0.2439344985326841
 21
0.2828638251188558
 31
0.0
  0
LINE
  5
19E6C
  8
0
 62
     0
 10
0.1482453784386686
 20
0.5916841917268281
 30
0.0
 11
0.146948945600188
 21
0.5965225449486385
 31
0.0
  0
LINE
  5
19E6D
  8
0
 62
     0
 10
0.2344307923750413
 20
0.2700358480449303
 30
0.0
 11
0.2321838950200543
 21
0.278421383133133
 31
0.0
  0
LINE
  5
19E6E
  8
0
 62
     0
 10
0.1360985371542047
 20
0.5887205292374694
 30
0.0
 11
0.1348042811763241
 21
0.5935507583049198
 31
0.0
  0
LINE
  5
19E6F
  8
0
 62
     0
 10
0.2214895311070881
 20
0.2700370012965019
 30
0.0
 11
0.2201825906472921
 21
0.2749145694949275
 31
0.0
  0
LINE
  5
19E70
  8
0
 62
     0
 10
0.1242010894404222
 20
0.5848261172712466
 30
0.0
 11
0.1229015372183573
 21
0.5896761121910812
 31
0.0
  0
LINE
  5
19E71
  8
0
 62
     0
 10
0.2085482698391343
 20
0.2700381545480743
 30
0.0
 11
0.2079318927038476
 21
0.2723385053335878
 31
0.0
  0
LINE
  5
19E72
  8
0
 62
     0
 10
0.1125562243551652
 20
0.5799890541022572
 30
0.0
 11
0.1112436223380508
 21
0.5848877515202453
 31
0.0
  0
LINE
  5
19E73
  8
0
 62
     0
 10
0.1956070085711807
 20
0.2700393077996468
 30
0.0
 11
0.1954286121318778
 21
0.2707050923750156
 31
0.0
  0
LINE
  5
19E74
  8
0
 62
     0
 10
0.1011719229527632
 20
0.5741795540302466
 30
0.0
 11
0.0998377996618205
 21
0.5791585699356059
 31
0.0
  0
LINE
  5
19E75
  8
0
 62
     0
 10
0.1826657473032274
 20
0.2700404610512201
 30
0.0
 11
0.1826647678770537
 21
0.2700441163194629
 31
0.0
  0
LINE
  5
19E76
  8
0
 62
     0
 10
0.090061736313263
 20
0.5673470437359791
 30
0.0
 11
0.0886963494342186
 21
0.5724427369405616
 31
0.0
  0
LINE
  5
19E77
  8
0
 62
     0
 10
0.1697244860352733
 20
0.2700416143027935
 30
0.0
 11
0.1696268088593267
 21
0.2704061504861661
 31
0.0
  0
LINE
  5
19E78
  8
0
 62
     0
 10
0.0792462343529117
 20
0.5594147552469178
 30
0.0
 11
0.0778377906402492
 21
0.5646711387421748
 31
0.0
  0
LINE
  5
19E79
  8
0
 62
     0
 10
0.1567832247673198
 20
0.270042767554366
 30
0.0
 11
0.1562941651624512
 21
0.271867962847665
 31
0.0
  0
LINE
  5
19E7A
  8
0
 62
     0
 10
0.0687555246323812
 20
0.5502703256169426
 30
0.0
 11
0.0672889728369452
 21
0.5557435714294403
 31
0.0
  0
LINE
  5
19E7B
  8
0
 62
     0
 10
0.1438419634993664
 20
0.2700439208059384
 30
0.0
 11
0.1426367292257555
 21
0.2745419163500777
 31
0.0
  0
LINE
  5
19E7C
  8
0
 62
     0
 10
0.0586336738161741
 20
0.5397492958152048
 30
0.0
 11
0.0570886701573885
 21
0.5455153279676726
 31
0.0
  0
LINE
  5
19E7D
  8
0
 62
     0
 10
0.1309007022314128
 20
0.27004507405751
 30
0.0
 11
0.1286104343847354
 21
0.2785924700242512
 31
0.0
  0
LINE
  5
19E7E
  8
0
 62
     0
 10
0.0489468788190992
 20
0.5276046155923391
 30
0.0
 11
0.047294028674393
 21
0.5337731363096802
 31
0.0
  0
LINE
  5
19E7F
  8
0
 62
     0
 10
0.117959440963459
 20
0.2700462273090833
 30
0.0
 11
0.1141490837245833
 21
0.2842666741195554
 31
0.0
  0
LINE
  5
19E80
  8
0
 62
     0
 10
0.0397999556109503
 20
0.51344510642363
 30
0.0
 11
0.0379930433962463
 21
0.5201885946137219
 31
0.0
  0
LINE
  5
19E81
  8
0
 62
     0
 10
0.1050181796955056
 20
0.2700473805606567
 30
0.0
 11
0.0991478612755062
 21
0.2919557071607022
 31
0.0
  0
LINE
  5
19E82
  8
0
 62
     0
 10
0.0854680191861544
 20
0.2947132815632276
 30
0.0
 11
0.0834252374672595
 21
0.3023370467269162
 31
0.0
  0
LINE
  5
19E83
  8
0
 62
     0
 10
0.0313744337619699
 20
0.4965932907298516
 30
0.0
 11
0.0293316520430749
 21
0.5042170558935412
 31
0.0
  0
LINE
  5
19E84
  8
0
 62
     0
 10
0.0920769184275519
 20
0.2700485338122291
 30
0.0
 11
0.0911684498215275
 21
0.2734389848069929
 31
0.0
  0
LINE
  5
19E85
  8
0
 62
     0
 10
0.0240380650280858
 20
0.4756767002733131
 30
0.0
 11
0.0215840808058558
 21
0.4848350940716477
 31
0.0
  0
LINE
  5
19E86
  8
0
 62
     0
 10
0.0690674447661461
 20
0.3076247672575585
 30
0.0
 11
0.0666134605439166
 21
0.3167831610558922
 31
0.0
  0
LINE
  5
19E87
  8
0
 62
     0
 10
0.0188268128551603
 20
0.446829066839273
 30
0.0
 11
0.01540292342218
 21
0.4596071961626534
 31
0.0
  0
LINE
  5
19E88
  8
0
 62
     0
 10
0.0511004564925961
 20
0.3263821890389904
 30
0.0
 11
0.047676567059616
 21
0.3391603183623699
 31
0.0
  0
LINE
  5
19E89
  8
0
 62
     0
 10
0.0284271646837395
 20
0.3627037747300239
 30
0.0
 11
0.0139280695738096
 21
0.4168151343440556
 31
0.0
  0
ENDBLK
  5
19E8B
  8
0
 62
     1
  0
BLOCK
  8
0
 62
     1
  2
*X35
 70
     1
 10
0.0
 20
0.0
 30
0.0
  3
*X35
  1

  0
LINE
  5
19E9C
  8
0
 62
     0
 10
0.3003447038067155
 20
0.2400000098455117
 30
0.0
 11
0.3261036045773018
 21
0.265758910616098
 31
0.0
  0
LINE
  5
19E9D
  8
0
 62
     0
 10
0.2561505299825573
 20
0.2400000098455122
 30
0.0
 11
0.2861505299825562
 21
0.2700000098455111
 31
0.0
  0
LINE
  5
19E9E
  8
0
 62
     0
 10
0.0306595581172888
 20
0.0145090379802437
 30
0.0
 11
0.0606515208516183
 21
0.0445010007145732
 31
0.0
  0
LINE
  5
19E9F
  8
0
 62
     0
 10
0.2119563561583977
 20
0.2400000098455122
 30
0.0
 11
0.2419563561583971
 21
0.2700000098455115
 31
0.0
  0
LINE
  5
19EA0
  8
0
 62
     0
 10
0.0306515208516185
 20
0.058695174538733
 30
0.0
 11
0.0606515208516183
 21
0.0886951745387328
 31
0.0
  0
LINE
  5
19EA1
  8
0
 62
     0
 10
0.167762182334239
 20
0.2400000098455126
 30
0.0
 11
0.1977621823342375
 21
0.2700000098455111
 31
0.0
  0
LINE
  5
19EA2
  8
0
 62
     0
 10
0.0306515208516185
 20
0.1028893483628921
 30
0.0
 11
0.0606515208516183
 21
0.1328893483628919
 31
0.0
  0
LINE
  5
19EA3
  8
0
 62
     0
 10
0.1235680085100799
 20
0.2400000098455126
 30
0.0
 11
0.1535680085100788
 21
0.2700000098455111
 31
0.0
  0
LINE
  5
19EA4
  8
0
 62
     0
 10
0.0306515208516185
 20
0.1470835221870512
 30
0.0
 11
0.0606515208516183
 21
0.177083522187051
 31
0.0
  0
LINE
  5
19EA5
  8
0
 62
     0
 10
0.0793738346859212
 20
0.2400000098455135
 30
0.0
 11
0.1093738346859192
 21
0.2700000098455115
 31
0.0
  0
LINE
  5
19EA6
  8
0
 62
     0
 10
0.0306515208516185
 20
0.1912776960112108
 30
0.0
 11
0.0606515208516183
 21
0.2212776960112106
 31
0.0
  0
LINE
  5
19EA7
  8
0
 62
     0
 10
0.0306515208516185
 20
0.2354718698353695
 30
0.0
 11
0.0651796608617601
 21
0.2700000098455111
 31
0.0
  0
ENDBLK
  5
19EA9
  8
0
 62
     1
  0
BLOCK
  8
0
 62
     1
  2
*X36
 70
     1
 10
0.0
 20
0.0
 30
0.0
  3
*X36
  1

  0
LINE
  5
19EC7
  8
0
 62
     0
 10
0.3265022336470646
 20
0.2150480892831483
 30
0.0
 11
0.3235740304167904
 21
0.225976292513419
 31
0.0
  0
LINE
  5
19EC8
  8
0
 62
     0
 10
0.3075315148568103
 20
0.2375514843500266
 30
0.0
 11
0.3068754344276483
 21
0.2400000098455113
 31
0.0
  0
LINE
  5
19EC9
  8
0
 62
     0
 10
0.3111929227546704
 20
0.2238869240479797
 30
0.0
 11
0.3082023267214677
 21
0.2350479803888046
 31
0.0
  0
LINE
  5
19ECA
  8
0
 62
     0
 10
0.2958836118622754
 20
0.2327257588128111
 30
0.0
 11
0.2939344821725216
 21
0.2400000098455131
 31
0.0
  0
ENDBLK
  5
19ECC
  8
0
 62
     1
  0
BLOCK
  8
0
 62
     1
  2
*X37
 70
     1
 10
0.0
 20
0.0
 30
0.0
  3
*X37
  1

  0
LINE
  5
19ED5
  8
0
 62
     0
 10
1.0705302914026711
 20
0.5241792582232261
 30
0.0
 11
1.0650886737705569
 21
0.5444876517016369
 31
0.0
  0
LINE
  5
19ED6
  8
0
 62
     0
 10
1.0908370080602601
 20
0.448393559922196
 30
0.0
 11
1.085395390428147
 21
0.468701953400605
 31
0.0
  0
LINE
  5
19ED7
  8
0
 62
     0
 10
1.048209443109589
 20
0.5591855068065909
 30
0.0
 11
1.045320347654882
 21
0.5699677578314724
 31
0.0
  0
LINE
  5
19ED8
  8
0
 62
     0
 10
1.0864571885187091
 20
0.4164429776647971
 30
0.0
 11
1.083568093064003
 21
0.427225228689677
 31
0.0
  0
LINE
  5
19ED9
  8
0
 62
     0
 10
1.030385210834035
 20
0.5774101559504157
 30
0.0
 11
1.0281350899692441
 21
0.5858077213409834
 31
0.0
  0
LINE
  5
19EDA
  8
0
 62
     0
 10
1.07949430054712
 20
0.3941325380277245
 30
0.0
 11
1.07724417968233
 21
0.4025301034182896
 31
0.0
  0
LINE
  5
19EDB
  8
0
 62
     0
 10
1.0140930290721999
 20
0.5899171147372746
 30
0.0
 11
1.012162069289352
 21
0.597123554754239
 31
0.0
  0
LINE
  5
19EDC
  8
0
 62
     0
 10
1.071319175569786
 20
0.3763462284869066
 30
0.0
 11
1.069388215786937
 21
0.3835526685038681
 31
0.0
  0
LINE
  5
19EDD
  8
0
 62
     0
 10
0.9987003653693022
 20
0.5990670264258604
 30
0.0
 11
0.996964776663041
 21
0.6055443316586704
 31
0.0
  0
LINE
  5
19EDE
  8
0
 62
     0
 10
1.0623683225388709
 20
0.3614549754549099
 30
0.0
 11
1.06063273383261
 21
0.367932280687719
 31
0.0
  0
LINE
  5
19EDF
  8
0
 62
     0
 10
0.9839400447261386
 20
0.6058570016877019
 30
0.0
 11
0.9823364479256529
 21
0.611841706421969
 31
0.0
  0
LINE
  5
19EE0
  8
0
 62
     0
 10
1.052848505619032
 20
0.3486871245640488
 30
0.0
 11
1.051244908818546
 21
0.3546718292983151
 31
0.0
  0
LINE
  5
19EE1
  8
0
 62
     0
 10
0.9696696345266158
 20
0.6108186062827157
 30
0.0
 11
0.9681601965973429
 21
0.6164519053256337
 31
0.0
  0
LINE
  5
19EE2
  8
0
 62
     0
 10
1.0428766112901151
 20
0.3376064495328217
 30
0.0
 11
1.0413671733608421
 21
0.3432397485757379
 31
0.0
  0
LINE
  5
19EE3
  8
0
 62
     0
 10
0.9558032787366336
 20
0.6142722592923029
 30
0.0
 11
0.9543630029445708
 21
0.619647441725193
 31
0.0
  0
LINE
  5
19EE4
  8
0
 62
     0
 10
1.0325256592856611
 20
0.3279404370056982
 30
0.0
 11
1.031085383493598
 21
0.3333156194385873
 31
0.0
  0
LINE
  5
19EE5
  8
0
 62
     0
 10
0.942285352645843
 20
0.6164255549616416
 30
0.0
 11
0.9408964243149913
 21
0.6216091060604514
 31
0.0
  0
LINE
  5
19EE6
  8
0
 62
     0
 10
1.021844092258013
 20
0.3195082965428773
 30
0.0
 11
1.020455163927162
 21
0.3246918476416862
 31
0.0
  0
LINE
  5
19EE7
  8
0
 62
     0
 10
1.011181022359432
 20
0.3110071238545879
 30
0.0
 11
1.009514058885759
 21
0.3172283162326961
 31
0.0
  0
LINE
  5
19EE8
  8
0
 62
     0
 10
0.929078312030019
 20
0.6174186102430684
 30
0.0
 11
0.9277272219096555
 21
0.6224609472178697
 31
0.0
  0
LINE
  5
19EE9
  8
0
 62
     0
 10
1.0161139064215889
 20
0.2925973499067691
 30
0.0
 11
1.0157452340838391
 21
0.293973253802597
 31
0.0
  0
LINE
  5
19EEA
  8
0
 62
     0
 10
0.916156417620882
 20
0.6173474853935544
 30
0.0
 11
0.914832341528967
 21
0.6222890046416696
 31
0.0
  0
LINE
  5
19EEB
  8
0
 62
     0
 10
1.003172645153636
 20
0.2925985031583398
 30
0.0
 11
0.9982878076376699
 21
0.3108289649546458
 31
0.0
  0
LINE
  5
19EEC
  8
0
 62
     0
 10
0.9035022508259533
 20
0.6162771874852258
 30
0.0
 11
0.9021960535050304
 21
0.6211519822516208
 31
0.0
  0
LINE
  5
19EED
  8
0
 62
     0
 10
0.9902313838856827
 20
0.292599656409914
 30
0.0
 11
0.9867938287753716
 21
0.3054287867354128
 31
0.0
  0
LINE
  5
19EEE
  8
0
 62
     0
 10
0.8911047086813561
 20
0.6142491533433852
 30
0.0
 11
0.8898082758428756
 21
0.6190875065651955
 31
0.0
  0
LINE
  5
19EEF
  8
0
 62
     0
 10
0.9772901226177289
 20
0.2926008096614874
 30
0.0
 11
0.9750432252627419
 21
0.3009863447496901
 31
0.0
  0
LINE
  5
19EF0
  8
0
 62
     0
 10
0.8789578673968922
 20
0.6112854908540264
 30
0.0
 11
0.8776636114190116
 21
0.6161157199214769
 31
0.0
  0
LINE
  5
19EF1
  8
0
 62
     0
 10
0.9643488613497757
 20
0.2926019629130589
 30
0.0
 11
0.9630419208899796
 21
0.2974795311114846
 31
0.0
  0
LINE
  5
19EF2
  8
0
 62
     0
 10
0.8670604196831098
 20
0.6073910788878038
 30
0.0
 11
0.8657608674610449
 21
0.6122410738076383
 31
0.0
  0
LINE
  5
19EF3
  8
0
 62
     0
 10
0.9514076000818219
 20
0.2926031161646314
 30
0.0
 11
0.950791222946535
 21
0.2949034669501449
 31
0.0
  0
LINE
  5
19EF4
  8
0
 62
     0
 10
0.8554155545978527
 20
0.6025540157188143
 30
0.0
 11
0.8541029525807385
 21
0.6074527131368024
 31
0.0
  0
LINE
  5
19EF5
  8
0
 62
     0
 10
0.938466338813868
 20
0.2926042694162048
 30
0.0
 11
0.9382879423745653
 21
0.2932700539915727
 31
0.0
  0
LINE
  5
19EF6
  8
0
 62
     0
 10
0.8440312531954507
 20
0.5967445156468028
 30
0.0
 11
0.842697129904508
 21
0.6017235315521621
 31
0.0
  0
LINE
  5
19EF7
  8
0
 62
     0
 10
0.925525077545915
 20
0.2926054226677763
 30
0.0
 11
0.9255240981197411
 21
0.2926090779360191
 31
0.0
  0
LINE
  5
19EF8
  8
0
 62
     0
 10
0.8329210665559506
 20
0.5899120053525362
 30
0.0
 11
0.8315556796769063
 21
0.5950076985571187
 31
0.0
  0
LINE
  5
19EF9
  8
0
 62
     0
 10
0.9125838162779608
 20
0.2926065759193506
 30
0.0
 11
0.9124861391020143
 21
0.2929711121027232
 31
0.0
  0
LINE
  5
19EFA
  8
0
 62
     0
 10
0.8221055645955993
 20
0.5819797168634749
 30
0.0
 11
0.8206971208829367
 21
0.5872361003587319
 31
0.0
  0
LINE
  5
19EFB
  8
0
 62
     0
 10
0.8996425550100075
 20
0.292607729170923
 30
0.0
 11
0.8991534954051388
 21
0.2944329244642221
 31
0.0
  0
LINE
  5
19EFC
  8
0
 62
     0
 10
0.8116148548750688
 20
0.5728352872334988
 30
0.0
 11
0.8101483030796327
 21
0.5783085330459965
 31
0.0
  0
LINE
  5
19EFD
  8
0
 62
     0
 10
0.886701293742054
 20
0.2926088824224946
 30
0.0
 11
0.8854960594684431
 21
0.2971068779666339
 31
0.0
  0
LINE
  5
19EFE
  8
0
 62
     0
 10
0.8014930040588616
 20
0.5623142574317619
 30
0.0
 11
0.7999480004000761
 21
0.5680802895842297
 31
0.0
  0
LINE
  5
19EFF
  8
0
 62
     0
 10
0.8737600324741002
 20
0.2926100356740679
 30
0.0
 11
0.8714697646274229
 21
0.3011574316408083
 31
0.0
  0
LINE
  5
19F00
  8
0
 62
     0
 10
0.7918062090617868
 20
0.5501695772088963
 30
0.0
 11
0.7901533589170806
 21
0.5563380979262372
 31
0.0
  0
LINE
  5
19F01
  8
0
 62
     0
 10
0.8608187712061464
 20
0.2926111889256404
 30
0.0
 11
0.8570084139672708
 21
0.3068316357361125
 31
0.0
  0
LINE
  5
19F02
  8
0
 62
     0
 10
0.7826592858536379
 20
0.536010068040187
 30
0.0
 11
0.7808523736389339
 21
0.542753556230279
 31
0.0
  0
LINE
  5
19F03
  8
0
 62
     0
 10
0.8478775099381932
 20
0.2926123421772138
 30
0.0
 11
0.8420071915181937
 21
0.3145206687772593
 31
0.0
  0
LINE
  5
19F04
  8
0
 62
     0
 10
0.8283273494288419
 20
0.3172782431797847
 30
0.0
 11
0.826284567709947
 21
0.3249020083434733
 31
0.0
  0
LINE
  5
19F05
  8
0
 62
     0
 10
0.7742337640046575
 20
0.5191582523464087
 30
0.0
 11
0.7721909822857624
 21
0.5267820175100982
 31
0.0
  0
LINE
  5
19F06
  8
0
 62
     0
 10
0.8349362486702396
 20
0.2926134954287853
 30
0.0
 11
0.834027780064215
 21
0.29600394642355
 31
0.0
  0
LINE
  5
19F07
  8
0
 62
     0
 10
0.7668973952707735
 20
0.4982416618898702
 30
0.0
 11
0.7644434110485435
 21
0.5074000556882048
 31
0.0
  0
LINE
  5
19F08
  8
0
 62
     0
 10
0.8119267750088337
 20
0.3301897288741156
 30
0.0
 11
0.809472790786604
 21
0.3393481226724493
 31
0.0
  0
LINE
  5
19F09
  8
0
 62
     0
 10
0.7616861430978479
 20
0.46939402845583
 30
0.0
 11
0.7582622536648676
 21
0.4821721577792104
 31
0.0
  0
LINE
  5
19F0A
  8
0
 62
     0
 10
0.7939597867352837
 20
0.3489471506555475
 30
0.0
 11
0.7905358973023036
 21
0.361725279978927
 31
0.0
  0
LINE
  5
19F0B
  8
0
 62
     0
 10
0.7712864949264271
 20
0.385268736346581
 30
0.0
 11
0.7567873998164972
 21
0.4393800959606127
 31
0.0
  0
ENDBLK
  5
19F0D
  8
0
 62
     1
  0
BLOCK
  8
0
 62
     1
  2
*X38
 70
     1
 10
0.0
 20
0.0
 30
0.0
  3
*X38
  1

  0
LINE
  5
19F1E
  8
0
 62
     0
 10
1.0432040340494031
 20
0.2625649714620688
 30
0.0
 11
1.0689629348199889
 21
0.2883238722326551
 31
0.0
  0
LINE
  5
19F1F
  8
0
 62
     0
 10
0.9990098602252449
 20
0.2625649714620692
 30
0.0
 11
1.0290098602252431
 21
0.2925649714620682
 31
0.0
  0
LINE
  5
19F20
  8
0
 62
     0
 10
0.7735188883599764
 20
0.0370739995968008
 30
0.0
 11
0.8035108510943054
 21
0.0670659623311298
 31
0.0
  0
LINE
  5
19F21
  8
0
 62
     0
 10
0.9548156864010861
 20
0.2625649714620697
 30
0.0
 11
0.9848156864010846
 21
0.2925649714620686
 31
0.0
  0
LINE
  5
19F22
  8
0
 62
     0
 10
0.7735108510943061
 20
0.0812601361552901
 30
0.0
 11
0.8035108510943056
 21
0.1112601361552898
 31
0.0
  0
LINE
  5
19F23
  8
0
 62
     0
 10
0.9106215125769265
 20
0.2625649714620697
 30
0.0
 11
0.940621512576925
 21
0.2925649714620682
 31
0.0
  0
LINE
  5
19F24
  8
0
 62
     0
 10
0.7735108510943061
 20
0.1254543099794492
 30
0.0
 11
0.8035108510943056
 21
0.155454309979449
 31
0.0
  0
LINE
  5
19F25
  8
0
 62
     0
 10
0.8664273387527682
 20
0.2625649714620706
 30
0.0
 11
0.8964273387527663
 21
0.2925649714620682
 31
0.0
  0
LINE
  5
19F26
  8
0
 62
     0
 10
0.7735108510943061
 20
0.1696484838036083
 30
0.0
 11
0.8035108510943054
 21
0.1996484838036077
 31
0.0
  0
LINE
  5
19F27
  8
0
 62
     0
 10
0.8222331649286097
 20
0.262564971462071
 30
0.0
 11
0.8522331649286067
 21
0.2925649714620686
 31
0.0
  0
LINE
  5
19F28
  8
0
 62
     0
 10
0.7735108510943061
 20
0.2138426576277679
 30
0.0
 11
0.8035108510943056
 21
0.2438426576277677
 31
0.0
  0
LINE
  5
19F29
  8
0
 62
     0
 10
0.7735108510943061
 20
0.2580368314519266
 30
0.0
 11
0.8080389911044477
 21
0.2925649714620682
 31
0.0
  0
ENDBLK
  5
19F2B
  8
0
 62
     1
  0
BLOCK
  8
0
 62
     1
  2
*X39
 70
     1
 10
0.0
 20
0.0
 30
0.0
  3
*X39
  1

  0
LINE
  5
19F49
  8
0
 62
     0
 10
1.069361563889752
 20
0.2376130508997054
 30
0.0
 11
1.066433360659478
 21
0.2485412541299761
 31
0.0
  0
LINE
  5
19F4A
  8
0
 62
     0
 10
1.050390845099497
 20
0.2601164459665837
 30
0.0
 11
1.049734764670335
 21
0.2625649714620684
 31
0.0
  0
LINE
  5
19F4B
  8
0
 62
     0
 10
1.0540522529973571
 20
0.2464518856645368
 30
0.0
 11
1.0510616569641551
 21
0.2576129420053617
 31
0.0
  0
LINE
  5
19F4C
  8
0
 62
     0
 10
1.0387429421049621
 20
0.2552907204293673
 30
0.0
 11
1.036793812415209
 21
0.2625649714620692
 31
0.0
  0
ENDBLK
  5
19F4E
  8
0
 62
     1
  0
BLOCK
  8
0
 62
     1
  2
*U40
 70
     1
 10
0.0
 20
0.0
 30
0.0
  3
*U40
  1

  0
TEXT
  5
19F57
  8
DIM
 10
0.9185224865323506
 20
-0.0196769166169997
 30
0.0
 40
0.0218621591951683
  1
.090
  7
ROMANS
  0
ENDBLK
  5
19F59
  8
0
 62
     1
  0
BLOCK
  8
0
 62
     1
  2
*U41
 70
     1
 10
0.0
 20
0.0
 30
0.0
  3
*U41
  1

  0
TEXT
  5
19F5B
  8
DIM
 10
0.9908401724206885
 20
0.0268192262163092
 30
0.0
 40
0.0218621591951683
  1
.030
  7
ROMANS
  0
ENDBLK
  5
19F5D
  8
0
 62
     1
  0
BLOCK
  8
0
 62
     1
  2
*U42
 70
     1
 10
0.0
 20
0.0
 30
0.0
  3
*U42
  1

  0
TEXT
  5
19F5F
  8
DIM
 10
1.1484320540517849
 20
0.1316338918644844
 30
0.0
 40
0.0218621591951683
  1
.240
  7
ROMANS
  0
ENDBLK
  5
19F61
  8
0
 62
     1
  0
BLOCK
  8
0
 62
     1
  2
*U43
 70
     1
 10
0.0
 20
0.0
 30
0.0
  3
*U43
  1

  0
TEXT
  5
19F63
  8
DIM
 10
1.1484320540517849
 20
0.4316084244957451
 30
0.0
 40
0.0218621591951683
  1
.360
  7
ROMANS
  0
ENDBLK
  5
19F65
  8
0
 62
     1
  0
BLOCK
  8
0
 62
     1
  2
*U44
 70
     1
 10
0.0
 20
0.0
 30
0.0
  3
*U44
  1

  0
TEXT
  5
19F67
  8
DIM
 10
0.8901970847016754
 20
0.6629360991085437
 30
0.0
 40
0.0218621591951683
  1
.335
  7
ROMANS
  0
ENDBLK
  5
19F69
  8
0
 62
     1
  0
BLOCK
  8
0
 62
     1
  2
*U45
 70
     1
 10
0.0
 20
0.0
 30
0.0
  3
*U45
  1

  0
TEXT
  5
19F6B
  8
DIM
 10
0.8922791951012086
 20
0.4441242402723872
 30
0.0
 40
0.0218621591951683
  1
.175
  7
ROMANS
  0
ENDBLK
  5
19F6D
  8
0
 62
     1
  0
BLOCK
  8
0
 62
     1
  2
*U46
 70
     1
 10
0.0
 20
0.0
 30
0.0
  3
*U46
  1

  0
TEXT
  5
19F6F
  8
DIM
 10
0.6596610544474677
 20
0.2184101953483912
 30
0.0
 40
0.0218621591951683
  1
.030
  7
ROMANS
  0
ENDBLK
  5
19F71
  8
0
 62
     1
  0
BLOCK
  8
0
 62
     1
  2
*U47
 70
     1
 10
0.0
 20
0.0
 30
0.0
  3
*U47
  1

  0
TEXT
  5
19F73
  8
DIM
 10
1.035141954157879
 20
0.1823657124082991
 30
0.0
 40
0.0218621591951683
  1
.026
  7
ROMANS
  0
ENDBLK
  5
19F75
  8
0
 62
     1
  0
BLOCK
  8
0
 62
     1
  2
*U48
 70
     1
 10
0.0
 20
0.0
 30
0.0
  3
*U48
  1

  0
TEXT
  5
19F77
  8
DIM
 10
0.638379020473745
 20
-0.0572089076192502
 30
0.0
 40
0.0218621591951683
  1
.031
  7
ROMANS
  0
ENDBLK
  5
19F79
  8
0
 62
     1
  0
BLOCK
  8
0
 62
     1
  2
*U49
 70
     1
 10
0.0
 20
0.0
 30
0.0
  3
*U49
  1

  0
TEXT
  5
19F7B
  8
DIM
 10
0.7867791951205141
 20
-0.0558737712530596
 30
0.0
 40
0.0218621591816535
  1
.150
  7
ROMANS
  0
ENDBLK
  5
19F7D
  8
0
 62
     1
  0
ENDSEC
  0
SECTION
  2
ENTITIES
  0
INSERT
  5
19C63
  8
HATCH
  6
CONTINUOUS
  2
*X37
 10
0.0
 20
0.0
 30
0.0
1001
ACAD
1000
HATCH
1002
{
1070
    19
1000
ANSI31
1040
0.1
1040
1.047197551196597
1000
R14_HATCH_DATA
1000
19C63
1011
1.0
1021
0.0
1031
0.0
1021
0.0
1031
0.0
1011
0.0
1021
0.0
1031
0.0
1021
1.0
1031
0.0
1011
0.0
1021
0.0
1031
0.0
1021
0.0
1031
1.0
1040
0.0
1010
0.0
1020
0.0
1030
1.0
1000
ANSI31
1070
     0
1070
     0
1071
        2
1071
        1
1071
        1
1070
     2
1040
0.9235108510943064
1040
0.4550553198699714
1040
0.1624587168546193
1040
0.0
1040
6.2831853071795862
1070
     1
1071
        0
1071
        1
1071
        4
1070
     2
1040
1.021325420942933
1040
0.3045968838139201
1040
0.0119999999999962
1040
1.5703500331342819
1040
4.1359362669212434
1070
     0
1070
     2
1040
0.9235108510943126
1040
0.4550553198699732
1040
0.1674587168546172
1040
5.2888416938481821
1040
10.418943327898949
1070
     1
1070
     2
1040
0.8256694641549398
1040
0.3046143212795445
1040
0.0119999999999995
1040
5.289019940049922
1040
7.8540707482847347
1070
     0
1070
     1
1040
0.8256683947832179
1040
0.292614321327193
1040
1.021330776466683
1040
0.2925968850089922
1071
        0
1070
     0
1070
     1
1040
1.047197551196597
1040
0.1
1070
     0
1070
     1
1040
1.832595714594045
1040
0.0602960274743438
1040
-5.3165371128255492
1040
-0.0120740728286134
1040
-0.0032352380637815
1070
     0
1071
        1
1040
0.108460806189667
1040
-5.3042555587638658
1040
0.0
1002
}
  0
CIRCLE
  5
19C64
  8
PART
 10
0.9235108510943064
 20
0.4550553198699714
 30
0.0
 40
0.1624587168546193
  0
POLYLINE
  5
19C65
  8
PART
 66
     1
 10
0.0
 20
0.0
 30
0.0
 70
     1
  0
VERTEX
  5
19F0E
  8
PART
 10
1.021330776466683
 20
0.2925968850089922
 30
0.0
 42
-0.7467168174535348
  0
VERTEX
  5
19F0F
  8
PART
 10
1.0147847810745789
 20
0.3146577003867634
 30
0.0
 42
3.3723321168556568
  0
VERTEX
  5
19F10
  8
PART
 10
0.8322118972217236
 20
0.3146739718483584
 30
0.0
 42
-0.7465083454529012
  0
VERTEX
  5
19F11
  8
PART
 10
0.8256683947832179
 20
0.292614321327193
 30
0.0
  0
VERTEX
  5
19F12
  8
PART
 10
1.021330776466683
 20
0.2925968850089922
 30
0.0
  0
SEQEND
  5
19F13
  8
PART
  0
POLYLINE
  5
19C66
  8
PART
 66
     1
 10
0.0
 20
0.0
 30
0.0
 70
     1
  0
VERTEX
  5
19F14
  8
PART
 10
0.7735108510943061
 20
0.0375649714620681
 30
0.0
  0
VERTEX
  5
19F15
  8
PART
 10
0.7735108510943061
 20
0.2775649714620683
 30
0.0
 42
-0.4142135623730959
  0
VERTEX
  5
19F16
  8
PART
 10
0.7885108510943067
 20
0.2925649714620688
 30
0.0
  0
VERTEX
  5
19F17
  8
PART
 10
1.058510851094306
 20
0.2925649714620688
 30
0.0
 42
-0.9999999999999998
  0
VERTEX
  5
19F18
  8
PART
 10
1.058510851094306
 20
0.2625649714620686
 30
0.0
  0
VERTEX
  5
19F19
  8
PART
 10
0.810510851094305
 20
0.2625649714620712
 30
0.0
 42
0.414213562373096
  0
VERTEX
  5
19F1A
  8
PART
 10
0.8035108510943054
 20
0.2555649714620716
 30
0.0
  0
VERTEX
  5
19F1B
  8
PART
 10
0.8035108510943054
 20
0.0375649714620681
 30
0.0
 42
-0.9999999999999998
  0
SEQEND
  5
19F1C
  8
PART
  0
INSERT
  5
19C67
  8
HATCH
  6
CONTINUOUS
  2
*X38
 10
0.0
 20
0.0
 30
0.0
1001
ACAD
1000
HATCH
1002
{
1070
    19
1000
ANSI31
1040
0.25
1040
0.0
1000
R14_HATCH_DATA
1000
19C67
1011
1.0
1021
0.0
1031
0.0
1021
0.0
1031
0.0
1011
0.0
1021
0.0
1031
0.0
1021
1.0
1031
0.0
1011
0.0
1021
0.0
1031
0.0
1021
0.0
1031
1.0
1040
0.0
1010
0.0
1020
0.0
1030
1.0
1000
ANSI31
1070
     0
1070
     0
1071
        1
1071
        1
1071
        8
1070
     1
1040
0.7735108510943061
1040
0.0375649714620681
1040
0.7735108510943061
1040
0.2775649714620683
1070
     2
1040
0.7885108510943067
1040
0.2775649714620683
1040
0.0150000000000006
1040
3.1415926535897931
1040
4.7123889803846888
1070
     0
1070
     1
1040
0.7885108510943067
1040
0.2925649714620688
1040
1.058510851094306
1040
0.2925649714620688
1070
     2
1040
1.058510851094306
1040
0.2775649714620691
1040
0.0149999999999997
1040
4.7123889803846888
1040
7.8539816339744819
1070
     0
1070
     1
1040
1.058510851094306
1040
0.2625649714620686
1040
0.810510851094305
1040
0.2625649714620712
1070
     2
1040
0.810510851094305
1040
0.2555649714620716
1040
0.0069999999999997
1040
1.5707963267948959
1040
3.1415926535897931
1070
     1
1070
     1
1040
0.8035108510943054
1040
0.2555649714620716
1040
0.8035108510943054
1040
0.0375649714620681
1070
     2
1040
0.7885108510943059
1040
0.0375649714620681
1040
0.0149999999999997
1040
6.2831853071795862
1040
9.4247779607693793
1070
     0
1071
        0
1070
     0
1070
     1
1040
0.0
1040
0.25
1070
     0
1070
     1
1040
0.7853981633974483
1040
0.0602960274743438
1040
-5.3165371128255492
1040
-0.0220970869120796
1040
0.0220970869120796
1070
     0
1071
        1
1040
0.108460806189667
1040
-5.3042555587638658
1040
0.0
1002
}
  0
POLYLINE
  5
19C68
  8
PART
 66
     1
 10
0.0
 20
0.0
 30
0.0
 70
     1
  0
VERTEX
  5
19F2C
  8
PART
 10
0.8035108510943054
 20
0.1309437649500593
 30
0.0
  0
VERTEX
  5
19F2D
  8
PART
 10
0.8809507247834922
 20
0.1514257673746153
 30
0.0
 42
-0.4142135623730722
  0
VERTEX
  5
19F2E
  8
PART
 10
0.8882991940118429
 20
0.1471831266874972
 30
0.0
  0
VERTEX
  5
19F2F
  8
PART
 10
0.8929579368236897
 20
0.1297964618142944
 30
0.0
 42
-0.414213562373119
  0
VERTEX
  5
19F30
  8
PART
 10
0.8887152961365707
 20
0.1224479925859454
 30
0.0
  0
VERTEX
  5
19F31
  8
PART
 10
0.8035108510943054
 20
0.0998854795377577
 30
0.0
  0
SEQEND
  5
19F32
  8
PART
  0
POLYLINE
  5
19C69
  8
PART
 66
     1
 10
0.0
 20
0.0
 30
0.0
 70
     1
  0
VERTEX
  5
19F33
  8
PART
 10
0.8035108510943054
 20
0.0709437649500588
 30
0.0
  0
VERTEX
  5
19F34
  8
PART
 10
0.880950724783494
 20
0.0914257673746131
 30
0.0
 42
-0.414213562373077
  0
VERTEX
  5
19F35
  8
PART
 10
0.8882991940118429
 20
0.0871831266874941
 30
0.0
  0
VERTEX
  5
19F36
  8
PART
 10
0.8929579368236897
 20
0.069796461814293
 30
0.0
 42
-0.4142135623731109
  0
VERTEX
  5
19F37
  8
PART
 10
0.8887152961365707
 20
0.0624479925859431
 30
0.0
  0
VERTEX
  5
19F38
  8
PART
 10
0.8035108510943054
 20
0.0398854795377572
 30
0.0
  0
SEQEND
  5
19F39
  8
PART
  0
POLYLINE
  5
19C6A
  8
PART
 66
     1
 10
0.0
 20
0.0
 30
0.0
 70
     1
  0
VERTEX
  5
19F3A
  8
PART
 10
0.7735108510943061
 20
0.1052444633863809
 30
0.0
  0
VERTEX
  5
19F3B
  8
PART
 10
0.7473064060520384
 20
0.111050532964388
 30
0.0
 42
-0.4142135623730859
  0
VERTEX
  5
19F3C
  8
PART
 10
0.7430637653649211
 20
0.118399002192737
 30
0.0
  0
VERTEX
  5
19F3D
  8
PART
 10
0.7477225081767643
 20
0.1357856670659407
 30
0.0
 42
-0.4142135623731003
  0
VERTEX
  5
19F3E
  8
PART
 10
0.755070977405115
 20
0.1400283077530597
 30
0.0
  0
VERTEX
  5
19F3F
  8
PART
 10
0.7735108510943061
 20
0.1363027487986825
 30
0.0
  0
SEQEND
  5
19F40
  8
PART
  0
POLYLINE
  5
19C6B
  8
PART
 66
     1
 10
0.0
 20
0.0
 30
0.0
 70
     1
  0
VERTEX
  5
19F41
  8
PART
 10
0.7735108510943061
 20
0.0763027487986803
 30
0.0
  0
VERTEX
  5
19F42
  8
PART
 10
0.7550709774051132
 20
0.0800283077530575
 30
0.0
 42
0.4142135623730754
  0
VERTEX
  5
19F43
  8
PART
 10
0.7477225081767643
 20
0.0757856670659385
 30
0.0
  0
VERTEX
  5
19F44
  8
PART
 10
0.7430637653649193
 20
0.0583990021927365
 30
0.0
 42
0.4142135623730898
  0
VERTEX
  5
19F45
  8
PART
 10
0.7473064060520401
 20
0.0510505329643876
 30
0.0
  0
VERTEX
  5
19F46
  8
PART
 10
0.7735108510943061
 20
0.0452444633863796
 30
0.0
  0
SEQEND
  5
19F47
  8
PART
  0
INSERT
  5
19C6C
  8
HATCH
  6
CONTINUOUS
  2
*X39
 10
0.0
 20
0.0
 30
0.0
1001
ACAD
1000
HATCH
1002
{
1070
    19
1000
ANSI31
1040
0.1
1040
1.047197551196597
1000
R14_HATCH_DATA
1000
19C6C
1011
1.0
1021
0.0
1031
0.0
1021
0.0
1031
0.0
1011
0.0
1021
0.0
1031
0.0
1021
1.0
1031
0.0
1011
0.0
1021
0.0
1031
0.0
1021
0.0
1031
1.0
1040
0.0
1010
0.0
1020
0.0
1030
1.0
1000
ANSI31
1070
     0
1070
     0
1071
        1
1071
        1
1071
        6
1070
     1
1040
1.0533397221520151
1040
0.2625649714620686
1040
1.0261435697293111
1040
0.2625649714620695
1070
     1
1040
1.0261435697293111
1040
0.2625649714620695
1040
1.070154784109149
1040
0.2371550849925088
1070
     2
1040
1.070654784109297
1040
0.2380211103962975
1040
0.0010000000000778
1040
4.1887902046600951
1040
5.3165518682183857
1070
     1
1070
     2
1040
1.068213098595419
1040
0.2415584234565051
1040
0.0052981870405173
1040
5.3165518683442672
1040
7.0993693029677241
1070
     1
1070
     1
1040
1.0718423900378009
1040
0.2454183495623463
1040
1.051839722152015
1040
0.2569668952507167
1070
     2
1040
1.0533397221520151
1040
0.2595649714620694
1040
0.0029999999999994
1040
2.0943951023932561
1040
4.7123889803847634
1070
     0
1071
        0
1070
     0
1070
     1
1040
1.047197551196597
1040
0.1
1070
     0
1070
     1
1040
1.8325957145940439
1040
0.108460806189667
1040
-5.3042555587638658
1040
-0.0120740728286134
1040
-0.0032352380637815
1070
     0
1071
        1
1040
0.108460806189667
1040
-5.3042555587638658
1040
0.0
1002
}
  0
POLYLINE
  5
19C6D
  8
PART
 66
     1
 10
0.0
 20
0.0
 30
0.0
 70
     1
  0
VERTEX
  5
19F4F
  8
PART
 10
1.0533397221520151
 20
0.2625649714620686
 30
0.0
  0
VERTEX
  5
19F50
  8
PART
 10
1.0261435697293111
 20
0.2625649714620695
 30
0.0
  0
VERTEX
  5
19F51
  8
PART
 10
1.070154784109149
 20
0.2371550849925088
 30
0.0
 42
0.2896563652750588
  0
VERTEX
  5
19F52
  8
PART
 10
1.0712228574598861
 20
0.2371981324691899
 30
0.0
 42
0.4777680081760029
  0
VERTEX
  5
19F53
  8
PART
 10
1.0718423900378009
 20
0.2454183495623463
 30
0.0
  0
VERTEX
  5
19F54
  8
PART
 10
1.051839722152015
 20
0.2569668952507167
 30
0.0
 42
-0.7673269879789605
  0
SEQEND
  5
19F55
  8
PART
  0
LINE
  5
19C6E
  8
HATCH
 10
0.7933466402394238
 20
0.4464748752895782
 30
0.0
 11
0.7933466402394238
 21
0.4464748752895782
 31
0.0
  0
CIRCLE
  5
19C6F
  8
HATCH
 10
0.8117251695633065
 20
0.3983163049349943
 30
0.0
 40
0.009
  0
CIRCLE
  5
19C70
  8
HATCH
 10
0.8231715111384474
 20
0.3644200296017932
 30
0.0
 40
0.0045
  0
CIRCLE
  5
19C71
  8
HATCH
 10
0.8094532705055108
 20
0.5070766878005835
 30
0.0
 40
0.009
  0
CIRCLE
  5
19C72
  8
HATCH
 10
0.7900887725523021
 20
0.4769935956068096
 30
0.0
 40
0.0045
  0
CIRCLE
  5
19C73
  8
HATCH
 10
1.0488444059848261
 20
0.4576734164393612
 30
0.0
 40
0.009
  0
CIRCLE
  5
19C74
  8
PART
 10
0.9235108510943064
 20
0.4550553198699714
 30
0.0
 40
0.0874587168546194
  0
CIRCLE
  5
19C75
  8
HATCH
 10
0.931811819260881
 20
0.3200966857917031
 30
0.0
 40
0.0045
  0
CIRCLE
  5
19C76
  8
HATCH
 10
0.8981739668262883
 20
0.3322815575804221
 30
0.0
 40
0.009
  0
LINE
  5
19C77
  8
HATCH
 10
0.8490632547658201
 20
0.347939022241728
 30
0.0
 11
0.8490632547658201
 21
0.347939022241728
 31
0.0
  0
CIRCLE
  5
19C78
  8
HATCH
 10
1.034201329044993
 20
0.3773999460969792
 30
0.0
 40
0.0045
  0
LINE
  5
19C79
  8
HATCH
 10
1.0445076681674721
 20
0.4063098988046641
 30
0.0
 11
1.0445076681674721
 21
0.4063098988046641
 31
0.0
  0
LINE
  5
19C7A
  8
HATCH
 10
0.9608404277817754
 20
0.3300639260822147
 30
0.0
 11
0.9608404277817754
 21
0.3300639260822147
 31
0.0
  0
CIRCLE
  5
19C7B
  8
HATCH
 10
1.0037019547213371
 20
0.3586979573582243
 30
0.0
 40
0.009
  0
LINE
  5
19C7C
  8
HATCH
 10
0.944109797941067
 20
0.5838653707413066
 30
0.0
 11
0.944109797941067
 21
0.5838653707413066
 31
0.0
  0
CIRCLE
  5
19C7D
  8
HATCH
 10
0.8930690559817158
 20
0.5766639195719032
 30
0.0
 40
0.009
  0
CIRCLE
  5
19C7E
  8
HATCH
 10
0.8574755804226975
 20
0.5730471925227161
 30
0.0
 40
0.0045
  0
LINE
  5
19C7F
  8
HATCH
 10
0.8356463313527733
 20
0.551471978115637
 30
0.0
 11
0.8356463313527733
 21
0.551471978115637
 31
0.0
  0
CIRCLE
  5
19C80
  8
HATCH
 10
0.9745882939828511
 20
0.5802505027355356
 30
0.0
 40
0.0045
  0
CIRCLE
  5
19C81
  8
HATCH
 10
1.053238651257975
 20
0.4931792867342628
 30
0.0
 40
0.0045
  0
LINE
  5
19C82
  8
HATCH
 10
1.0370618374118099
 20
0.5192621678146703
 30
0.0
 11
1.0370618374118099
 21
0.5192621678146703
 31
0.0
  0
CIRCLE
  5
19C83
  8
HATCH
 10
0.9996081340771567
 20
0.5546773954043112
 30
0.0
 40
0.009
  0
VIEWPORT
  5
B94C
 67
     1
  8
0
 10
4.2500000395824173
 20
5.49999999161966
 30
0.0
 40
22.948663739732329
 41
11.073640915680359
 68
     1
 69
     1
1001
ACAD
1000
MVIEW
1002
{
1070
    16
1010
0.0
1020
0.0
1030
0.0
1010
0.0
1020
0.0
1030
1.0
1040
0.0
1040
11.073640915680359
1040
4.2500000395824173
1040
5.49999999161966
1040
50.0
1040
0.0
1040
0.0
1070
     0
1070
   500
1070
     1
1070
     1
1070
     0
1070
     0
1070
     0
1070
     0
1040
0.0
1040
0.0
1040
0.0
1040
0.5
1040
0.5
1040
0.5
1040
0.5
1070
     0
1002
{
1002
}
1002
}
  0
ENDSEC
  0
EOF
