  0
SECTION
  2
HEADER
  9
$ACADVER
  1
AC1009
  9
$INSBASE
 10
0.0
 20
0.0
 30
0.0
  9
$EXTMIN
 10
-0.3015772259741403
 20
0.0612335229074041
 30
-0.0000000349181948
  9
$EXTMAX
 10
-0.1014448294998882
 20
0.486343385519394
 30
0.0000000814935746
  9
$LIMMIN
 10
0.0
 20
0.0
  9
$LIMMAX
 10
1.1999999999999991
 20
1.0
  9
$ORTHOMODE
 70
     0
  9
$REGENMODE
 70
     1
  9
$FILLMODE
 70
     1
  9
$QTEXTMODE
 70
     0
  9
$MIRRTEXT
 70
     1
  9
$DRAGMODE
 70
     2
  9
$LTSCALE
 40
1.0
  9
$OSMODE
 70
    49
  9
$ATTMODE
 70
     1
  9
$TEXTSIZE
 40
0.125
  9
$TRACEWID
 40
0.05
  9
$TEXTSTYLE
  7
STANDARD
  9
$CLAYER
  8
PART
  9
$CELTYPE
  6
BYLAYER
  9
$CECOLOR
 62
     1
  9
$DIMSCALE
 40
0.0
  9
$DIMASZ
 40
0.125
  9
$DIMEXO
 40
0.05
  9
$DIMDLI
 40
0.02
  9
$DIMRND
 40
0.0
  9
$DIMDLE
 40
0.0
  9
$DIMEXE
 40
0.05
  9
$DIMTP
 40
0.005
  9
$DIMTM
 40
0.005
  9
$DIMTXT
 40
0.125
  9
$DIMCEN
 40
0.02
  9
$DIMTSZ
 40
0.0
  9
$DIMTOL
 70
     0
  9
$DIMLIM
 70
     0
  9
$DIMTIH
 70
     1
  9
$DIMTOH
 70
     1
  9
$DIMSE1
 70
     0
  9
$DIMSE2
 70
     0
  9
$DIMTAD
 70
     0
  9
$DIMZIN
 70
     4
  9
$DIMBLK
  1

  9
$DIMASO
 70
     1
  9
$DIMSHO
 70
     1
  9
$DIMPOST
  1

  9
$DIMAPOST
  1

  9
$DIMALT
 70
     0
  9
$DIMALTD
 70
     1
  9
$DIMALTF
 40
25.399999999999999
  9
$DIMLFAC
 40
1.0
  9
$DIMTOFL
 70
     0
  9
$DIMTVP
 40
0.0
  9
$DIMTIX
 70
     0
  9
$DIMSOXD
 70
     0
  9
$DIMSAH
 70
     0
  9
$DIMBLK1
  1

  9
$DIMBLK2
  1

  9
$DIMSTYLE
  2
SCOTTG
  9
$DIMCLRD
 70
   256
  9
$DIMCLRE
 70
   256
  9
$DIMCLRT
 70
   256
  9
$DIMTFAC
 40
1.0
  9
$DIMGAP
 40
0.02
  9
$LUNITS
 70
     2
  9
$LUPREC
 70
     5
  9
$SKETCHINC
 40
0.1
  9
$FILLETRAD
 40
0.01
  9
$AUNITS
 70
     0
  9
$AUPREC
 70
     0
  9
$MENU
  1
.
  9
$ELEVATION
 40
0.0
  9
$PELEVATION
 40
0.0
  9
$THICKNESS
 40
0.0
  9
$LIMCHECK
 70
     0
  9
$BLIPMODE
 70
     0
  9
$CHAMFERA
 40
0.0
  9
$CHAMFERB
 40
0.0
  9
$SKPOLY
 70
     0
  9
$TDCREATE
 40
2450919.3750775461
  9
$TDUPDATE
 40
2455812.5152229061
  9
$TDINDWG
 40
2.4030363194
  9
$TDUSRTIMER
 40
2.4030363194
  9
$USRTIMER
 70
     1
  9
$ANGBASE
 50
0.0
  9
$ANGDIR
 70
     0
  9
$PDMODE
 70
     0
  9
$PDSIZE
 40
0.0
  9
$PLINEWID
 40
0.0
  9
$COORDS
 70
     0
  9
$SPLFRAME
 70
     0
  9
$SPLINETYPE
 70
     6
  9
$SPLINESEGS
 70
     8
  9
$ATTDIA
 70
     0
  9
$ATTREQ
 70
     1
  9
$HANDLING
 70
     1
  9
$HANDSEED
  5
19F76
  9
$SURFTAB1
 70
     6
  9
$SURFTAB2
 70
     6
  9
$SURFTYPE
 70
     6
  9
$SURFU
 70
     6
  9
$SURFV
 70
     6
  9
$UCSNAME
  2

  9
$UCSORG
 10
0.0
 20
0.0
 30
0.0
  9
$UCSXDIR
 10
1.0
 20
0.0
 30
0.0
  9
$UCSYDIR
 10
0.0
 20
1.0
 30
0.0
  9
$PUCSNAME
  2

  9
$PUCSORG
 10
0.0
 20
0.0
 30
0.0
  9
$PUCSXDIR
 10
1.0
 20
0.0
 30
0.0
  9
$PUCSYDIR
 10
0.0
 20
1.0
 30
0.0
  9
$USERI1
 70
     0
  9
$USERI2
 70
     0
  9
$USERI3
 70
     0
  9
$USERI4
 70
     0
  9
$USERI5
 70
     0
  9
$USERR1
 40
0.0
  9
$USERR2
 40
0.0
  9
$USERR3
 40
0.0
  9
$USERR4
 40
0.0
  9
$USERR5
 40
0.0
  9
$WORLDVIEW
 70
     1
  9
$SHADEDGE
 70
     3
  9
$SHADEDIF
 70
    70
  9
$TILEMODE
 70
     1
  9
$MAXACTVP
 70
    48
  9
$PLIMCHECK
 70
     0
  9
$PEXTMIN
 10
-0.0002593796237598
 20
-0.0003357869613225
 30
-0.0015258207003583
  9
$PEXTMAX
 10
8.5002594192049692
 20
11.000335718974769
 30
0.0000000349246037
  9
$PLIMMIN
 10
0.0000001811605737
 20
-0.0000001192092895
  9
$PLIMMAX
 10
8.4999999408646811
 20
10.999999640494821
  9
$UNITMODE
 70
     0
  9
$VISRETAIN
 70
     1
  9
$PLINEGEN
 70
     0
  9
$PSLTSCALE
 70
     1
  0
ENDSEC
  0
SECTION
  2
TABLES
  0
TABLE
  2
VPORT
 70
     1
  0
VPORT
  2
*ACTIVE
 70
     0
 10
0.0
 20
0.0
 11
1.0
 21
1.0
 12
-19.923498073732361
 22
-0.3653893944996593
 13
0.0
 23
0.0
 14
0.5
 24
0.5
 15
0.5
 25
0.5
 16
0.0
 26
0.0
 36
5.6148375865943736
 17
19.721987045995348
 27
0.6391778487130584
 37
0.0
 40
0.4278974682684618
 41
2.067833698030634
 42
50.0
 43
0.0
 44
0.0
 50
0.0
 51
0.0
 71
     0
 72
 20000
 73
     1
 74
     0
 75
     0
 76
     0
 77
     0
 78
     0
  0
ENDTAB
  0
TABLE
  2
LTYPE
 70
     1
  0
LTYPE
  2
CONTINUOUS
 70
     0
  3
Solid line
 72
    65
 73
     0
 40
0.0
  0
ENDTAB
  0
TABLE
  2
LAYER
 70
     6
  0
LAYER
  2
0
 70
     0
 62
     7
  6
CONTINUOUS
  0
LAYER
  2
DEFPOINTS
 70
     0
 62
     7
  6
CONTINUOUS
  0
LAYER
  2
HATCH
 70
     0
 62
     7
  6
CONTINUOUS
  0
LAYER
  2
PART
 70
     0
 62
     7
  6
CONTINUOUS
  0
ENDTAB
  0
TABLE
  2
STYLE
 70
     4
  0
STYLE
  2
STANDARD
 70
     0
 40
0.0
 41
1.0
 50
0.0
 71
     0
 42
0.125
  3
txt
  4

  0
STYLE
  2
ROMANS
 70
     0
 40
0.0
 41
1.0
 50
0.0
 71
     0
 42
0.1
  3
SIMPLEX.shx
  4

  0
ENDTAB
  0
TABLE
  2
VIEW
 70
     0
  0
ENDTAB
  0
TABLE
  2
UCS
 70
     0
  0
ENDTAB
  0
TABLE
  2
APPID
 70
    16
  0
APPID
  2
ACAD
 70
     0
  0
APPID
  2
ADP_SK
 70
     0
  0
APPID
  2
ADP_SOL
 70
     0
  0
APPID
  2
ACIS_LNK
 70
     0
  0
APPID
  2
AME_SOL
 70
     0
  0
APPID
  2
ACAD_MLEADERVER
 70
     0
  0
APPID
  2
ACAD_EXEMPT_FROM_CAD_STANDARDS
 70
     0
  0
APPID
  2
ACAD_PSEXT
 70
     0
  0
APPID
  2
ACDBDYNAMICBLOCKGUID
 70
     0
  0
APPID
  2
ACDBBLOCKREPETAG
 70
     0
  0
APPID
  2
ACDBDYNAMICBLOCKTRUENAME
 70
     0
  0
APPID
  2
ACAD_DSTYLE_DIMJAG
 70
     0
  0
APPID
  2
ACAD_DSTYLE_DIMTALN
 70
     0
  0
APPID
  2
ACAECLAYERSTANDARD
 70
     0
  0
APPID
  2
ACAUTHENVIRON
 70
     0
  0
APPID
  2
ACADANNOPO
 70
     0
  0
ENDTAB
  0
TABLE
  2
DIMSTYLE
 70
     3
  0
DIMSTYLE
  2
SCOTTG
 70
     0
  3

  4

  5

  6

  7

 40
0.15
 41
0.125
 42
0.1
 43
0.25
 44
0.1
 45
0.0
 46
0.0
 47
0.01
 48
0.01
140
0.125
141
0.06
142
0.0
143
25.399999999999999
144
1.0
145
0.0
146
1.0
147
0.09
 71
     1
 72
     0
 73
     1
 74
     1
 75
     0
 76
     0
 77
     0
 78
     4
170
     0
171
     1
172
     0
173
     0
174
     1
175
     0
176
   256
177
   256
178
   256
  0
ENDTAB
  0
ENDSEC
  0
SECTION
  2
BLOCKS
  0
BLOCK
  8
0
  2
$MODEL_SPACE
 70
     0
 10
0.0
 20
0.0
 30
0.0
  3
$MODEL_SPACE
  1

  0
ENDBLK
  5
1A
  8
0
  0
BLOCK
 67
     1
  8
0
  2
$PAPER_SPACE
 70
     0
 10
0.0
 20
0.0
 30
0.0
  3
$PAPER_SPACE
  1

  0
ENDBLK
  5
B932
 67
     1
  8
0
  0
BLOCK
  8
0
 62
     1
  2
*U21
 70
     1
 10
0.0
 20
0.0
 30
0.0
  3
*U21
  1

  0
TEXT
  5
19EA5
  8
PART
 10
-0.3733034910232481
 20
0.7141972627033814
 30
0.0
 40
0.0378374821074757
  1
.400
  7
ROMANS
  0
ENDBLK
  5
19EA7
  8
0
 62
     1
  0
BLOCK
  8
0
 62
     1
  2
*U22
 70
     1
 10
0.0
 20
0.0
 30
0.0
  3
*U22
  1

  0
TEXT
  5
19EA9
  8
PART
 10
-0.2841244632638552
 20
0.8031443739727691
 30
0.0
 40
0.0378374821074757
  1
.561
  7
ROMANS
  0
ENDBLK
  5
19EAB
  8
0
 62
     1
  0
BLOCK
  8
0
 62
     1
  2
*U23
 70
     1
 10
0.0
 20
0.0
 30
0.0
  3
*U23
  1

  0
TEXT
  5
19EAD
  8
PART
 10
-0.7225985692659322
 20
0.3060812574018382
 30
0.0
 40
0.0378374821074757
  1
.650
  7
ROMANS
  0
ENDBLK
  5
19EAF
  8
0
 62
     1
  0
BLOCK
  8
0
 62
     1
  2
*U24
 70
     1
 10
0.0
 20
0.0
 30
0.0
  3
*U24
  1

  0
TEXT
  5
19EB1
  8
PART
 10
0.1457500447553917
 20
-0.4352694319903586
 30
0.0
 40
0.0378374821394327
  1
.018
  7
ROMANS
  0
ENDBLK
  5
19EB3
  8
0
 62
     1
  0
BLOCK
  8
0
 62
     1
  2
*U25
 70
     1
 10
0.0
 20
0.0
 30
0.0
  3
*U25
  1

  0
TEXT
  5
19EB5
  8
PART
 10
-0.0855716434774586
 20
-0.5545369172463596
 30
0.0
 40
0.0378374821394327
  1
.155
  7
ROMANS
  0
ENDBLK
  5
19EB7
  8
0
 62
     1
  0
BLOCK
  8
0
 62
     1
  2
*U26
 70
     1
 10
0.0
 20
0.0
 30
0.0
  3
*U26
  1

  0
TEXT
  5
19EB9
  8
PART
 10
0.1468273350806249
 20
-0.4926613062714235
 30
0.0
 40
0.0378374821394327
  1
.040
  7
ROMANS
  0
ENDBLK
  5
19EBB
  8
0
 62
     1
  0
BLOCK
  8
0
 62
     1
  2
*U27
 70
     1
 10
0.0
 20
0.0
 30
0.0
  3
*U27
  1

  0
TEXT
  5
19EBD
  8
PART
 10
-0.7225985693146287
 20
-0.1939187410697232
 30
0.0
 40
0.0378374821394327
  1
.350
  7
ROMANS
  0
ENDBLK
  5
19EBF
  8
0
 62
     1
  0
BLOCK
  8
0
 62
     1
  2
*U28
 70
     1
 10
0.0
 20
0.0
 30
0.0
  3
*U28
  1

  0
TEXT
  5
19EC1
  8
PART
 10
-0.3754939488229078
 20
-0.229541701938869
 30
0.0
 40
0.0378374821394327
  1
.030
  7
ROMANS
  0
ENDBLK
  5
19EC3
  8
0
 62
     1
  0
BLOCK
  8
0
 62
     1
  2
*U29
 70
     1
 10
0.0
 20
0.0
 30
0.0
  3
*U29
  1

  0
TEXT
  5
19EC5
  8
PART
 10
-0.2079462264281474
 20
0.3460745370676188
 30
0.0
 40
0.0378374821074757
  1
.135
  7
ROMANS
  0
ENDBLK
  5
19EC7
  8
0
 62
     1
  0
BLOCK
  8
0
 62
     1
  2
*X30
 70
     1
 10
0.0
 20
0.0
 30
0.0
  3
*X30
  1

  0
LINE
  5
19ED5
  8
0
 62
     0
 10
0.1528758755197259
 20
0.0000000126920359
 30
0.0
 11
0.1808758755197251
 21
0.028000012692035
 31
0.0
  0
LINE
  5
19ED6
  8
0
 62
     0
 10
0.1086817016955672
 20
0.0000000126920368
 30
0.0
 11
0.1366817016955664
 21
0.0280000126920359
 31
0.0
  0
LINE
  5
19ED7
  8
0
 62
     0
 10
0.0644875278714077
 20
0.0000000126920363
 30
0.0
 11
0.1037053570610702
 21
0.0392178418816984
 31
0.0
  0
LINE
  5
19ED8
  8
0
 62
     0
 10
0.0202933540472494
 20
0.0000000126920372
 30
0.0
 11
0.0482933540472481
 21
0.0280000126920359
 31
0.0
  0
ENDBLK
  5
19EDA
  8
0
 62
     1
  0
BLOCK
  8
0
 62
     1
  2
*X31
 70
     1
 10
0.0
 20
0.0
 30
0.0
  3
*X31
  1

  0
LINE
  5
19EEE
  8
0
 62
     0
 10
0.1998561691877441
 20
0.3213395589895587
 30
0.0
 11
0.1846374612988932
 21
0.3781365500562988
 31
0.0
  0
LINE
  5
19EEF
  8
0
 62
     0
 10
0.1682484061406615
 20
0.3910050452804174
 30
0.0
 11
0.1657677984289918
 21
0.4002627992940156
 31
0.0
  0
LINE
  5
19EF0
  8
0
 62
     0
 10
0.1945776864004194
 20
0.2927428336242794
 30
0.0
 11
0.192097078688759
 21
0.3020005876378438
 31
0.0
  0
LINE
  5
19EF1
  8
0
 62
     0
 10
0.1516409538060164
 20
0.4046886098631362
 30
0.0
 11
0.1497637568687413
 21
0.41169440420886
 31
0.0
  0
LINE
  5
19EF2
  8
0
 62
     0
 10
0.1864335823034429
 20
0.2748407525818708
 30
0.0
 11
0.1845563853661771
 21
0.2818465469275599
 31
0.0
  0
LINE
  5
19EF3
  8
0
 62
     0
 10
0.1365672204913848
 20
0.4126482571386312
 30
0.0
 11
0.1349556122822952
 21
0.4186628608568493
 31
0.0
  0
LINE
  5
19EF4
  8
0
 62
     0
 10
0.1770935812326622
 20
0.261401819806319
 30
0.0
 11
0.1754819730235817
 21
0.2674164235245025
 31
0.0
  0
LINE
  5
19EF5
  8
0
 62
     0
 10
0.1223776464442954
 20
0.417308177105678
 30
0.0
 11
0.1209135610513616
 21
0.4227722181787259
 31
0.0
  0
LINE
  5
19EF6
  8
0
 62
     0
 10
0.1671226068830356
 20
0.2503177113656392
 30
0.0
 11
0.165523401413445
 21
0.2562860274298933
 31
0.0
  0
LINE
  5
19EF7
  8
0
 62
     0
 10
0.1088274801013218
 20
0.4195817950342118
 30
0.0
 11
0.1074517161013873
 21
0.4247162161811913
 31
0.0
  0
LINE
  5
19EF8
  8
0
 62
     0
 10
0.157944871050081
 20
0.2362731964782174
 30
0.0
 11
0.1555147161359496
 21
0.2453426580880196
 31
0.0
  0
LINE
  5
19EF9
  8
0
 62
     0
 10
0.0957984712022444
 20
0.4199104269033809
 30
0.0
 11
0.094474524626859
 21
0.424851462789226
 31
0.0
  0
LINE
  5
19EFA
  8
0
 62
     0
 10
0.1508675453819299
 20
0.2143898441390135
 30
0.0
 11
0.1466642446509265
 21
0.2300767760266105
 31
0.0
  0
LINE
  5
19EFB
  8
0
 62
     0
 10
0.0832296011012852
 20
0.4185217973994418
 30
0.0
 11
0.0819310356247036
 21
0.4233681097349989
 31
0.0
  0
LINE
  5
19EFC
  8
0
 62
     0
 10
0.1499231862507191
 20
0.1696179490828324
 30
0.0
 11
0.1406275753248749
 21
0.2043096413454757
 31
0.0
  0
LINE
  5
19EFD
  8
0
 62
     0
 10
0.0710930448663973
 20
0.4155197505825062
 30
0.0
 11
0.0697976172278514
 21
0.4203543523470899
 31
0.0
  0
LINE
  5
19EFE
  8
0
 62
     0
 10
0.1499231862507184
 20
0.1213216577683802
 30
0.0
 11
0.1405231862507323
 21
0.156402935359476
 31
0.0
  0
LINE
  5
19EFF
  8
0
 62
     0
 10
0.059385452883177
 20
0.4109167873837168
 30
0.0
 11
0.0580714072141988
 21
0.4158208725838089
 31
0.0
  0
LINE
  5
19F00
  8
0
 62
     0
 10
0.149923186250718
 20
0.073025366453928
 30
0.0
 11
0.1402707048485705
 21
0.1090489174658558
 31
0.0
  0
LINE
  5
19F01
  8
0
 62
     0
 10
0.0481269892424394
 20
0.4046376543916637
 30
0.0
 11
0.0467695790061635
 21
0.4097035783601593
 31
0.0
  0
LINE
  5
19F02
  8
0
 62
     0
 10
0.1490467411750131
 20
0.0280000126920488
 30
0.0
 11
0.1341766519764171
 21
0.0834959410942915
 31
0.0
  0
LINE
  5
19F03
  8
0
 62
     0
 10
0.0373674033876403
 20
0.3964966841557196
 30
0.0
 11
0.0359339362751778
 21
0.401846456250409
 31
0.0
  0
LINE
  5
19F04
  8
0
 62
     0
 10
0.1361057889198869
 20
0.0280000126920497
 30
0.0
 11
0.1255337972647126
 21
0.0674552226863554
 31
0.0
  0
LINE
  5
19F05
  8
0
 62
     0
 10
0.0272040743339557
 20
0.3861304532436573
 30
0.0
 11
0.0256440984954551
 21
0.3919523623315211
 31
0.0
  0
LINE
  5
19F06
  8
0
 62
     0
 10
0.1231648366647604
 20
0.0280000126920506
 30
0.0
 11
0.1157637312137749
 21
0.0556213142673032
 31
0.0
  0
LINE
  5
19F07
  8
0
 62
     0
 10
0.0178317588693751
 20
0.3728121194275831
 30
0.0
 11
0.0160513765575421
 21
0.3794565966722416
 31
0.0
  0
LINE
  5
19F08
  8
0
 62
     0
 10
0.1085038205557471
 20
0.0344193783870219
 30
0.0
 11
0.1052459059914823
 21
0.0465780810675769
 31
0.0
  0
LINE
  5
19F09
  8
0
 62
     0
 10
0.0410240379309592
 20
0.2379610643119809
 30
0.0
 11
0.0367230256264075
 21
0.2540126607565467
 31
0.0
  0
LINE
  5
19F0A
  8
0
 62
     0
 10
0.0593231862507333
 20
0.1696677130473452
 30
0.0
 11
0.0498859723971394
 21
0.2048878746308507
 31
0.0
  0
LINE
  5
19F0B
  8
0
 62
     0
 10
0.0097175617737111
 20
0.3547984239367752
 30
0.0
 11
0.0074823358849814
 21
0.3631404005199084
 31
0.0
  0
LINE
  5
19F0C
  8
0
 62
     0
 10
0.0946710105149482
 20
0.0377478369562789
 30
0.0
 11
0.0917172319030553
 21
0.0487714888101731
 31
0.0
  0
LINE
  5
19F0D
  8
0
 62
     0
 10
0.0213280584144668
 20
0.2631711692579124
 30
0.0
 11
0.0173462855370112
 21
0.2780313479407761
 31
0.0
  0
LINE
  5
19F0E
  8
0
 62
     0
 10
0.0593231862507333
 20
0.1213714217328912
 30
0.0
 11
0.0499231862507195
 21
0.15645269932409
 31
0.0
  0
LINE
  5
19F0F
  8
0
 62
     0
 10
0.0049251600912348
 20
0.3243876191916009
 30
0.0
 11
0.0009433872137699
 21
0.3392477978745001
 31
0.0
  0
LINE
  5
19F10
  8
0
 62
     0
 10
0.0843419798993823
 20
0.0280000126920497
 30
0.0
 11
0.0734094838064046
 21
0.0688006435645923
 31
0.0
  0
LINE
  5
19F11
  8
0
 62
     0
 10
0.0714010276442565
 20
0.0280000126920506
 30
0.0
 11
0.0499231862507197
 21
0.108156408009636
 31
0.0
  0
LINE
  5
19F12
  8
0
 62
     0
 10
0.0584600753891305
 20
0.0280000126920506
 30
0.0
 11
0.0499231862507197
 21
0.0598601166951829
 31
0.0
  0
ENDBLK
  5
19F14
  8
0
 62
     1
  0
BLOCK
  8
0
 62
     1
  2
*X32
 70
     1
 10
0.0
 20
0.0
 30
0.0
  3
*X32
  1

  0
LINE
  5
19F22
  8
0
 62
     0
 10
-0.1485353356695782
 20
0.0612878203886034
 30
0.0
 11
-0.1205353356695791
 21
0.0892878203886025
 31
0.0
  0
LINE
  5
19F23
  8
0
 62
     0
 10
-0.1927295094937369
 20
0.0612878203886043
 30
0.0
 11
-0.1647295094937378
 21
0.0892878203886034
 31
0.0
  0
LINE
  5
19F24
  8
0
 62
     0
 10
-0.2369236833178965
 20
0.0612878203886038
 30
0.0
 11
-0.1977058541282339
 21
0.1005056495782659
 31
0.0
  0
LINE
  5
19F25
  8
0
 62
     0
 10
-0.2811178571420547
 20
0.0612878203886047
 30
0.0
 11
-0.253117857142056
 21
0.0892878203886034
 31
0.0
  0
ENDBLK
  5
19F27
  8
0
 62
     1
  0
BLOCK
  8
0
 62
     1
  2
*X33
 70
     1
 10
0.0
 20
0.0
 30
0.0
  3
*X33
  1

  0
LINE
  5
19F3B
  8
0
 62
     0
 10
-0.1015550420015601
 20
0.3826273666861262
 30
0.0
 11
-0.1167737498904109
 21
0.4394243577528663
 31
0.0
  0
LINE
  5
19F3C
  8
0
 62
     0
 10
-0.1331628050486426
 20
0.452292852976985
 30
0.0
 11
-0.1356434127603123
 21
0.4615506069905831
 31
0.0
  0
LINE
  5
19F3D
  8
0
 62
     0
 10
-0.1068335247888847
 20
0.3540306413208469
 30
0.0
 11
-0.1093141325005451
 21
0.3632883953344113
 31
0.0
  0
LINE
  5
19F3E
  8
0
 62
     0
 10
-0.1497702573832877
 20
0.4659764175597037
 30
0.0
 11
-0.1516474543205628
 21
0.4729822119054275
 31
0.0
  0
LINE
  5
19F3F
  8
0
 62
     0
 10
-0.1149776288858613
 20
0.3361285602784383
 30
0.0
 11
-0.116854825823127
 21
0.3431343546241274
 31
0.0
  0
LINE
  5
19F40
  8
0
 62
     0
 10
-0.1648439906979193
 20
0.4739360648351987
 30
0.0
 11
-0.1664555989070089
 21
0.4799506685534168
 31
0.0
  0
LINE
  5
19F41
  8
0
 62
     0
 10
-0.124317629956642
 20
0.3226896275028865
 30
0.0
 11
-0.1259292381657224
 21
0.3287042312210699
 31
0.0
  0
LINE
  5
19F42
  8
0
 62
     0
 10
-0.1790335647450087
 20
0.4785959848022454
 30
0.0
 11
-0.1804976501379425
 21
0.4840600258752934
 31
0.0
  0
LINE
  5
19F43
  8
0
 62
     0
 10
-0.1342886043062685
 20
0.3116055190622067
 30
0.0
 11
-0.1358878097758591
 21
0.3175738351264608
 31
0.0
  0
LINE
  5
19F44
  8
0
 62
     0
 10
-0.1925837310879823
 20
0.4808696027307793
 30
0.0
 11
-0.1939594950879169
 21
0.4860040238777588
 31
0.0
  0
LINE
  5
19F45
  8
0
 62
     0
 10
-0.1434663401392231
 20
0.2975610041747849
 30
0.0
 11
-0.1458964950533546
 21
0.3066304657845871
 31
0.0
  0
LINE
  5
19F46
  8
0
 62
     0
 10
-0.2056127399870598
 20
0.4811982345999484
 30
0.0
 11
-0.2069366865624451
 21
0.4861392704857935
 31
0.0
  0
LINE
  5
19F47
  8
0
 62
     0
 10
-0.1505436658073742
 20
0.275677651835581
 30
0.0
 11
-0.1547469665383776
 21
0.291364583723178
 31
0.0
  0
LINE
  5
19F48
  8
0
 62
     0
 10
-0.2181816100880189
 20
0.4798096050960093
 30
0.0
 11
-0.2194801755646005
 21
0.4846559174315664
 31
0.0
  0
LINE
  5
19F49
  8
0
 62
     0
 10
-0.151488024938585
 20
0.2309057567793999
 30
0.0
 11
-0.1607836358644292
 21
0.2655974490420432
 31
0.0
  0
LINE
  5
19F4A
  8
0
 62
     0
 10
-0.2303181663229068
 20
0.4768075582790737
 30
0.0
 11
-0.2316135939614528
 21
0.4816421600436574
 31
0.0
  0
LINE
  5
19F4B
  8
0
 62
     0
 10
-0.1514880249385859
 20
0.1826094654649486
 30
0.0
 11
-0.160888024938572
 21
0.2176907430560444
 31
0.0
  0
LINE
  5
19F4C
  8
0
 62
     0
 10
-0.2420257583061272
 20
0.4722045950802843
 30
0.0
 11
-0.2433398039751053
 21
0.4771086802803764
 31
0.0
  0
LINE
  5
19F4D
  8
0
 62
     0
 10
-0.1514880249385861
 20
0.1343131741504955
 30
0.0
 11
-0.1611405063407336
 21
0.1703367251624233
 31
0.0
  0
LINE
  5
19F4E
  8
0
 62
     0
 10
-0.2532842219468647
 20
0.4659254620882312
 30
0.0
 11
-0.2546416321831406
 21
0.4709913860567268
 31
0.0
  0
LINE
  5
19F4F
  8
0
 62
     0
 10
-0.152364470014291
 20
0.0892878203886163
 30
0.0
 11
-0.167234559212887
 21
0.144783748790859
 31
0.0
  0
LINE
  5
19F50
  8
0
 62
     0
 10
-0.2640438078016638
 20
0.4577844918522871
 30
0.0
 11
-0.2654772749141263
 21
0.4631342639469765
 31
0.0
  0
LINE
  5
19F51
  8
0
 62
     0
 10
-0.1653054222694172
 20
0.0892878203886172
 30
0.0
 11
-0.1758774139245915
 21
0.1287430303829229
 31
0.0
  0
LINE
  5
19F52
  8
0
 62
     0
 10
-0.2742071368553485
 20
0.4474182609402249
 30
0.0
 11
-0.275767112693849
 21
0.4532401700280886
 31
0.0
  0
LINE
  5
19F53
  8
0
 62
     0
 10
-0.1782463745245435
 20
0.0892878203886172
 30
0.0
 11
-0.1856474799755292
 21
0.1169091219638707
 31
0.0
  0
LINE
  5
19F54
  8
0
 62
     0
 10
-0.2835794523199291
 20
0.4340999271241506
 30
0.0
 11
-0.2853598346317621
 21
0.4407444043688092
 31
0.0
  0
LINE
  5
19F55
  8
0
 62
     0
 10
-0.192907390633557
 20
0.0957071860835894
 30
0.0
 11
-0.1961653051978218
 21
0.1078658887641444
 31
0.0
  0
LINE
  5
19F56
  8
0
 62
     0
 10
-0.2603871732583449
 20
0.2992488720085484
 30
0.0
 11
-0.2646881855628966
 21
0.3153004684531142
 31
0.0
  0
LINE
  5
19F57
  8
0
 62
     0
 10
-0.2420880249385708
 20
0.2309555207439127
 30
0.0
 11
-0.2515252387921647
 21
0.2661756823274182
 31
0.0
  0
LINE
  5
19F58
  8
0
 62
     0
 10
-0.2916936494155931
 20
0.4160862316333427
 30
0.0
 11
-0.2939288753043228
 21
0.4244282082164759
 31
0.0
  0
LINE
  5
19F59
  8
0
 62
     0
 10
-0.2067402006743559
 20
0.0990356446528464
 30
0.0
 11
-0.2096939792862487
 21
0.1100592965067397
 31
0.0
  0
LINE
  5
19F5A
  8
0
 62
     0
 10
-0.2800831527748373
 20
0.3244589769544799
 30
0.0
 11
-0.2840649256522929
 21
0.3393191556373436
 31
0.0
  0
LINE
  5
19F5B
  8
0
 62
     0
 10
-0.2420880249385708
 20
0.1826592294294587
 30
0.0
 11
-0.2514880249385849
 21
0.2177405070206584
 31
0.0
  0
LINE
  5
19F5C
  8
0
 62
     0
 10
-0.2964860510980694
 20
0.3856754268881683
 30
0.0
 11
-0.3004678239755343
 21
0.4005356055710676
 31
0.0
  0
LINE
  5
19F5D
  8
0
 62
     0
 10
-0.2170692312899218
 20
0.0892878203886172
 30
0.0
 11
-0.2280017273828994
 21
0.1300884512611589
 31
0.0
  0
LINE
  5
19F5E
  8
0
 62
     0
 10
-0.2300101835450476
 20
0.0892878203886181
 30
0.0
 11
-0.2514880249385845
 21
0.1694442157062035
 31
0.0
  0
LINE
  5
19F5F
  8
0
 62
     0
 10
-0.2429511358001737
 20
0.0892878203886181
 30
0.0
 11
-0.2514880249385845
 21
0.1211479243917504
 31
0.0
  0
ENDBLK
  5
19F61
  8
0
 62
     1
  0
BLOCK
  8
0
 62
     1
  2
*U34
 70
     1
 10
0.0
 20
0.0
 30
0.0
  3
*U34
  1

  0
TEXT
  5
19F63
  8
PART
 10
-0.3671024951656871
 20
0.2664030561794363
 30
0.0
 40
0.0147695284183495
  1
.425
  7
ROMANS
  0
ENDBLK
  5
19F65
  8
0
 62
     1
  0
BLOCK
  8
0
 62
     1
  2
*U35
 70
     1
 10
0.0
 20
0.0
 30
0.0
  3
*U35
  1

  0
TEXT
  5
19F67
  8
PART
 10
-0.2239939730046417
 20
0.5116213507460417
 30
0.0
 40
0.0147695284183495
  1
.200
  7
ROMANS
  0
ENDBLK
  5
19F69
  8
0
 62
     1
  0
BLOCK
  8
0
 62
     1
  2
*U36
 70
     1
 10
0.0
 20
0.0
 30
0.0
  3
*U36
  1

  0
TEXT
  5
19F6B
  8
PART
 10
-0.1325538650889859
 20
0.244499640238829
 30
0.0
 40
0.0147695284183495
  1
.100
  7
ROMANS
  0
ENDBLK
  5
19F6D
  8
0
 62
     1
  0
BLOCK
  8
0
 62
     1
  2
*U37
 70
     1
 10
0.0
 20
0.0
 30
0.0
  3
*U37
  1

  0
TEXT
  5
19F6F
  8
PART
 10
-0.0845508003157337
 20
0.0679030561794282
 30
0.0
 40
0.0147695284183495
  1
.028
  7
ROMANS
  0
ENDBLK
  5
19F71
  8
0
 62
     1
  0
BLOCK
  8
0
 62
     1
  2
*U38
 70
     1
 10
0.0
 20
0.0
 30
0.0
  3
*U38
  1

  0
TEXT
  5
19F73
  8
PART
 10
-0.2225873512504994
 20
0.0126696368326795
 30
0.0
 40
0.0147695284183495
  1
.187
  7
ROMANS
  0
ENDBLK
  5
19F75
  8
0
 62
     1
  0
ENDSEC
  0
SECTION
  2
ENTITIES
  0
CIRCLE
  5
19D60
  8
HATCH
 10
-0.1861218595313687
 20
0.2690368128825946
 30
0.0
 40
0.0045
  0
CIRCLE
  5
19D61
  8
HATCH
 10
-0.1795137558146536
 20
0.1617393082351517
 30
0.0
 40
0.0045
  0
POLYLINE
  5
19D62
  8
PART
 66
     1
 10
0.0
 20
0.0
 30
0.0
 70
     1
1001
ACAD
1000
ASC_BOUNDS
1002
{
1070
    19
1005
19D7D
1002
}
  0
VERTEX
  5
19F15
  8
PART
 10
-0.107988024938571
 20
0.0792878203886029
 30
0.0
 42
0.4142135623730925
  0
VERTEX
  5
19F16
  8
PART
 10
-0.117988024938569
 20
0.0892878203886028
 30
0.0
  0
VERTEX
  5
19F17
  8
PART
 10
-0.1864880249385727
 20
0.0892878203886036
 30
0.0
  0
VERTEX
  5
19F18
  8
PART
 10
-0.2014880249385698
 20
0.1042878203886033
 30
0.0
  0
VERTEX
  5
19F19
  8
PART
 10
-0.2164880249385703
 20
0.0892878203886028
 30
0.0
  0
VERTEX
  5
19F1A
  8
PART
 10
-0.2849880249385705
 20
0.0892878203886036
 30
0.0
 42
0.4142135623730951
  0
VERTEX
  5
19F1B
  8
PART
 10
-0.2949880249385721
 20
0.0792878203886038
 30
0.0
  0
VERTEX
  5
19F1C
  8
PART
 10
-0.2949880249385721
 20
0.0712878203886056
 30
0.0
 42
0.414213562373094
  0
VERTEX
  5
19F1D
  8
PART
 10
-0.2849880249385705
 20
0.0612878203886049
 30
0.0
  0
VERTEX
  5
19F1E
  8
PART
 10
-0.1179880249385725
 20
0.0612878203886032
 30
0.0
 42
0.4142135623730974
  0
VERTEX
  5
19F1F
  8
PART
 10
-0.107988024938571
 20
0.0712878203886021
 30
0.0
  0
SEQEND
  5
19F20
  8
PART
  0
CIRCLE
  5
19D63
  8
HATCH
 10
-0.2152042061403421
 20
0.1479800271029299
 30
0.0
 40
0.0045
  0
LINE
  5
19D64
  8
HATCH
 10
-0.1999048953859272
 20
0.1407004428808658
 30
0.0
 11
-0.1999048953859272
 21
0.1407004428808658
 31
0.0
  0
LINE
  5
19D65
  8
HATCH
 10
-0.2311548953859273
 20
0.2032004428808658
 30
0.0
 11
-0.2311548953859273
 21
0.2032004428808658
 31
0.0
  0
LINE
  5
19D66
  8
HATCH
 10
-0.2136228331597145
 20
0.2419283430361296
 30
0.0
 11
-0.2136228331597145
 21
0.2419283430361296
 31
0.0
  0
CIRCLE
  5
19D67
  8
HATCH
 10
-0.2061181077303829
 20
0.2100089611447256
 30
0.0
 40
0.009
  0
CIRCLE
  5
19D68
  8
HATCH
 10
-0.2202144483166073
 20
0.2850127434482281
 30
0.0
 40
0.0045
  0
CIRCLE
  5
19D69
  8
HATCH
 10
-0.2530652325152367
 20
0.334419312474197
 30
0.0
 40
0.0045
  0
LINE
  5
19D6A
  8
HATCH
 10
-0.2448728331597145
 20
0.4294283430361297
 30
0.0
 11
-0.2448728331597145
 21
0.4294283430361297
 31
0.0
  0
LINE
  5
19D6B
  8
HATCH
 10
-0.2142612540076172
 20
0.3777773933033781
 30
0.0
 11
-0.2142612540076172
 21
0.3777773933033781
 31
0.0
  0
CIRCLE
  5
19D6C
  8
HATCH
 10
-0.2104880276846188
 20
0.348545367819902
 30
0.0
 40
0.0045
  0
CIRCLE
  5
19D6D
  8
HATCH
 10
-0.2299994278632873
 20
0.4009550389392265
 30
0.0
 40
0.0045
  0
CIRCLE
  5
19D6E
  8
HATCH
 10
-0.2191049563455962
 20
0.4527642870281426
 30
0.0
 40
0.00675
  0
LINE
  5
19D6F
  8
HATCH
 10
-0.2761228331597145
 20
0.3669283430361296
 30
0.0
 11
-0.2761228331597145
 21
0.3669283430361296
 31
0.0
  0
CIRCLE
  5
19D70
  8
HATCH
 10
-0.2745709839189594
 20
0.4049213546794917
 30
0.0
 40
0.0045
  0
LINE
  5
19D71
  8
HATCH
 10
-0.1766051112996401
 20
0.1317492111376175
 30
0.0
 11
-0.1766051112996401
 21
0.1317492111376175
 31
0.0
  0
LINE
  5
19D72
  8
HATCH
 10
-0.1823728331597145
 20
0.3044283430361296
 30
0.0
 11
-0.1823728331597145
 21
0.3044283430361296
 31
0.0
  0
CIRCLE
  5
19D74
  8
HATCH
 10
-0.1722628315834314
 20
0.2157542676043487
 30
0.0
 40
0.0045
  0
LINE
  5
19D75
  8
HATCH
 10
-0.1759886147203318
 20
0.4530409681195174
 30
0.0
 11
-0.1759886147203318
 21
0.4530409681195174
 31
0.0
  0
CIRCLE
  5
19D76
  8
HATCH
 10
-0.156236280409999
 20
0.3279279064233111
 30
0.0
 40
0.00675
  0
CIRCLE
  5
19D77
  8
HATCH
 10
-0.139101840332323
 20
0.4353774408189607
 30
0.0
 40
0.0045
  0
LINE
  5
19D78
  8
HATCH
 10
-0.1100796964708159
 20
0.3902278727207606
 30
0.0
 11
-0.1100796964708159
 21
0.3902278727207606
 31
0.0
  0
CIRCLE
  5
19D79
  8
HATCH
 10
-0.1221454235685684
 20
0.3592192438401198
 30
0.0
 40
0.0045
  0
CIRCLE
  5
19D7A
  8
HATCH
 10
-0.1441062828125155
 20
0.3810889391234891
 30
0.0
 40
0.009
  0
LINE
  5
19D7B
  8
HATCH
 10
-0.177364383175977
 20
0.3681029766210437
 30
0.0
 11
-0.177364383175977
 21
0.3681029766210437
 31
0.0
  0
CIRCLE
  5
19D7C
  8
HATCH
 10
-0.176222752224227
 20
0.4104059748576912
 30
0.0
 40
0.0045
  0
INSERT
  5
19D7D
  8
HATCH
  6
CONTINUOUS
  2
*X32
 10
0.0
 20
0.0
 30
0.0
1001
ACAD
1000
HATCH
1002
{
1070
    19
1000
ANSI31
1040
0.25
1040
0.0
1000
ASC_BOUNDS
1070
     1
1070
     2
1070
     1
1005
19D62
1000
ASC_SEEDPOINT
1011
-1.0692351205851209
1021
0.0
1031
0.0
1021
-5.2788293469428611
1031
0.0
1000
R14_HATCH_DATA
1000
19D7D
1011
1.0
1021
0.0
1031
0.0
1021
0.0
1031
0.0
1011
0.0
1021
0.0
1031
0.0
1021
1.0
1031
0.0
1011
0.0
1021
0.0
1031
0.0
1021
0.0
1031
1.0
1040
0.0
1010
0.0
1020
0.0
1030
1.0
1000
ANSI31
1070
     0
1070
     1
1071
        1
1071
        1
1071
       11
1070
     2
1040
-0.1179880249385699
1040
0.0792878203886038
1040
0.0099999999999989
1040
6.2831853071794974
1040
7.8539816339743931
1070
     1
1070
     1
1040
-0.117988024938569
1040
0.0892878203886028
1040
-0.1864880249385727
1040
0.0892878203886036
1070
     1
1040
-0.1864880249385727
1040
0.0892878203886036
1040
-0.2014880249385698
1040
0.1042878203886033
1070
     1
1040
-0.2014880249385698
1040
0.1042878203886033
1040
-0.2164880249385703
1040
0.0892878203886028
1070
     1
1040
-0.2164880249385703
1040
0.0892878203886028
1040
-0.2849880249385705
1040
0.0892878203886036
1070
     2
1040
-0.2849880249385714
1040
0.0792878203886029
1040
0.0100000000000007
1040
1.5707963267948071
1040
3.1415926535897039
1070
     1
1070
     1
1040
-0.2949880249385721
1040
0.0792878203886038
1040
-0.2949880249385721
1040
0.0712878203886056
1070
     2
1040
-0.284988024938571
1040
0.0712878203886065
1040
0.0100000000000011
1040
3.141592653589881
1040
4.7123889803847341
1070
     1
1070
     1
1040
-0.2849880249385705
1040
0.0612878203886049
1040
-0.1179880249385725
1040
0.0612878203886032
1070
     2
1040
-0.1179880249385712
1040
0.0712878203886029
1040
0.0099999999999998
1040
4.7123889803845556
1040
6.2831853071794974
1070
     1
1070
     1
1040
-0.107988024938571
1040
0.0712878203886021
1040
-0.107988024938571
1040
0.0792878203886029
1071
        1
1005
19D62
1070
     0
1070
     1
1040
0.0
1040
0.25
1070
     0
1070
     1
1040
0.7853981633974483
1040
-1.0692351205851209
1040
-5.2788293469428611
1040
-0.0220970869120796
1040
0.0220970869120796
1070
     0
1071
        1
1040
-1.0692351205851209
1040
-5.2788293469428611
1040
0.0
1002
}
  0
POLYLINE
  5
19D7E
  8
PART
 66
     1
 10
0.0
 20
0.0
 30
0.0
 70
     1
1001
ACAD
1000
ASC_BOUNDS
1002
{
1070
    19
1005
19D80
1002
}
  0
VERTEX
  5
19F28
  8
PART
 10
-0.201488024938584
 20
0.1042878203886175
 30
0.0
  0
VERTEX
  5
19F29
  8
PART
 10
-0.1864880249385869
 20
0.0892878203886179
 30
0.0
  0
VERTEX
  5
19F2A
  8
PART
 10
-0.1514880249385868
 20
0.089287820388617
 30
0.0
  0
VERTEX
  5
19F2B
  8
PART
 10
-0.151488024938585
 20
0.2638133332494579
 30
0.0
 42
-0.1962615682814145
  0
VERTEX
  5
19F2C
  8
PART
 10
-0.1300594535100146
 20
0.3163023991662406
 30
0.0
 42
2.3797958971132762
  0
VERTEX
  5
19F2D
  8
PART
 10
-0.2729165963671569
 20
0.3163023991662415
 30
0.0
 42
-0.1962615682814114
  0
VERTEX
  5
19F2E
  8
PART
 10
-0.2514880249385847
 20
0.2638133332494597
 30
0.0
  0
VERTEX
  5
19F2F
  8
PART
 10
-0.2514880249385847
 20
0.0892878203886187
 30
0.0
  0
VERTEX
  5
19F30
  8
PART
 10
-0.2164880249385845
 20
0.0892878203886179
 30
0.0
  0
SEQEND
  5
19F31
  8
PART
  0
POLYLINE
  5
19D7F
  8
PART
 66
     1
 10
0.0
 20
0.0
 30
0.0
 70
     1
1001
ACAD
1000
ASC_BOUNDS
1002
{
1070
    19
1005
19D80
1002
}
  0
VERTEX
  5
19F32
  8
PART
 10
-0.2014880249385698
 20
0.1042878203886033
 30
0.0
 42
0.2661163179145618
  0
VERTEX
  5
19F33
  8
PART
 10
-0.160888024938572
 20
0.1792878203885866
 30
0.0
  0
VERTEX
  5
19F34
  8
PART
 10
-0.160888024938572
 20
0.2616417614858049
 30
0.0
 42
-0.2087121525220811
  0
VERTEX
  5
19F35
  8
PART
 10
-0.1368880249385711
 20
0.3166326698252753
 30
0.0
 42
2.5488413399896119
  0
VERTEX
  5
19F36
  8
PART
 10
-0.266088024938572
 20
0.3166326698252762
 30
0.0
 42
-0.2087121525220797
  0
VERTEX
  5
19F37
  8
PART
 10
-0.2420880249385711
 20
0.2616417614858058
 30
0.0
  0
VERTEX
  5
19F38
  8
PART
 10
-0.2420880249385711
 20
0.1792878203886008
 30
0.0
 42
0.2661163179145609
  0
SEQEND
  5
19F39
  8
PART
  0
INSERT
  5
19D80
  8
HATCH
  6
CONTINUOUS
  2
*X33
 10
0.0
 20
0.0
 30
0.0
1001
ACAD
1000
HATCH
1002
{
1070
    19
1000
ANSI31
1040
0.1
1040
1.047197551196597
1000
ASC_BOUNDS
1070
     1
1070
     1
1070
     2
1005
19D7E
1005
19D7F
1000
ASC_SEEDPOINT
1011
-0.2396790323893345
1021
0.0
1031
0.0
1021
0.1103448477152991
1031
0.0
1000
R14_HATCH_DATA
1000
19D80
1011
1.0
1021
0.0
1031
0.0
1021
0.0
1031
0.0
1011
0.0
1021
0.0
1031
0.0
1021
1.0
1031
0.0
1011
0.0
1021
0.0
1031
0.0
1021
0.0
1031
1.0
1040
0.0
1010
0.0
1020
0.0
1030
1.0
1000
ANSI31
1070
     0
1070
     1
1071
        1
1071
        7
1070
     1
1070
     1
1071
       16
1040
-0.2514880249385847
1040
0.0892878203886179
1040
0.0
1040
-0.2164880249385842
1040
0.0892878203886179
1040
0.0
1040
-0.201488024938584
1040
0.1042878203886175
1040
-0.2661163179144916
1040
-0.2420880249385711
1040
0.1792878203886008
1040
0.0
1040
-0.2420880249385711
1040
0.2616417614858058
1040
0.2087121525220759
1040
-0.2660880249385715
1040
0.3166326698252753
1040
-2.548841339989631
1040
-0.1368880249385713
1040
0.3166326698252744
1040
0.2087121525220777
1040
-0.160888024938572
1040
0.2616417614858049
1040
0.0
1040
-0.160888024938572
1040
0.1792878203885866
1040
-0.2661163179145618
1040
-0.2014880249385698
1040
0.1042878203886033
1040
0.0
1040
-0.1864880249385868
1040
0.0892878203886179
1040
0.0
1040
-0.1514880249385867
1040
0.0892878203886161
1040
0.0
1040
-0.151488024938585
1040
0.2638133332494579
1040
-0.1962615682814146
1040
-0.1300594535100146
1040
0.3163023991662406
1040
2.3797958971132762
1040
-0.2729165963671569
1040
0.3163023991662415
1040
-0.1962615682814145
1040
-0.2514880249385847
1040
0.2638133332494588
1040
0.0
1071
        2
1005
19D7F
1005
19D7E
1070
     0
1070
     1
1040
1.047197551196597
1040
0.1
1070
     0
1070
     1
1040
1.8325957145940439
1040
-1.0692351205851209
1040
-5.2788293469428611
1040
-0.0120740728286134
1040
-0.0032352380637815
1070
     0
1040
0.0007872076108935
1071
        1
1040
-0.2396790323893345
1040
0.1103448477152991
1040
0.0
1002
}
  0
VIEWPORT
  5
B94C
 67
     1
  8
0
 10
4.2500000197906047
 20
5.499999966006726
 30
0.0
 40
22.896723563831479
 41
11.072807056794691
 68
     1
 69
     1
1001
ACAD
1000
MVIEW
1002
{
1070
    16
1010
0.0
1020
0.0
1030
0.0
1010
0.0
1020
0.0
1030
1.0
1040
0.0
1040
11.072807056794691
1040
4.2500000197906047
1040
5.499999966006726
1040
50.0
1040
0.0
1040
0.0
1070
     0
1070
   500
1070
     1
1070
     1
1070
     0
1070
     0
1070
     0
1070
     0
1040
0.0
1040
0.0
1040
0.0
1040
0.5
1040
0.5
1040
0.5
1040
0.5
1070
     0
1002
{
1002
}
1002
}
  0
ENDSEC
  0
EOF
