  0
SECTION
  2
HEADER
  9
$ACADVER
  1
AC1009
  9
$INSBASE
 10
0.0
 20
0.0
 30
0.0
  9
$EXTMIN
 10
1.1847524241251921
 20
1.678752583788895
 30
0.0
  9
$EXTMAX
 10
1.5270011614667209
 20
2.1257525837888949
 30
0.0
  9
$LIMMIN
 10
0.0
 20
0.0
  9
$LIMMAX
 10
7.7000000000000002
 20
10.0
  9
$ORTHOMODE
 70
     0
  9
$REGENMODE
 70
     1
  9
$FILLMODE
 70
     1
  9
$QTEXTMODE
 70
     0
  9
$MIRRTEXT
 70
     1
  9
$DRAGMODE
 70
     2
  9
$LTSCALE
 40
0.6518518519
  9
$OSMODE
 70
    39
  9
$ATTMODE
 70
     1
  9
$TEXTSIZE
 40
0.2
  9
$TRACEWID
 40
0.05
  9
$TEXTSTYLE
  7
STANDARD
  9
$CLAYER
  8
0
  9
$CELTYPE
  6
BYLAYER
  9
$CECOLOR
 62
   256
  9
$DIMSCALE
 40
1.0
  9
$DIMASZ
 40
0.1875
  9
$DIMEXO
 40
0.0740740741
  9
$DIMDLI
 40
0.4503703704000001
  9
$DIMRND
 40
0.0
  9
$DIMDLE
 40
0.0
  9
$DIMEXE
 40
0.2133333333
  9
$DIMTP
 40
0.0
  9
$DIMTM
 40
0.0
  9
$DIMTXT
 40
0.1339285714
  9
$DIMCEN
 40
0.1066666667
  9
$DIMTSZ
 40
0.0
  9
$DIMTOL
 70
     0
  9
$DIMLIM
 70
     0
  9
$DIMTIH
 70
     1
  9
$DIMTOH
 70
     1
  9
$DIMSE1
 70
     0
  9
$DIMSE2
 70
     0
  9
$DIMTAD
 70
     0
  9
$DIMZIN
 70
     0
  9
$DIMBLK
  1

  9
$DIMASO
 70
     1
  9
$DIMSHO
 70
     1
  9
$DIMPOST
  1

  9
$DIMAPOST
  1

  9
$DIMALT
 70
     0
  9
$DIMALTD
 70
     2
  9
$DIMALTF
 40
25.399999999999999
  9
$DIMLFAC
 40
1.0
  9
$DIMTOFL
 70
     0
  9
$DIMTVP
 40
0.0
  9
$DIMTIX
 70
     0
  9
$DIMSOXD
 70
     0
  9
$DIMSAH
 70
     0
  9
$DIMBLK1
  1

  9
$DIMBLK2
  1

  9
$DIMSTYLE
  2
STANDARD
  9
$DIMCLRD
 70
     0
  9
$DIMCLRE
 70
     0
  9
$DIMCLRT
 70
     0
  9
$DIMTFAC
 40
1.0
  9
$DIMGAP
 40
0.09
  9
$LUNITS
 70
     2
  9
$LUPREC
 70
     4
  9
$SKETCHINC
 40
0.1
  9
$FILLETRAD
 40
0.0
  9
$AUNITS
 70
     0
  9
$AUPREC
 70
     0
  9
$MENU
  1
.
  9
$ELEVATION
 40
0.0
  9
$PELEVATION
 40
0.0
  9
$THICKNESS
 40
0.0
  9
$LIMCHECK
 70
     0
  9
$BLIPMODE
 70
     0
  9
$CHAMFERA
 40
0.0
  9
$CHAMFERB
 40
0.0
  9
$SKPOLY
 70
     0
  9
$TDCREATE
 40
2451948.4329837961
  9
$TDUPDATE
 40
2451982.5822680551
  9
$TDINDWG
 40
0.0162184028
  9
$TDUSRTIMER
 40
0.0162184028
  9
$USRTIMER
 70
     1
  9
$ANGBASE
 50
0.0
  9
$ANGDIR
 70
     0
  9
$PDMODE
 70
     0
  9
$PDSIZE
 40
0.0
  9
$PLINEWID
 40
0.0
  9
$COORDS
 70
     0
  9
$SPLFRAME
 70
     0
  9
$SPLINETYPE
 70
     6
  9
$SPLINESEGS
 70
     8
  9
$ATTDIA
 70
     0
  9
$ATTREQ
 70
     1
  9
$HANDLING
 70
  4097
  9
$HANDSEED
  5
A6
  9
$SURFTAB1
 70
     6
  9
$SURFTAB2
 70
     6
  9
$SURFTYPE
 70
     6
  9
$SURFU
 70
     6
  9
$SURFV
 70
     6
  9
$UCSNAME
  2

  9
$UCSORG
 10
0.0
 20
0.0
 30
0.0
  9
$UCSXDIR
 10
1.0
 20
0.0
 30
0.0
  9
$UCSYDIR
 10
0.0
 20
1.0
 30
0.0
  9
$PUCSNAME
  2

  9
$PUCSORG
 10
0.0
 20
0.0
 30
0.0
  9
$PUCSXDIR
 10
1.0
 20
0.0
 30
0.0
  9
$PUCSYDIR
 10
0.0
 20
1.0
 30
0.0
  9
$USERI1
 70
     0
  9
$USERI2
 70
     0
  9
$USERI3
 70
     0
  9
$USERI4
 70
     0
  9
$USERI5
 70
     0
  9
$USERR1
 40
0.0
  9
$USERR2
 40
0.0
  9
$USERR3
 40
0.0
  9
$USERR4
 40
0.0
  9
$USERR5
 40
0.0
  9
$WORLDVIEW
 70
     1
  9
$SHADEDGE
 70
     3
  9
$SHADEDIF
 70
    70
  9
$TILEMODE
 70
     1
  9
$MAXACTVP
 70
    48
  9
$PLIMCHECK
 70
     0
  9
$PEXTMIN
 10
1.0000000000000000E+020
 20
1.0000000000000000E+020
 30
1.0000000000000000E+020
  9
$PEXTMAX
 10
-1.0000000000000000E+020
 20
-1.0000000000000000E+020
 30
-1.0000000000000000E+020
  9
$PLIMMIN
 10
0.0
 20
0.0
  9
$PLIMMAX
 10
12.0
 20
9.0
  9
$UNITMODE
 70
     0
  9
$VISRETAIN
 70
     1
  9
$PLINEGEN
 70
     0
  9
$PSLTSCALE
 70
     1
  0
ENDSEC
  0
SECTION
  2
TABLES
  0
TABLE
  2
VPORT
 70
     2
  0
VPORT
  2
*ACTIVE
 70
     0
 10
0.0
 20
0.0
 11
1.0
 21
1.0
 12
1.4009713677904421
 22
2.021476394186378
 13
0.0
 23
0.0
 14
1.0
 24
1.0
 15
0.0
 25
0.0
 16
0.0
 26
0.0
 36
1.0
 17
0.0
 27
0.0
 37
0.0
 40
1.905150050111001
 41
1.878980891719745
 42
50.0
 43
0.0
 44
0.0
 50
0.0
 51
0.0
 71
     0
 72
   100
 73
     1
 74
     0
 75
     0
 76
     0
 77
     0
 78
     0
  0
ENDTAB
  0
TABLE
  2
LTYPE
 70
     1
  0
LTYPE
  2
CONTINUOUS
 70
     0
  3
Solid line
 72
    65
 73
     0
 40
0.0
  0
ENDTAB
  0
TABLE
  2
LAYER
 70
     1
  0
LAYER
  2
0
 70
     0
 62
     1
  6
CONTINUOUS
  0
ENDTAB
  0
TABLE
  2
STYLE
 70
     1
  0
STYLE
  2
STANDARD
 70
     0
 40
0.0
 41
1.0
 50
0.0
 71
     0
 42
0.2
  3
txt
  4

  0
ENDTAB
  0
TABLE
  2
VIEW
 70
     0
  0
ENDTAB
  0
TABLE
  2
UCS
 70
     0
  0
ENDTAB
  0
TABLE
  2
APPID
 70
     1
  0
APPID
  2
ACAD
 70
     0
  0
ENDTAB
  0
TABLE
  2
DIMSTYLE
 70
     1
  0
DIMSTYLE
  2
STANDARD
 70
     0
  3

  4

  5

  6

  7

 40
1.0
 41
0.18
 42
0.0625
 43
0.38
 44
0.18
 45
0.0
 46
0.0
 47
0.0
 48
0.0
140
0.18
141
0.09
142
0.0
143
25.399999999999999
144
1.0
145
0.0
146
1.0
147
0.09
 71
     0
 72
     0
 73
     1
 74
     1
 75
     0
 76
     0
 77
     0
 78
     0
170
     0
171
     2
172
     0
173
     0
174
     0
175
     0
176
     0
177
     0
178
     0
  0
ENDTAB
  0
ENDSEC
  0
SECTION
  2
BLOCKS
  0
BLOCK
  8
0
  2
$MODEL_SPACE
 70
     0
 10
0.0
 20
0.0
 30
0.0
  3
$MODEL_SPACE
  1

  0
ENDBLK
  5
9
  8
0
  0
BLOCK
 67
     1
  8
0
  2
$PAPER_SPACE
 70
     0
 10
0.0
 20
0.0
 30
0.0
  3
$PAPER_SPACE
  1

  0
ENDBLK
  5
E
 67
     1
  8
0
  0
ENDSEC
  0
SECTION
  2
ENTITIES
  0
LINE
  5
24
  8
0
 10
1.3253408813951919
 20
1.773752583788895
 30
0.0
 11
1.4847524241251919
 21
1.773752583788895
 31
0.0
  0
LINE
  5
25
  8
0
 10
1.5063992629051921
 20
1.9112555721888951
 30
0.0
 11
1.243399262905192
 21
2.1182555721888949
 31
0.0
  0
LINE
  5
26
  8
0
 10
1.4847524241251919
 20
1.7787525837888949
 30
0.0
 11
1.3253408813951919
 21
1.7787525837888949
 31
0.0
  0
LINE
  5
27
  8
0
 10
1.2403068573651921
 20
2.1143265738488952
 30
0.0
 11
1.503306857365192
 21
1.9073265738488949
 31
0.0
  0
LINE
  5
29
  8
0
 10
1.429752424125192
 20
1.898752583788895
 30
0.0
 11
1.429752424125192
 21
1.8537525837888951
 31
0.0
  0
LINE
  5
2A
  8
0
 10
1.4347524241251921
 20
1.8537525837888951
 30
0.0
 11
1.4347524241251921
 21
1.898752583788895
 31
0.0
  0
ARC
  5
2B
  8
0
 10
1.300752424125192
 20
1.779752583788895
 30
0.0
 40
0.036
 50
90.0
 51
180.0
  0
ARC
  5
2C
  8
0
 10
1.304752424125192
 20
1.7187525837888951
 30
0.0
 40
0.01
 50
180.0
 51
270.0
  0
LINE
  5
2D
  8
0
 10
1.199752424125192
 20
1.678752583788895
 30
0.0
 11
1.3597524241251919
 21
1.678752583788895
 31
0.0
  0
LINE
  5
2E
  8
0
 10
1.4047524241251921
 20
1.8287525837888949
 30
0.0
 11
1.2514844749351921
 21
1.8287525837888949
 31
0.0
  0
LINE
  5
2F
  8
0
 10
1.2514844749351921
 20
1.823752583788895
 30
0.0
 11
1.4047524241251921
 21
1.823752583788895
 31
0.0
  0
ARC
  5
30
  8
0
 10
1.199752424125192
 20
1.6937525837888949
 30
0.0
 40
0.015
 50
90.0
 51
270.0
  0
LINE
  5
31
  8
0
 10
1.2547524241251919
 20
1.7087525837888951
 30
0.0
 11
1.199752424125192
 21
1.7087525837888951
 31
0.0
  0
LINE
  5
32
  8
0
 10
1.199752424125192
 20
1.7137525837888949
 30
0.0
 11
1.2547524241251919
 21
1.7137525837888949
 31
0.0
  0
LINE
  5
33
  8
0
 10
1.199752424125192
 20
1.7137525837888949
 30
0.0
 11
1.199752424125192
 21
1.7087525837888951
 31
0.0
  0
ARC
  5
34
  8
0
 10
1.2514844749351921
 20
1.8187525837888949
 30
0.0
 40
0.01
 50
90.0
 51
180.0
  0
ARC
  5
35
  8
0
 10
1.2514844749351921
 20
1.8187525837888949
 30
0.0
 40
0.005
 50
90.0
 51
180.0
  0
ARC
  5
36
  8
0
 10
1.2497524241251921
 20
1.7367525837888951
 30
0.0
 40
0.015
 50
0.0
 51
30.0
  0
LINE
  5
37
  8
0
 10
1.264752424125192
 20
1.779752583788895
 30
0.0
 11
1.264752424125192
 21
1.7187525837888951
 31
0.0
  0
ARC
  5
38
  8
0
 10
1.2514844749351921
 20
1.773752583788895
 30
0.0
 40
0.005
 50
180.0
 51
210.0
  0
ARC
  5
39
  8
0
 10
1.2514844749351921
 20
1.773752583788895
 30
0.0
 40
0.01
 50
180.0
 51
210.0
  0
ARC
  5
3A
  8
0
 10
1.2497524241251921
 20
1.7367525837888951
 30
0.0
 40
0.01
 50
0.0
 51
30.0
  0
LINE
  5
3B
  8
0
 10
1.2597524241251921
 20
1.7367525837888951
 30
0.0
 11
1.2597524241251921
 21
1.7187525837888951
 31
0.0
  0
LINE
  5
3C
  8
0
 10
1.2428242208951921
 20
1.7687525837888951
 30
0.0
 11
1.2584126781651921
 21
1.741752583788895
 31
0.0
  0
LINE
  5
3D
  8
0
 10
1.2627428051851921
 20
1.7442525837888949
 30
0.0
 11
1.2471543479151921
 21
1.7712525837888951
 31
0.0
  0
LINE
  5
3E
  8
0
 10
1.2414844749351921
 20
1.8187525837888949
 30
0.0
 11
1.2414844749351921
 21
1.773752583788895
 31
0.0
  0
LINE
  5
3F
  8
0
 10
1.246484474935192
 20
1.773752583788895
 30
0.0
 11
1.246484474935192
 21
1.8187525837888949
 31
0.0
  0
ARC
  5
40
  8
0
 10
1.2547524241251919
 20
1.7187525837888951
 30
0.0
 40
0.005
 50
270.0
 51
0.0
  0
ARC
  5
41
  8
0
 10
1.2547524241251919
 20
1.7187525837888951
 30
0.0
 40
0.01
 50
270.0
 51
0.0
  0
ARC
  5
42
  8
0
 10
1.3597524241251919
 20
1.6937525837888949
 30
0.0
 40
0.015
 50
270.0
 51
90.0
  0
ARC
  5
43
  8
0
 10
1.3597524241251919
 20
1.8007525837888949
 30
0.0
 40
0.015
 50
270.0
 51
90.0
  0
ARC
  5
44
  8
0
 10
1.300752424125192
 20
1.779752583788895
 30
0.0
 40
0.006
 50
90.0
 51
180.0
  0
ARC
  5
45
  8
0
 10
1.3097524241251921
 20
1.7367525837888951
 30
0.0
 40
0.01
 50
150.0
 51
180.0
  0
ARC
  5
46
  8
0
 10
1.3097524241251921
 20
1.7367525837888951
 30
0.0
 40
0.015
 50
150.0
 51
180.0
  0
LINE
  5
47
  8
0
 10
1.2997524241251921
 20
1.7187525837888951
 30
0.0
 11
1.294752424125192
 21
1.7187525837888951
 31
0.0
  0
LINE
  5
48
  8
0
 10
1.2997524241251921
 20
1.7187525837888951
 30
0.0
 11
1.2997524241251921
 21
1.7367525837888951
 31
0.0
  0
LINE
  5
49
  8
0
 10
1.3010921700851921
 20
1.741752583788895
 30
0.0
 11
1.3166806273551921
 21
1.7687525837888951
 31
0.0
  0
LINE
  5
4A
  8
0
 10
1.3123505003351921
 20
1.7712525837888951
 30
0.0
 11
1.2967620430751921
 21
1.7442525837888949
 31
0.0
  0
LINE
  5
4B
  8
0
 10
1.294752424125192
 20
1.7187525837888951
 30
0.0
 11
1.294752424125192
 21
1.779752583788895
 31
0.0
  0
ARC
  5
4C
  8
0
 10
1.3253408813951919
 20
1.763752583788895
 30
0.0
 40
0.01
 50
90.0
 51
150.0
  0
ARC
  5
4D
  8
0
 10
1.3253408813951919
 20
1.763752583788895
 30
0.0
 40
0.015
 50
90.0
 51
150.0
  0
LINE
  5
4E
  8
0
 10
1.3597524241251919
 20
1.7087525837888951
 30
0.0
 11
1.304752424125192
 21
1.7087525837888951
 31
0.0
  0
LINE
  5
4F
  8
0
 10
1.3597524241251919
 20
1.815752583788895
 30
0.0
 11
1.300752424125192
 21
1.815752583788895
 31
0.0
  0
LINE
  5
50
  8
0
 10
1.300752424125192
 20
1.785752583788895
 30
0.0
 11
1.3597524241251919
 21
1.785752583788895
 31
0.0
  0
ARC
  5
51
  8
0
 10
1.4047524241251921
 20
1.8537525837888951
 30
0.0
 40
0.025
 50
270.0
 51
0.0
  0
ARC
  5
52
  8
0
 10
1.4047524241251921
 20
1.8537525837888951
 30
0.0
 40
0.03
 50
270.0
 51
0.0
  0
LINE
  5
53
  8
0
 10
1.2025361909851919
 20
2.0614996115688951
 30
0.0
 11
1.4184783049451919
 21
1.919647563948895
 31
0.0
  0
LINE
  5
54
  8
0
 10
1.421223481115192
 20
1.9238265599788951
 30
0.0
 11
1.2052813671451921
 21
2.0656786076088949
 31
0.0
  0
ARC
  5
55
  8
0
 10
1.221752424125192
 20
2.0907525837888952
 30
0.0
 40
0.035
 50
51.794698428499998
 51
236.69914894469991
  0
ARC
  5
56
  8
0
 10
1.221752424125192
 20
2.0907525837888952
 30
0.0
 40
0.03
 50
51.794698428499998
 51
236.69914894469991
  0
ARC
  5
57
  8
0
 10
1.4047524241251921
 20
1.898752583788895
 30
0.0
 40
0.025
 50
0.0
 51
56.699148944699999
  0
ARC
  5
58
  8
0
 10
1.4047524241251921
 20
1.898752583788895
 30
0.0
 40
0.03
 50
0.0
 51
56.699148944699999
  0
LINE
  5
59
  8
0
 10
1.5197524241251921
 20
1.8087525837888949
 30
0.0
 11
1.5197524241251921
 21
1.8837525837888951
 31
0.0
  0
LINE
  5
5A
  8
0
 10
1.514752424125192
 20
1.8837525837888951
 30
0.0
 11
1.514752424125192
 21
1.8087525837888949
 31
0.0
  0
ARC
  5
5B
  8
0
 10
1.4847524241251919
 20
1.8087525837888949
 30
0.0
 40
0.035
 50
270.0
 51
0.0
  0
ARC
  5
5C
  8
0
 10
1.4847524241251919
 20
1.8087525837888949
 30
0.0
 40
0.03
 50
270.0
 51
0.0
  0
ARC
  5
5D
  8
0
 10
1.4847524241251919
 20
1.8837525837888951
 30
0.0
 40
0.035
 50
0.0
 51
51.794698428499998
  0
ARC
  5
5E
  8
0
 10
1.4847524241251919
 20
1.8837525837888951
 30
0.0
 40
0.03
 50
0.0
 51
51.794698428499998
  0
ENDSEC
  0
EOF
