  0
SECTION
  2
HEADER
  9
$ACADVER
  1
AC1009
  9
$INSBASE
 10
0.0
 20
0.0
 30
0.0
  9
$EXTMIN
 10
-0.3510630625581532
 20
-0.1627531840594041
 30
-0.0015258207003583
  9
$EXTMAX
 10
-0.0508354596308109
 20
0.367406638851083
 30
0.0000000349246037
  9
$LIMMIN
 10
0.0
 20
0.0
  9
$LIMMAX
 10
1.1999999999999991
 20
1.0
  9
$ORTHOMODE
 70
     0
  9
$REGENMODE
 70
     1
  9
$FILLMODE
 70
     1
  9
$QTEXTMODE
 70
     0
  9
$MIRRTEXT
 70
     1
  9
$DRAGMODE
 70
     2
  9
$LTSCALE
 40
1.0
  9
$OSMODE
 70
    49
  9
$ATTMODE
 70
     1
  9
$TEXTSIZE
 40
0.125
  9
$TRACEWID
 40
0.05
  9
$TEXTSTYLE
  7
STANDARD
  9
$CLAYER
  8
DIM
  9
$CELTYPE
  6
BYLAYER
  9
$CECOLOR
 62
     1
  9
$DIMSCALE
 40
0.0
  9
$DIMASZ
 40
0.125
  9
$DIMEXO
 40
0.05
  9
$DIMDLI
 40
0.02
  9
$DIMRND
 40
0.0
  9
$DIMDLE
 40
0.0
  9
$DIMEXE
 40
0.05
  9
$DIMTP
 40
0.005
  9
$DIMTM
 40
0.005
  9
$DIMTXT
 40
0.125
  9
$DIMCEN
 40
0.02
  9
$DIMTSZ
 40
0.0
  9
$DIMTOL
 70
     0
  9
$DIMLIM
 70
     0
  9
$DIMTIH
 70
     1
  9
$DIMTOH
 70
     1
  9
$DIMSE1
 70
     0
  9
$DIMSE2
 70
     0
  9
$DIMTAD
 70
     0
  9
$DIMZIN
 70
     4
  9
$DIMBLK
  1

  9
$DIMASO
 70
     1
  9
$DIMSHO
 70
     1
  9
$DIMPOST
  1

  9
$DIMAPOST
  1

  9
$DIMALT
 70
     0
  9
$DIMALTD
 70
     1
  9
$DIMALTF
 40
25.399999999999999
  9
$DIMLFAC
 40
1.0
  9
$DIMTOFL
 70
     0
  9
$DIMTVP
 40
0.0
  9
$DIMTIX
 70
     0
  9
$DIMSOXD
 70
     0
  9
$DIMSAH
 70
     0
  9
$DIMBLK1
  1

  9
$DIMBLK2
  1

  9
$DIMSTYLE
  2
SCOTTG
  9
$DIMCLRD
 70
   256
  9
$DIMCLRE
 70
   256
  9
$DIMCLRT
 70
   256
  9
$DIMTFAC
 40
1.0
  9
$DIMGAP
 40
0.02
  9
$LUNITS
 70
     2
  9
$LUPREC
 70
     5
  9
$SKETCHINC
 40
0.1
  9
$FILLETRAD
 40
0.01
  9
$AUNITS
 70
     0
  9
$AUPREC
 70
     0
  9
$MENU
  1
.
  9
$ELEVATION
 40
0.0
  9
$PELEVATION
 40
0.0
  9
$THICKNESS
 40
0.0
  9
$LIMCHECK
 70
     0
  9
$BLIPMODE
 70
     0
  9
$CHAMFERA
 40
0.0
  9
$CHAMFERB
 40
0.0
  9
$SKPOLY
 70
     0
  9
$TDCREATE
 40
2450919.3750775461
  9
$TDUPDATE
 40
2455804.4908172679
  9
$TDINDWG
 40
2.3986719444000002
  9
$TDUSRTIMER
 40
2.3986719444000002
  9
$USRTIMER
 70
     1
  9
$ANGBASE
 50
0.0
  9
$ANGDIR
 70
     0
  9
$PDMODE
 70
     0
  9
$PDSIZE
 40
0.0
  9
$PLINEWID
 40
0.0
  9
$COORDS
 70
     1
  9
$SPLFRAME
 70
     0
  9
$SPLINETYPE
 70
     6
  9
$SPLINESEGS
 70
     8
  9
$ATTDIA
 70
     0
  9
$ATTREQ
 70
     1
  9
$HANDLING
 70
     1
  9
$HANDSEED
  5
19F7E
  9
$SURFTAB1
 70
     6
  9
$SURFTAB2
 70
     6
  9
$SURFTYPE
 70
     6
  9
$SURFU
 70
     6
  9
$SURFV
 70
     6
  9
$UCSNAME
  2

  9
$UCSORG
 10
0.0
 20
0.0
 30
0.0
  9
$UCSXDIR
 10
1.0
 20
0.0
 30
0.0
  9
$UCSYDIR
 10
0.0
 20
1.0
 30
0.0
  9
$PUCSNAME
  2

  9
$PUCSORG
 10
0.0
 20
0.0
 30
0.0
  9
$PUCSXDIR
 10
1.0
 20
0.0
 30
0.0
  9
$PUCSYDIR
 10
0.0
 20
1.0
 30
0.0
  9
$USERI1
 70
     0
  9
$USERI2
 70
     0
  9
$USERI3
 70
     0
  9
$USERI4
 70
     0
  9
$USERI5
 70
     0
  9
$USERR1
 40
0.0
  9
$USERR2
 40
0.0
  9
$USERR3
 40
0.0
  9
$USERR4
 40
0.0
  9
$USERR5
 40
0.0
  9
$WORLDVIEW
 70
     1
  9
$SHADEDGE
 70
     3
  9
$SHADEDIF
 70
    70
  9
$TILEMODE
 70
     1
  9
$MAXACTVP
 70
    48
  9
$PLIMCHECK
 70
     0
  9
$PEXTMIN
 10
1.0000000000000000E+020
 20
1.0000000000000000E+020
 30
1.0000000000000000E+020
  9
$PEXTMAX
 10
-1.0000000000000000E+020
 20
-1.0000000000000000E+020
 30
-1.0000000000000000E+020
  9
$PLIMMIN
 10
0.0000001811605737
 20
-0.0000001192092895
  9
$PLIMMAX
 10
8.4999999408646811
 20
10.999999640494821
  9
$UNITMODE
 70
     0
  9
$VISRETAIN
 70
     1
  9
$PLINEGEN
 70
     0
  9
$PSLTSCALE
 70
     1
  0
ENDSEC
  0
SECTION
  2
TABLES
  0
TABLE
  2
VPORT
 70
     1
  0
VPORT
  2
*ACTIVE
 70
     0
 10
0.0
 20
0.0
 11
1.0
 21
1.0
 12
-19.922936307089831
 22
-0.5368511213172189
 13
0.0
 23
0.0
 14
0.5
 24
0.5
 15
0.5
 25
0.5
 16
0.0
 26
0.0
 36
5.6148375865943736
 17
19.721987045995348
 27
0.6391778487130584
 37
0.0
 40
0.5336362807656379
 41
2.067833698030634
 42
50.0
 43
0.0
 44
0.0
 50
0.0
 51
0.0
 71
     0
 72
 20000
 73
     1
 74
     0
 75
     0
 76
     0
 77
     0
 78
     0
  0
ENDTAB
  0
TABLE
  2
LTYPE
 70
     1
  0
LTYPE
  2
CONTINUOUS
 70
     0
  3
Solid line
 72
    65
 73
     0
 40
0.0
  0
ENDTAB
  0
TABLE
  2
LAYER
 70
     6
  0
LAYER
  2
0
 70
     0
 62
     7
  6
CONTINUOUS
  0
LAYER
  2
DEFPOINTS
 70
     0
 62
     7
  6
CONTINUOUS
  0
LAYER
  2
HATCH
 70
     0
 62
     7
  6
CONTINUOUS
  0
LAYER
  2
PART
 70
     0
 62
     7
  6
CONTINUOUS
  0
LAYER
  2
DIM
 70
     0
 62
     7
  6
CONTINUOUS
  0
ENDTAB
  0
TABLE
  2
STYLE
 70
     3
  0
STYLE
  2
STANDARD
 70
     0
 40
0.0
 41
1.0
 50
0.0
 71
     0
 42
0.125
  3
txt
  4

  0
STYLE
  2
ROMANS
 70
     0
 40
0.0
 41
1.0
 50
0.0
 71
     0
 42
0.1
  3
SIMPLEX.shx
  4

  0
ENDTAB
  0
TABLE
  2
VIEW
 70
     0
  0
ENDTAB
  0
TABLE
  2
UCS
 70
     0
  0
ENDTAB
  0
TABLE
  2
APPID
 70
    17
  0
APPID
  2
ACAD
 70
     0
  0
APPID
  2
ADP_SK
 70
     0
  0
APPID
  2
ADP_SOL
 70
     0
  0
APPID
  2
ACIS_LNK
 70
     0
  0
APPID
  2
AME_SOL
 70
     0
  0
APPID
  2
ACAD_MLEADERVER
 70
     0
  0
APPID
  2
ACAD_EXEMPT_FROM_CAD_STANDARDS
 70
     0
  0
APPID
  2
ACAD_PSEXT
 70
     0
  0
APPID
  2
ACDBDYNAMICBLOCKGUID
 70
     0
  0
APPID
  2
ACDBBLOCKREPETAG
 70
     0
  0
APPID
  2
ACDBDYNAMICBLOCKTRUENAME
 70
     0
  0
APPID
  2
ACAD_DSTYLE_DIMJAG
 70
     0
  0
APPID
  2
ACAD_DSTYLE_DIMTALN
 70
     0
  0
APPID
  2
ACAECLAYERSTANDARD
 70
     0
  0
APPID
  2
ACAUTHENVIRON
 70
     0
  0
APPID
  2
ACADANNOPO
 70
     0
  0
APPID
  2
ACADSTRINGINFO
 70
     0
  0
ENDTAB
  0
TABLE
  2
DIMSTYLE
 70
     2
  0
DIMSTYLE
  2
SCOTTG
 70
     0
  3

  4

  5

  6

  7

 40
0.15
 41
0.125
 42
0.1
 43
0.25
 44
0.1
 45
0.0
 46
0.0
 47
0.01
 48
0.01
140
0.125
141
0.06
142
0.0
143
25.399999999999999
144
1.0
145
0.0
146
1.0
147
0.09
 71
     1
 72
     0
 73
     1
 74
     1
 75
     0
 76
     0
 77
     0
 78
     4
170
     0
171
     1
172
     0
173
     0
174
     1
175
     0
176
   256
177
   256
178
   256
  0
ENDTAB
  0
ENDSEC
  0
SECTION
  2
BLOCKS
  0
BLOCK
  8
0
  2
$MODEL_SPACE
 70
     0
 10
0.0
 20
0.0
 30
0.0
  3
$MODEL_SPACE
  1

  0
ENDBLK
  5
1A
  8
0
  0
BLOCK
 67
     1
  8
0
  2
$PAPER_SPACE
 70
     0
 10
0.0
 20
0.0
 30
0.0
  3
$PAPER_SPACE
  1

  0
ENDBLK
  5
B932
 67
     1
  8
0
  0
BLOCK
  8
0
 62
     1
  2
*X21
 70
     1
 10
0.0
 20
0.0
 30
0.0
  3
*X21
  1

  0
LINE
  5
19E79
  8
0
 62
     0
 10
0.1514258141784395
 20
0.0000679232303855
 30
0.0
 11
0.1649320476342959
 21
0.0135741566862415
 31
0.0
  0
LINE
  5
19E7A
  8
0
 62
     0
 10
0.1349999692082671
 20
0.0278362520843727
 30
0.0
 11
0.1649999692082682
 21
0.0578362520843738
 31
0.0
  0
LINE
  5
19E7B
  8
0
 62
     0
 10
0.1349999692082671
 20
0.0720304259085314
 30
0.0
 11
0.1649999692082682
 21
0.1020304259085321
 31
0.0
  0
LINE
  5
19E7C
  8
0
 62
     0
 10
0.1349999692082675
 20
0.1162245997326914
 30
0.0
 11
0.1649999692082686
 21
0.1462245997326921
 31
0.0
  0
LINE
  5
19E7D
  8
0
 62
     0
 10
0.1349999692082666
 20
0.1604187735568496
 30
0.0
 11
0.1649999692082678
 21
0.1904187735568508
 31
0.0
  0
LINE
  5
19E7E
  8
0
 62
     0
 10
0.1349999692082675
 20
0.2046129473810097
 30
0.0
 11
0.1580462825861795
 21
0.2276592607589216
 31
0.0
  0
ENDBLK
  5
19E80
  8
0
 62
     1
  0
BLOCK
  8
0
 62
     1
  2
*X22
 70
     1
 10
0.0
 20
0.0
 30
0.0
  3
*X22
  1

  0
LINE
  5
19EAA
  8
0
 62
     0
 10
0.2756309381745683
 20
0.4524006897511308
 30
0.0
 11
0.2714375469481884
 21
0.4680506388639936
 31
0.0
  0
LINE
  5
19EAB
  8
0
 62
     0
 10
0.2991933151088761
 20
0.364464701885205
 30
0.0
 11
0.2949999238824965
 21
0.3801146509980668
 31
0.0
  0
LINE
  5
19EAC
  8
0
 62
     0
 10
0.255410850175994
 20
0.4795667941808688
 30
0.0
 11
0.2528273120282207
 21
0.489208689811651
 31
0.0
  0
LINE
  5
19EAD
  8
0
 62
     0
 10
0.2936554043716169
 20
0.3368361748099824
 30
0.0
 11
0.2910718662238436
 21
0.3464780704407646
 31
0.0
  0
LINE
  5
19EAE
  8
0
 62
     0
 10
0.2383389893270251
 20
0.4949835549345148
 30
0.0
 11
0.2362687439482765
 21
0.5027098158721391
 31
0.0
  0
LINE
  5
19EAF
  8
0
 62
     0
 10
0.286065826794335
 20
0.3168645726219319
 30
0.0
 11
0.2839955814155866
 21
0.3245908335595562
 31
0.0
  0
LINE
  5
19EB0
  8
0
 62
     0
 10
0.2225714921324187
 20
0.5055323642585324
 30
0.0
 11
0.2207699373396073
 21
0.512255858277924
 31
0.0
  0
LINE
  5
19EB1
  8
0
 62
     0
 10
0.2774164877457772
 20
0.3008480540885854
 30
0.0
 11
0.2756149329529658
 21
0.307571548107977
 31
0.0
  0
LINE
  5
19EB2
  8
0
 62
     0
 10
0.2076127003495887
 20
0.513063043897443
 30
0.0
 11
0.2059781194214658
 21
0.5191633829702811
 31
0.0
  0
LINE
  5
19EB3
  8
0
 62
     0
 10
0.2680601600066916
 20
0.287470053268664
 30
0.0
 11
0.2664255790785688
 21
0.2935703923415014
 31
0.0
  0
LINE
  5
19EB4
  8
0
 62
     0
 10
0.1932410897214653
 20
0.5184023336337438
 30
0.0
 11
0.1917193474391625
 21
0.5240815531473242
 31
0.0
  0
LINE
  5
19EB5
  8
0
 62
     0
 10
0.2581707863317688
 20
0.2760814069640585
 30
0.0
 11
0.2566490440494662
 21
0.281760626477638
 31
0.0
  0
LINE
  5
19EB6
  8
0
 62
     0
 10
0.1793357569282017
 20
0.5220014507999045
 30
0.0
 11
0.1778935957261618
 21
0.5273836696786223
 31
0.0
  0
LINE
  5
19EB7
  8
0
 62
     0
 10
0.2478483923875427
 20
0.2663088143051979
 30
0.0
 11
0.2464062311855029
 21
0.2716910331839157
 31
0.0
  0
LINE
  5
19EB8
  8
0
 62
     0
 10
0.1658233803741089
 20
0.5241340353163279
 30
0.0
 11
0.1644382245438902
 21
0.5293035072511039
 31
0.0
  0
LINE
  5
19EB9
  8
0
 62
     0
 10
0.2371556179125873
 20
0.2579185006051539
 30
0.0
 11
0.2357704620823686
 21
0.26308797253993
 31
0.0
  0
LINE
  5
19EBA
  8
0
 62
     0
 10
0.1526569162777815
 20
0.5249756569653999
 30
0.0
 11
0.1513121851533472
 21
0.5299942618443075
 31
0.0
  0
LINE
  5
19EBB
  8
0
 62
     0
 10
0.2261335116459042
 20
0.2507572698843852
 30
0.0
 11
0.2247887805214699
 21
0.2557758747632937
 31
0.0
  0
LINE
  5
19EBC
  8
0
 62
     0
 10
0.1398055831319633
 20
0.5246411938961338
 30
0.0
 11
0.1384882318928913
 21
0.5295576156517639
 31
0.0
  0
LINE
  5
19EBD
  8
0
 62
     0
 10
0.2150792372328432
 20
0.2437160923202839
 30
0.0
 11
0.2134919680100611
 21
0.2496398617049973
 31
0.0
  0
LINE
  5
19EBE
  8
0
 62
     0
 10
0.1272496887742109
 20
0.5232041382592794
 30
0.0
 11
0.1259487667351717
 21
0.5280592454056592
 31
0.0
  0
LINE
  5
19EBF
  8
0
 62
     0
 10
0.2040404847795485
 20
0.2366169860137015
 30
0.0
 11
0.2018997167105865
 21
0.2446064412142892
 31
0.0
  0
LINE
  5
19EC0
  8
0
 62
     0
 10
0.1149778504899297
 20
0.5207069709240324
 30
0.0
 11
0.1136835558303317
 21
0.5255373443536167
 31
0.0
  0
LINE
  5
19EC1
  8
0
 62
     0
 10
0.1930017323262543
 20
0.2295178797071182
 30
0.0
 11
0.1900234093376416
 21
0.240633132421971
 31
0.0
  0
LINE
  5
19EC2
  8
0
 62
     0
 10
0.1029855668071544
 20
0.5171664916124757
 30
0.0
 11
0.101688539354426
 21
0.5220070639648693
 31
0.0
  0
LINE
  5
19EC3
  8
0
 62
     0
 10
0.1821336364644261
 20
0.221781874330536
 30
0.0
 11
0.1778675473631899
 21
0.2377031356059662
 31
0.0
  0
LINE
  5
19EC4
  8
0
 62
     0
 10
0.0912746876709037
 20
0.512575796235808
 30
0.0
 11
0.0899653866278478
 21
0.5174621742508956
 31
0.0
  0
LINE
  5
19EC5
  8
0
 62
     0
 10
0.1749999692082664
 20
0.2001087916603605
 30
0.0
 11
0.1654302808422134
 21
0.2358233548550714
 31
0.0
  0
LINE
  5
19EC6
  8
0
 62
     0
 10
0.1542113517655195
 20
0.2293966768613531
 30
0.0
 11
0.1527031930420759
 21
0.2350252018431229
 31
0.0
  0
LINE
  5
19EC7
  8
0
 62
     0
 10
0.0798536298138151
 20
0.5069034731201941
 30
0.0
 11
0.0785216771895863
 21
0.5118743879870902
 31
0.0
  0
LINE
  5
19EC8
  8
0
 62
     0
 10
0.1690734715101856
 20
0.1739304908660868
 30
0.0
 11
0.1649999692082686
 21
0.1891330084215896
 31
0.0
  0
LINE
  5
19EC9
  8
0
 62
     0
 10
0.0687383985868591
 20
0.5000897894826153
 30
0.0
 11
0.0673717556641469
 21
0.5051901703059816
 31
0.0
  0
LINE
  5
19ECA
  8
0
 62
     0
 10
0.1417680636743421
 20
0.2275393689163891
 30
0.0
 11
0.1396702786118049
 21
0.2353684093531374
 31
0.0
  0
LINE
  5
19ECB
  8
0
 62
     0
 10
0.0579547254583717
 20
0.4920387141758927
 30
0.0
 11
0.0565384995831602
 21
0.4973241410971756
 31
0.0
  0
LINE
  5
19ECC
  8
0
 62
     0
 10
0.1349999692082675
 20
0.2045019500197513
 30
0.0
 11
0.1263058060830655
 21
0.2369490085322976
 31
0.0
  0
LINE
  5
19ECD
  8
0
 62
     0
 10
0.1172713626206345
 20
0.2223697192377463
 30
0.0
 11
0.1125703234034099
 21
0.239914236444803
 31
0.0
  0
LINE
  5
19ECE
  8
0
 62
     0
 10
0.0475420624808012
 20
0.4826030101358248
 30
0.0
 11
0.0460565614093418
 21
0.4881469756092081
 31
0.0
  0
LINE
  5
19ECF
  8
0
 62
     0
 10
0.1297003816380342
 20
0.1759839887765713
 30
0.0
 11
0.1249999692082684
 21
0.1935261667809858
 31
0.0
  0
LINE
  5
19ED0
  8
0
 62
     0
 10
0.0375611360233956
 20
0.4715560434670154
 30
0.0
 11
0.035978330686006
 21
0.4774631534046448
 31
0.0
  0
LINE
  5
19ED1
  8
0
 62
     0
 10
0.1014608721657346
 20
0.233078981593561
 30
0.0
 11
0.0984031042035882
 21
0.2444907269860472
 31
0.0
  0
LINE
  5
19ED2
  8
0
 62
     0
 10
0.0281093002680364
 20
0.4585344834163588
 30
0.0
 11
0.0263855710944341
 21
0.4649675282707309
 31
0.0
  0
LINE
  5
19ED3
  8
0
 62
     0
 10
0.0858256567947193
 20
0.2431341084310175
 30
0.0
 11
0.0837067943017205
 21
0.2510418109091415
 31
0.0
  0
LINE
  5
19ED4
  8
0
 62
     0
 10
0.0193560074707457
 20
0.4429059255549222
 30
0.0
 11
0.0174147176072705
 21
0.4501509179576307
 31
0.0
  0
LINE
  5
19ED5
  8
0
 62
     0
 10
0.0702532313052604
 20
0.252954900240308
 30
0.0
 11
0.068311941441785
 21
0.2601998926430156
 31
0.0
  0
LINE
  5
19ED6
  8
0
 62
     0
 10
0.0116442890562354
 20
0.4233901591770844
 30
0.0
 11
0.009322340845956
 21
0.4320557878703913
 31
0.0
  0
LINE
  5
19ED7
  8
0
 62
     0
 10
0.0541974624093478
 20
0.2645795541999831
 30
0.0
 11
0.0518755141990683
 21
0.2732451828932891
 31
0.0
  0
LINE
  5
19ED8
  8
0
 62
     0
 10
0.0059318715559837
 20
0.3964129002076158
 30
0.0
 11
0.0027159258955816
 21
0.4084149728066171
 31
0.0
  0
LINE
  5
19ED9
  8
0
 62
     0
 10
0.0366557317024952
 20
0.2817498931361948
 30
0.0
 11
0.0334397860420932
 21
0.2937519657351952
 31
0.0
  0
LINE
  5
19EDA
  8
0
 62
     0
 10
0.0147935067746874
 20
0.3150445360188199
 30
0.0
 11
0.0004300051661632
 21
0.3686498537964296
 31
0.0
  0
ENDBLK
  5
19EDC
  8
0
 62
     1
  0
BLOCK
  8
0
 62
     1
  2
*X23
 70
     1
 10
0.0
 20
0.0
 30
0.0
  3
*X23
  1

  0
LINE
  5
19EDE
  8
0
 62
     0
 10
-0.1995724431896293
 20
-0.1626377651936859
 30
0.0
 11
-0.1860662097337728
 21
-0.1491315317378299
 31
0.0
  0
LINE
  5
19EDF
  8
0
 62
     0
 10
-0.2159982881598021
 20
-0.1348694363396992
 30
0.0
 11
-0.185998288159801
 21
-0.104869436339698
 31
0.0
  0
LINE
  5
19EE0
  8
0
 62
     0
 10
-0.2159982881598017
 20
-0.0906752625155401
 30
0.0
 11
-0.1859982881598006
 21
-0.0606752625155394
 31
0.0
  0
LINE
  5
19EE1
  8
0
 62
     0
 10
-0.2159982881598013
 20
-0.04648108869138
 30
0.0
 11
-0.1859982881598001
 21
-0.0164810886913793
 31
0.0
  0
LINE
  5
19EE2
  8
0
 62
     0
 10
-0.2159982881598017
 20
-0.0022869148672213
 30
0.0
 11
-0.1859982881598006
 21
0.0277130851327798
 31
0.0
  0
LINE
  5
19EE3
  8
0
 62
     0
 10
-0.2159982881598013
 20
0.0419072589569383
 30
0.0
 11
-0.1929519747818893
 21
0.0649535723348502
 31
0.0
  0
ENDBLK
  5
19EE5
  8
0
 62
     1
  0
BLOCK
  8
0
 62
     1
  2
*X24
 70
     1
 10
0.0
 20
0.0
 30
0.0
  3
*X24
  1

  0
LINE
  5
19F0F
  8
0
 62
     0
 10
-0.0753673191935005
 20
0.2896950013270594
 30
0.0
 11
-0.0795607104198803
 21
0.3053449504399222
 31
0.0
  0
LINE
  5
19F10
  8
0
 62
     0
 10
-0.0518049422591926
 20
0.2017590134611336
 30
0.0
 11
-0.0559983334855723
 21
0.2174089625739954
 31
0.0
  0
LINE
  5
19F11
  8
0
 62
     0
 10
-0.0955874071920748
 20
0.3168611057567983
 30
0.0
 11
-0.0981709453398481
 21
0.3265030013875805
 31
0.0
  0
LINE
  5
19F12
  8
0
 62
     0
 10
-0.0573428529964519
 20
0.1741304863859119
 30
0.0
 11
-0.0599263911442252
 21
0.1837723820166941
 31
0.0
  0
LINE
  5
19F13
  8
0
 62
     0
 10
-0.1126592680410436
 20
0.3322778665104433
 30
0.0
 11
-0.1147295134197923
 21
0.3400041274480676
 31
0.0
  0
LINE
  5
19F14
  8
0
 62
     0
 10
-0.0649324305737338
 20
0.1541588841978605
 30
0.0
 11
-0.0670026759524822
 21
0.1618851451354848
 31
0.0
  0
LINE
  5
19F15
  8
0
 62
     0
 10
-0.1284267652356501
 20
0.3428266758344609
 30
0.0
 11
-0.1302283200284615
 21
0.3495501698538526
 31
0.0
  0
LINE
  5
19F16
  8
0
 62
     0
 10
-0.0735817696222916
 20
0.138142365664514
 30
0.0
 11
-0.075383324415103
 21
0.1448658596839056
 31
0.0
  0
LINE
  5
19F17
  8
0
 62
     0
 10
-0.1433855570184801
 20
0.3503573554733723
 30
0.0
 11
-0.145020137946603
 21
0.3564576945462106
 31
0.0
  0
LINE
  5
19F18
  8
0
 62
     0
 10
-0.0829380973613772
 20
0.1247643648445935
 30
0.0
 11
-0.0845726782895
 21
0.1308647039174309
 31
0.0
  0
LINE
  5
19F19
  8
0
 62
     0
 10
-0.1577571676466034
 20
0.3556966452096724
 30
0.0
 11
-0.1592789099289062
 21
0.3613758647232528
 31
0.0
  0
LINE
  5
19F1A
  8
0
 62
     0
 10
-0.0928274710363
 20
0.1133757185399871
 30
0.0
 11
-0.0943492133186026
 21
0.1190549380535666
 31
0.0
  0
LINE
  5
19F1B
  8
0
 62
     0
 10
-0.1716625004398671
 20
0.359295762375833
 30
0.0
 11
-0.173104661641907
 21
0.3646779812545509
 31
0.0
  0
LINE
  5
19F1C
  8
0
 62
     0
 10
-0.103149864980526
 20
0.1036031258811265
 30
0.0
 11
-0.1045920261825659
 21
0.1089853447598443
 31
0.0
  0
LINE
  5
19F1D
  8
0
 62
     0
 10
-0.1851748769939598
 20
0.3614283468922563
 30
0.0
 11
-0.1865600328241785
 21
0.3665978188270325
 31
0.0
  0
LINE
  5
19F1E
  8
0
 62
     0
 10
-0.1138426394554814
 20
0.0952128121810825
 30
0.0
 11
-0.1152277952857001
 21
0.1003822841158586
 31
0.0
  0
LINE
  5
19F1F
  8
0
 62
     0
 10
-0.1983413410902872
 20
0.3622699685413284
 30
0.0
 11
-0.1996860722147216
 21
0.367288573420236
 31
0.0
  0
LINE
  5
19F20
  8
0
 62
     0
 10
-0.1248647457221645
 20
0.0880515814603138
 30
0.0
 11
-0.1262094768465989
 21
0.0930701863392223
 31
0.0
  0
LINE
  5
19F21
  8
0
 62
     0
 10
-0.2111926742361054
 20
0.3619355054720623
 30
0.0
 11
-0.2125100254751775
 21
0.3668519272276924
 31
0.0
  0
LINE
  5
19F22
  8
0
 62
     0
 10
-0.1359190201352256
 20
0.0810104038962125
 30
0.0
 11
-0.1375062893580077
 21
0.0869341732809259
 31
0.0
  0
LINE
  5
19F23
  8
0
 62
     0
 10
-0.2237485685938578
 20
0.360498449835208
 30
0.0
 11
-0.225049490632897
 21
0.3653535569815878
 31
0.0
  0
LINE
  5
19F24
  8
0
 62
     0
 10
-0.1469577725885203
 20
0.0739112975896301
 30
0.0
 11
-0.1490985406574823
 21
0.0819007527902178
 31
0.0
  0
LINE
  5
19F25
  8
0
 62
     0
 10
-0.2360204068781391
 20
0.358001282499961
 30
0.0
 11
-0.237314701537737
 21
0.3628316559295452
 31
0.0
  0
LINE
  5
19F26
  8
0
 62
     0
 10
-0.1579965250418145
 20
0.0668121912830468
 30
0.0
 11
-0.1609748480304272
 21
0.0779274439978996
 31
0.0
  0
LINE
  5
19F27
  8
0
 62
     0
 10
-0.2480126905609143
 20
0.3544608031884042
 30
0.0
 11
-0.2493097180136428
 21
0.3593013755407979
 31
0.0
  0
LINE
  5
19F28
  8
0
 62
     0
 10
-0.1688646209036426
 20
0.0590761859064646
 30
0.0
 11
-0.1731307100048789
 21
0.0749974471818948
 31
0.0
  0
LINE
  5
19F29
  8
0
 62
     0
 10
-0.2597235696971651
 20
0.3498701078117365
 30
0.0
 11
-0.261032870740221
 21
0.3547564858268242
 31
0.0
  0
LINE
  5
19F2A
  8
0
 62
     0
 10
-0.1759982881598021
 20
0.0374031032362883
 30
0.0
 11
-0.1855679765258553
 21
0.0731176664310001
 31
0.0
  0
LINE
  5
19F2B
  8
0
 62
     0
 10
-0.1967869056025493
 20
0.0666909884372808
 30
0.0
 11
-0.1982950643259929
 21
0.0723195134190506
 31
0.0
  0
LINE
  5
19F2C
  8
0
 62
     0
 10
-0.2711446275542537
 20
0.3441977846961217
 30
0.0
 11
-0.2724765801784825
 21
0.3491686995630179
 31
0.0
  0
LINE
  5
19F2D
  8
0
 62
     0
 10
-0.1819247858578832
 20
0.0112248024420145
 30
0.0
 11
-0.1859982881597999
 21
0.0264273199975165
 31
0.0
  0
LINE
  5
19F2E
  8
0
 62
     0
 10
-0.2822598587812097
 20
0.3373841010585439
 30
0.0
 11
-0.2836265017039219
 21
0.3424844818819102
 31
0.0
  0
LINE
  5
19F2F
  8
0
 62
     0
 10
-0.2092301936937266
 20
0.0648336804923178
 30
0.0
 11
-0.2113279787562639
 21
0.072662720929066
 31
0.0
  0
LINE
  5
19F30
  8
0
 62
     0
 10
-0.2930435319096971
 20
0.3293330257518212
 30
0.0
 11
-0.2944597577849086
 21
0.3346184526731042
 31
0.0
  0
LINE
  5
19F31
  8
0
 62
     0
 10
-0.215998288159801
 20
0.0417962615956791
 30
0.0
 11
-0.2246924512850033
 21
0.0742433201082262
 31
0.0
  0
LINE
  5
19F32
  8
0
 62
     0
 10
-0.2337268947474342
 20
0.059664030813674
 30
0.0
 11
-0.2384279339646589
 21
0.0772085480207308
 31
0.0
  0
LINE
  5
19F33
  8
0
 62
     0
 10
-0.3034561948872676
 20
0.3198973217117524
 30
0.0
 11
-0.304941695958727
 21
0.3254412871851358
 31
0.0
  0
LINE
  5
19F34
  8
0
 62
     0
 10
-0.2212978757300346
 20
0.013278300352499
 30
0.0
 11
-0.2259982881598006
 21
0.0308204783569144
 31
0.0
  0
LINE
  5
19F35
  8
0
 62
     0
 10
-0.3134371213446732
 20
0.308850355042944
 30
0.0
 11
-0.3150199266820628
 21
0.3147574649805733
 31
0.0
  0
LINE
  5
19F36
  8
0
 62
     0
 10
-0.2495373852023341
 20
0.0703732931694896
 30
0.0
 11
-0.2525951531644806
 21
0.0817850385619759
 31
0.0
  0
LINE
  5
19F37
  8
0
 62
     0
 10
-0.3228889571000324
 20
0.2958287949922873
 30
0.0
 11
-0.3246126862736347
 21
0.3022618398466594
 31
0.0
  0
LINE
  5
19F38
  8
0
 62
     0
 10
-0.2651726005733495
 20
0.0804284200069461
 30
0.0
 11
-0.2672914630663483
 21
0.0883361224850701
 31
0.0
  0
LINE
  5
19F39
  8
0
 62
     0
 10
-0.331642249897323
 20
0.2802002371308507
 30
0.0
 11
-0.3335835397607982
 21
0.2874452295335592
 31
0.0
  0
LINE
  5
19F3A
  8
0
 62
     0
 10
-0.2807450260628084
 20
0.0902492118162366
 30
0.0
 11
-0.2826863159262838
 21
0.0974942042189442
 31
0.0
  0
LINE
  5
19F3B
  8
0
 62
     0
 10
-0.3393539683118334
 20
0.2606844707530129
 30
0.0
 11
-0.3416759165221128
 21
0.2693500994463198
 31
0.0
  0
LINE
  5
19F3C
  8
0
 62
     0
 10
-0.296800794958721
 20
0.1018738657759117
 30
0.0
 11
-0.2991227431690004
 21
0.1105394944692177
 31
0.0
  0
LINE
  5
19F3D
  8
0
 62
     0
 10
-0.345066385812085
 20
0.2337072117835444
 30
0.0
 11
-0.3482823314724872
 21
0.2457092843825457
 31
0.0
  0
LINE
  5
19F3E
  8
0
 62
     0
 10
-0.3143425256655736
 20
0.1190442047121234
 30
0.0
 11
-0.3175584713259756
 21
0.1310462773111238
 31
0.0
  0
LINE
  5
19F3F
  8
0
 62
     0
 10
-0.3362047505933814
 20
0.1523388475947485
 30
0.0
 11
-0.3505682522019056
 21
0.2059441653723582
 31
0.0
  0
ENDBLK
  5
19F41
  8
0
 62
     1
  0
BLOCK
  8
0
 62
     1
  2
*U25
 70
     1
 10
0.0
 20
0.0
 30
0.0
  3
*U25
  1

  0
TEXT
  5
19F43
  8
DIM
 10
-0.5418171429521708
 20
-0.5315458169261006
 30
0.0
 40
0.0378374821394327
  1
.040
  7
ROMANS
  0
ENDBLK
  5
19F45
  8
0
 62
     1
  0
BLOCK
  8
0
 62
     1
  2
*U26
 70
     1
 10
0.0
 20
0.0
 30
0.0
  3
*U26
  1

  0
TEXT
  5
19F47
  8
DIM
 10
-0.7742161215102543
 20
-0.5934214279010367
 30
0.0
 40
0.0378374821394327
  1
.155
  7
ROMANS
  0
ENDBLK
  5
19F49
  8
0
 62
     1
  0
BLOCK
  8
0
 62
     1
  2
*U27
 70
     1
 10
0.0
 20
0.0
 30
0.0
  3
*U27
  1

  0
TEXT
  5
19F4B
  8
DIM
 10
-1.411243047347424
 20
-0.2328032517244004
 30
0.0
 40
0.0378374821394327
  1
.350
  7
ROMANS
  0
ENDBLK
  5
19F4D
  8
0
 62
     1
  0
BLOCK
  8
0
 62
     1
  2
*U28
 70
     1
 10
0.0
 20
0.0
 30
0.0
  3
*U28
  1

  0
TEXT
  5
19F4F
  8
DIM
 10
-1.411243047298727
 20
0.2671967467471609
 30
0.0
 40
0.0378374821074757
  1
.650
  7
ROMANS
  0
ENDBLK
  5
19F51
  8
0
 62
     1
  0
BLOCK
  8
0
 62
     1
  2
*U29
 70
     1
 10
0.0
 20
0.0
 30
0.0
  3
*U29
  1

  0
TEXT
  5
19F53
  8
DIM
 10
-0.8965907044609428
 20
0.3071900264129416
 30
0.0
 40
0.0378374821074757
  1
.135
  7
ROMANS
  0
ENDBLK
  5
19F55
  8
0
 62
     1
  0
BLOCK
  8
0
 62
     1
  2
*U30
 70
     1
 10
0.0
 20
0.0
 30
0.0
  3
*U30
  1

  0
TEXT
  5
19F57
  8
DIM
 10
-0.9727689412966508
 20
0.7642598633180918
 30
0.0
 40
0.0378374821074757
  1
.561
  7
ROMANS
  0
ENDBLK
  5
19F59
  8
0
 62
     1
  0
BLOCK
  8
0
 62
     1
  2
*U31
 70
     1
 10
0.0
 20
0.0
 30
0.0
  3
*U31
  1

  0
TEXT
  5
19F5B
  8
DIM
 10
-1.0619479690560429
 20
0.6753127520487042
 30
0.0
 40
0.0378374821074757
  1
.400
  7
ROMANS
  0
ENDBLK
  5
19F5D
  8
0
 62
     1
  0
BLOCK
  8
0
 62
     1
  2
*U32
 70
     1
 10
0.0
 20
0.0
 30
0.0
  3
*U32
  1

  0
TEXT
  5
19F5F
  8
DIM
 10
-1.064138426855703
 20
-0.2684262125935464
 30
0.0
 40
0.0378374821394327
  1
.030
  7
ROMANS
  0
ENDBLK
  5
19F61
  8
0
 62
     1
  0
BLOCK
  8
0
 62
     1
  2
*U33
 70
     1
 10
0.0
 20
0.0
 30
0.0
  3
*U33
  1

  0
TEXT
  5
19F63
  8
DIM
 10
-0.5428944332774039
 20
-0.4741539426450358
 30
0.0
 40
0.0378374821394327
  1
.018
  7
ROMANS
  0
ENDBLK
  5
19F65
  8
0
 62
     1
  0
BLOCK
  8
0
 62
     1
  2
*U34
 70
     1
 10
0.0
 20
0.0
 30
0.0
  3
*U34
  1

  0
TEXT
  5
19F67
  8
DIM
 10
-0.2293614246818832
 20
0.4161942736827226
 30
0.0
 40
0.0186133083426164
  1
.300
  7
ROMANS
  0
ENDBLK
  5
19F69
  8
0
 62
     1
  0
BLOCK
  8
0
 62
     1
  2
*U35
 70
     1
 10
0.0
 20
0.0
 30
0.0
  3
*U35
  1

  0
TEXT
  5
19F6B
  8
DIM
 10
-0.474929579362386
 20
0.0929876590610344
 30
0.0
 40
0.0186133083426164
  1
.530
  7
ROMANS
  0
ENDBLK
  5
19F6D
  8
0
 62
     1
  0
BLOCK
  8
0
 62
     1
  2
*U36
 70
     1
 10
0.0
 20
0.0
 30
0.0
  3
*U36
  1

  0
TEXT
  5
19F6F
  8
DIM
 10
-0.407248539748207
 20
-0.0570123409389657
 30
0.0
 40
0.0186133083426164
  1
.230
  7
ROMANS
  0
ENDBLK
  5
19F71
  8
0
 62
     1
  0
BLOCK
  8
0
 62
     1
  2
*U37
 70
     1
 10
0.0
 20
0.0
 30
0.0
  3
*U37
  1

  0
TEXT
  5
19F73
  8
DIM
 10
-0.0719024832572233
 20
-0.071590513948788
 30
0.0
 40
0.0186133083426164
  1
.020
  7
ROMANS
  0
ENDBLK
  5
19F75
  8
0
 62
     1
  0
BLOCK
  8
0
 62
     1
  2
*U38
 70
     1
 10
0.0
 20
0.0
 30
0.0
  3
*U38
  1

  0
TEXT
  5
19F77
  8
DIM
 10
-0.2275887286492531
 20
-0.2481038709676594
 30
0.0
 40
0.0186133083426164
  1
.100
  7
ROMANS
  0
ENDBLK
  5
19F79
  8
0
 62
     1
  0
BLOCK
  8
0
 62
     1
  2
*U39
 70
     1
 10
0.0
 20
0.0
 30
0.0
  3
*U39
  1

  0
TEXT
  5
19F7B
  8
DIM
 10
-0.1457935421397491
 20
-0.2181013457542457
 30
0.0
 40
0.0186133083426164
  1
.030
  7
ROMANS
  0
ENDBLK
  5
19F7D
  8
0
 62
     1
  0
ENDSEC
  0
SECTION
  2
ENTITIES
  0
CIRCLE
  5
19C98
  8
HATCH
 10
-0.1562401290342317
 20
0.3289672085781572
 30
0.0
 40
0.00405
  0
CIRCLE
  5
19C99
  8
PART
 10
-0.2009982881598011
 20
0.2172943132323433
 30
0.0
 40
0.145
  0
CIRCLE
  5
19C9A
  8
HATCH
 10
-0.0862212095842967
 20
0.1754452739595538
 30
0.0
 40
0.0027
  0
CIRCLE
  5
19C9B
  8
HATCH
 10
-0.2815979795906607
 20
0.1754452739595538
 30
0.0
 40
0.0027
  0
CIRCLE
  5
19C9C
  8
HATCH
 10
-0.1744932584132561
 20
0.1728196450171986
 30
0.0
 40
0.00405
  0
CIRCLE
  5
19C9D
  8
HATCH
 10
-0.1795507645700463
 20
0.0819252324532684
 30
0.0
 40
0.00405
  0
CIRCLE
  5
19C9E
  8
HATCH
 10
-0.2550477025305913
 20
0.1671050423188227
 30
0.0
 40
0.0054
  0
LINE
  5
19C9F
  8
HATCH
 10
-0.3023804273184698
 20
0.1561548992523998
 30
0.0
 11
-0.3023804273184698
 21
0.1561548992523998
 31
0.0
  0
CIRCLE
  5
19CA0
  8
HATCH
 10
-0.2484441285602905
 20
0.1294090031644404
 30
0.0
 40
0.0027
  0
CIRCLE
  5
19CA1
  8
HATCH
 10
-0.2858719654671837
 20
0.1474507344817211
 30
0.0
 40
0.0027
  0
CIRCLE
  5
19CA2
  8
HATCH
 10
-0.3129273087090505
 20
0.1371328466739687
 30
0.0
 40
0.0027
  0
CIRCLE
  5
19CA3
  8
HATCH
 10
-0.2751964650159655
 20
0.1177319001989965
 30
0.0
 40
0.00405
  0
LINE
  5
19CA4
  8
HATCH
 10
-0.2913421380866712
 20
0.1260708677041447
 30
0.0
 11
-0.2913421380866712
 21
0.1260708677041447
 31
0.0
  0
CIRCLE
  5
19CA5
  8
HATCH
 10
-0.2109451254924179
 20
0.1305067043726329
 30
0.0
 40
0.0027
  0
LINE
  5
19CA6
  8
HATCH
 10
-0.2317275732202271
 20
0.1112163296654789
 30
0.0
 11
-0.2317275732202271
 21
0.1112163296654789
 31
0.0
  0
CIRCLE
  5
19CA7
  8
HATCH
 10
-0.2280230040023019
 20
0.1463247288243663
 30
0.0
 40
0.0027
  0
LINE
  5
19CA8
  8
HATCH
 10
-0.2468889314839613
 20
0.1436586125223462
 30
0.0
 11
-0.2468889314839613
 21
0.1436586125223462
 31
0.0
  0
LINE
  5
19CA9
  8
HATCH
 10
-0.2093889314839608
 20
0.1436586125223462
 30
0.0
 11
-0.2093889314839608
 21
0.1436586125223462
 31
0.0
  0
CIRCLE
  5
19CAA
  8
HATCH
 10
-0.2422744546108086
 20
0.0921942770870479
 30
0.0
 40
0.0027
  0
LINE
  5
19CAB
  8
HATCH
 10
-0.195696437640751
 20
0.0902641999584166
 30
0.0
 11
-0.195696437640751
 21
0.0902641999584166
 31
0.0
  0
CIRCLE
  5
19CAC
  8
HATCH
 10
-0.215219111368941
 20
0.1025121648948011
 30
0.0
 40
0.0027
  0
CIRCLE
  5
19CAD
  8
HATCH
 10
-0.1824358128745418
 20
0.1246365599439161
 30
0.0
 40
0.0027
  0
CIRCLE
  5
19CAE
  8
HATCH
 10
-0.151106483756152
 20
0.1629489872295002
 30
0.0
 40
0.0027
  0
LINE
  5
19CAF
  8
HATCH
 10
-0.1070036573121058
 20
0.1561548992523998
 30
0.0
 11
-0.1070036573121058
 21
0.1561548992523998
 31
0.0
  0
LINE
  5
19CB0
  8
HATCH
 10
-0.1718889314839611
 20
0.1436586125223462
 30
0.0
 11
-0.1718889314839611
 21
0.1436586125223462
 31
0.0
  0
CIRCLE
  5
19CB1
  8
HATCH
 10
-0.155380469632675
 20
0.1349544477516684
 30
0.0
 40
0.0027
  0
LINE
  5
19CB2
  8
HATCH
 10
-0.1541217990047103
 20
0.1087683168471483
 30
0.0
 11
-0.1541217990047103
 21
0.1087683168471483
 31
0.0
  0
CIRCLE
  5
19CB3
  8
HATCH
 10
-0.1379761259340055
 20
0.100429349342001
 30
0.0
 40
0.00405
  0
CIRCLE
  5
19CB4
  8
HATCH
 10
-0.0904951954608198
 20
0.1474507344817211
 30
0.0
 40
0.0027
  0
CIRCLE
  5
19CB5
  8
HATCH
 10
-0.1175505387026865
 20
0.1371328466739687
 30
0.0
 40
0.0027
  0
CIRCLE
  5
19CB6
  8
HATCH
 10
-0.1791706064189915
 20
0.2076266840712899
 30
0.0
 40
0.0054
  0
LINE
  5
19CB7
  8
HATCH
 10
-0.2841164242182437
 20
0.308273158870157
 30
0.0
 11
-0.2841164242182437
 21
0.308273158870157
 31
0.0
  0
CIRCLE
  5
19CB8
  8
HATCH
 10
-0.2633339764904345
 20
0.327563533577311
 30
0.0
 40
0.0027
  0
LINE
  5
19CB9
  8
HATCH
 10
-0.2206892839884285
 20
0.3183214327818791
 30
0.0
 11
-0.2206892839884285
 21
0.3183214327818791
 31
0.0
  0
LINE
  5
19CBA
  8
HATCH
 10
-0.3321958292319129
 20
0.1902344937988387
 30
0.0
 11
-0.3321958292319129
 21
0.1902344937988387
 31
0.0
  0
LINE
  5
19CBB
  8
HATCH
 10
-0.3314586427806718
 20
0.2474739176643228
 30
0.0
 11
-0.3314586427806718
 21
0.2474739176643228
 31
0.0
  0
CIRCLE
  5
19CBC
  8
HATCH
 10
-0.341541046787377
 20
0.2289379716124824
 30
0.0
 40
0.0027
  0
CIRCLE
  5
19CBD
  8
HATCH
 10
-0.3160501561612081
 20
0.1818955262936905
 30
0.0
 40
0.00405
  0
LINE
  5
19CBE
  8
HATCH
 10
-0.2656389314839611
 20
0.1811586125223468
 30
0.0
 11
-0.2656389314839611
 21
0.1811586125223468
 31
0.0
  0
CIRCLE
  5
19CBF
  8
HATCH
 10
-0.2898169577910217
 20
0.1929967677646609
 30
0.0
 40
0.0027
  0
CIRCLE
  5
19CC0
  8
HATCH
 10
-0.2612841953952598
 20
0.1982755506083536
 30
0.0
 40
0.0027
  0
LINE
  5
19CC1
  8
HATCH
 10
-0.1906389314839609
 20
0.1811586125223468
 30
0.0
 11
-0.1906389314839609
 21
0.1811586125223468
 31
0.0
  0
CIRCLE
  5
19CC2
  8
HATCH
 10
-0.2384171241483246
 20
0.1899634150644787
 30
0.0
 40
0.0027
  0
CIRCLE
  5
19CC3
  8
HATCH
 10
-0.2082741532163821
 20
0.2003535844943223
 30
0.0
 40
0.0027
  0
CIRCLE
  5
19CC4
  8
HATCH
 10
-0.2818515958676402
 20
0.2454600344353504
 30
0.0
 40
0.0027
  0
CIRCLE
  5
19CC5
  8
HATCH
 10
-0.2611819858132938
 20
0.2430738128250882
 30
0.0
 40
0.0027
  0
CIRCLE
  5
19CC6
  8
HATCH
 10
-0.2532166238899123
 20
0.2677090302944125
 30
0.0
 40
0.0027
  0
CIRCLE
  5
19CC7
  8
HATCH
 10
-0.2676079623669576
 20
0.2995689940994792
 30
0.0
 40
0.0027
  0
CIRCLE
  5
19CC8
  8
HATCH
 10
-0.2946633056088252
 20
0.289251106291726
 30
0.0
 40
0.0027
  0
CIRCLE
  5
19CC9
  8
HATCH
 10
-0.3106761950528627
 20
0.2667642923714777
 30
0.0
 40
0.0027
  0
CIRCLE
  5
19CCA
  8
HATCH
 10
-0.3149501809293858
 20
0.238769752893645
 30
0.0
 40
0.0027
  0
LINE
  5
19CCB
  8
HATCH
 10
-0.2093889314839608
 20
0.2186586125223464
 30
0.0
 11
-0.2093889314839608
 21
0.2186586125223464
 31
0.0
  0
LINE
  5
19CCC
  8
HATCH
 10
-0.1906389314839609
 20
0.2561586125223469
 30
0.0
 11
-0.1906389314839609
 21
0.2561586125223469
 31
0.0
  0
CIRCLE
  5
19CCD
  8
HATCH
 10
-0.2230020231763232
 20
0.2899916349085496
 30
0.0
 40
0.0027
  0
CIRCLE
  5
19CCE
  8
HATCH
 10
-0.2119120944017796
 20
0.2663311064727127
 30
0.0
 40
0.00405
  0
CIRCLE
  5
19CCF
  8
HATCH
 10
-0.2207471043172946
 20
0.2252899657607152
 30
0.0
 40
0.0027
  0
LINE
  5
19CD0
  8
HATCH
 10
-0.2468889314839613
 20
0.2186586125223464
 30
0.0
 11
-0.2468889314839613
 21
0.2186586125223464
 31
0.0
  0
LINE
  5
19CD1
  8
HATCH
 10
-0.2281389314839606
 20
0.2561586125223469
 30
0.0
 11
-0.2281389314839606
 21
0.2561586125223469
 31
0.0
  0
CIRCLE
  5
19CD2
  8
HATCH
 10
-0.2045436109177237
 20
0.3099824652767309
 30
0.0
 40
0.00405
  0
CIRCLE
  5
19CD3
  8
HATCH
 10
-0.1665050890277779
 20
0.2899916349085496
 30
0.0
 40
0.0027
  0
CIRCLE
  5
19CD4
  8
HATCH
 10
-0.1681183268856783
 20
0.2414942013366057
 30
0.0
 40
0.0027
  0
LINE
  5
19CD5
  8
HATCH
 10
-0.1718889314839611
 20
0.2186586125223464
 30
0.0
 11
-0.1718889314839611
 21
0.2186586125223464
 31
0.0
  0
CIRCLE
  5
19CD6
  8
HATCH
 10
-0.1163938880667539
 20
0.1890309346659154
 30
0.0
 40
0.0027
  0
LINE
  5
19CD7
  8
HATCH
 10
-0.1531389314839613
 20
0.1811586125223468
 30
0.0
 11
-0.1531389314839613
 21
0.1811586125223468
 31
0.0
  0
CIRCLE
  5
19CD8
  8
HATCH
 10
-0.1407123636101293
 20
0.2003535718117073
 30
0.0
 40
0.0027
  0
LINE
  5
19CD9
  8
HATCH
 10
-0.1343889314839606
 20
0.2186586125223464
 30
0.0
 11
-0.1343889314839606
 21
0.2186586125223464
 31
0.0
  0
CIRCLE
  5
19CDA
  8
HATCH
 10
-0.141751770430468
 20
0.2658116075131824
 30
0.0
 40
0.0027
  0
CIRCLE
  5
19CDB
  8
HATCH
 10
-0.1140076404019439
 20
0.2303697034070737
 30
0.0
 40
0.0027
  0
LINE
  5
19CDC
  8
HATCH
 10
-0.096910392440928
 20
0.2308923064263688
 30
0.0
 11
-0.096910392440928
 21
0.2308923064263688
 31
0.0
  0
CIRCLE
  5
19CDD
  8
HATCH
 10
-0.1074572738315096
 20
0.2118702538479378
 30
0.0
 40
0.0027
  0
CIRCLE
  5
19CDE
  8
HATCH
 10
-0.0971224347887638
 20
0.2924396012133876
 30
0.0
 40
0.00405
  0
LINE
  5
19CDF
  8
HATCH
 10
-0.1132681078594686
 20
0.3007785687185358
 30
0.0
 11
-0.1132681078594686
 21
0.3007785687185358
 31
0.0
  0
CIRCLE
  5
19CE0
  8
HATCH
 10
-0.0761279447131189
 20
0.2501826811335228
 30
0.0
 40
0.0027
  0
CIRCLE
  5
19CE1
  8
HATCH
 10
-0.080401930589642
 20
0.222188141655691
 30
0.0
 40
0.0027
  0
CIRCLE
  5
19CE2
  8
HATCH
 10
-0.2035823475966589
 20
0.3397813028637799
 30
0.0
 40
0.00405
  0
LINE
  5
19CE3
  8
HATCH
 10
-0.2197280206673646
 20
0.3481202703689281
 30
0.0
 11
-0.2197280206673646
 21
0.3481202703689281
 31
0.0
  0
LINE
  5
19CE4
  8
HATCH
 10
-0.1723858021049365
 20
0.3373061760833054
 30
0.0
 11
-0.1723858021049365
 21
0.3373061760833054
 31
0.0
  0
INSERT
  5
19CE5
  8
HATCH
  6
CONTINUOUS
  2
*X23
 10
0.0
 20
0.0
 30
0.0
1001
ACAD
1000
HATCH
1002
{
1070
    19
1000
ANSI31
1040
0.25
1040
0.0
1000
R14_HATCH_DATA
1000
19CE5
1011
1.0
1021
0.0
1031
0.0
1021
0.0
1031
0.0
1011
0.0
1021
0.0
1031
0.0
1021
1.0
1031
0.0
1011
0.0
1021
0.0
1031
0.0
1021
0.0
1031
1.0
1040
0.0
1010
0.0
1020
0.0
1030
1.0
1000
ANSI31
1070
     0
1070
     0
1071
        1
1071
        1
1071
        4
1070
     1
1040
-0.2159982881598017
1040
0.0522943132323424
1040
-0.2159982881598017
1040
-0.1477056867676569
1070
     2
1040
-0.2009982881598011
1040
-0.1477056867676569
1040
0.0150000000000006
1040
3.1415926535897629
1040
6.2831853071796147
1070
     1
1070
     1
1040
-0.1859982881598006
1040
-0.1477056867676569
1040
-0.1859982881598006
1040
0.0522943132323424
1070
     2
1040
-0.2009982881598011
1040
0.0522943132323424
1040
0.0150000000000006
1040
0.0
1040
3.1415926535897931
1070
     1
1071
        0
1070
     0
1070
     1
1040
0.0
1040
0.25
1070
     0
1070
     1
1040
0.7853981633974483
1040
-1.0546978528221509
1040
-5.5697630787146073
1040
-0.0220970869120796
1040
0.0220970869120796
1070
     0
1071
        1
1040
-0.5891789714203091
1040
-1.724641224805707
1040
0.0
1002
}
  0
POLYLINE
  5
19CE6
  8
PART
 66
     1
 10
0.0
 20
0.0
 30
0.0
 70
     1
  0
VERTEX
  5
19EE6
  8
PART
 10
-0.2159982881598017
 20
0.0522943132323424
 30
0.0
  0
VERTEX
  5
19EE7
  8
PART
 10
-0.2159982881598017
 20
-0.1477056867676569
 30
0.0
 42
1.0000000000000291
  0
VERTEX
  5
19EE8
  8
PART
 10
-0.1859982881598006
 20
-0.1477056867676569
 30
0.0
  0
VERTEX
  5
19EE9
  8
PART
 10
-0.1859982881598006
 20
0.0522943132323424
 30
0.0
 42
0.9999999999999998
  0
SEQEND
  5
19EEA
  8
PART
  0
POLYLINE
  5
19CE7
  8
PART
 66
     1
 10
0.0
 20
0.0
 30
0.0
 70
     1
  0
VERTEX
  5
19EEB
  8
PART
 10
-0.1859982881598023
 20
-0.1269171759202716
 30
0.0
  0
VERTEX
  5
19EEC
  8
PART
 10
-0.1859982881598023
 20
-0.1500111866878562
 30
0.0
  0
VERTEX
  5
19EED
  8
PART
 10
-0.1558985228183607
 20
-0.1326330790654306
 30
0.0
 42
0.9999999999999998
  0
VERTEX
  5
19EEE
  8
PART
 10
-0.1658985228183605
 20
-0.1153125709897418
 30
0.0
  0
SEQEND
  5
19EEF
  8
PART
  0
POLYLINE
  5
19CE8
  8
PART
 66
     1
 10
0.0
 20
0.0
 30
0.0
 70
     1
  0
VERTEX
  5
19EF0
  8
PART
 10
-0.2360980535012418
 20
-0.1153125709897418
 30
0.0
  0
VERTEX
  5
19EF1
  8
PART
 10
-0.2159982881597999
 20
-0.1269171759202716
 30
0.0
  0
VERTEX
  5
19EF2
  8
PART
 10
-0.2159982881597999
 20
-0.1500111866878562
 30
0.0
  0
VERTEX
  5
19EF3
  8
PART
 10
-0.2460980535012416
 20
-0.1326330790654306
 30
0.0
 42
-0.9999999999999998
  0
SEQEND
  5
19EF4
  8
PART
  0
POLYLINE
  5
19CE9
  8
PART
 66
     1
 10
0.0
 20
0.0
 30
0.0
 70
     1
  0
VERTEX
  5
19EF5
  8
PART
 10
-0.2159982881597999
 20
-0.0496116760000722
 30
0.0
  0
VERTEX
  5
19EF6
  8
PART
 10
-0.2159982881597999
 20
-0.0727056867676577
 30
0.0
  0
VERTEX
  5
19EF7
  8
PART
 10
-0.2460980535012416
 20
-0.0553275791452312
 30
0.0
 42
-0.9999999999999998
  0
VERTEX
  5
19EF8
  8
PART
 10
-0.2360980535012418
 20
-0.0380070710695424
 30
0.0
  0
SEQEND
  5
19EF9
  8
PART
  0
POLYLINE
  5
19CEA
  8
PART
 66
     1
 10
0.0
 20
0.0
 30
0.0
 70
     1
  0
VERTEX
  5
19EFA
  8
PART
 10
-0.1859982881598023
 20
-0.0496116760000722
 30
0.0
  0
VERTEX
  5
19EFB
  8
PART
 10
-0.1859982881598023
 20
-0.0727056867676577
 30
0.0
  0
VERTEX
  5
19EFC
  8
PART
 10
-0.1558985228183607
 20
-0.0553275791452312
 30
0.0
 42
0.9999999999999998
  0
VERTEX
  5
19EFD
  8
PART
 10
-0.1658985228183605
 20
-0.0380070710695424
 30
0.0
  0
SEQEND
  5
19EFE
  8
PART
  0
POLYLINE
  5
19CEB
  8
PART
 66
     1
 10
0.0
 20
0.0
 30
0.0
 70
     1
  0
VERTEX
  5
19EFF
  8
PART
 10
-0.1859982881598006
 20
0.0522943132323432
 30
0.0
  0
VERTEX
  5
19F00
  8
PART
 10
-0.1859982881597999
 20
0.0022943132323425
 30
0.0
 42
-0.0652227519030249
  0
VERTEX
  5
19F01
  8
PART
 10
-0.1794886188527709
 20
0.0151260961525675
 30
0.0
 42
0.1510682486555062
  0
VERTEX
  5
19F02
  8
PART
 10
-0.1759982881598017
 20
0.0264146221578747
 30
0.0
  0
VERTEX
  5
19F03
  8
PART
 10
-0.1759982881598021
 20
0.04158921491986
 30
0.0
 42
-0.2551506209396624
  0
VERTEX
  5
19F04
  8
PART
 10
-0.1645209550770925
 20
0.0626162803224315
 30
0.0
  0
VERTEX
  5
19F05
  8
PART
 10
-0.1259982881598014
 20
0.0873905026646773
 30
0.0
 42
3.7320508075689398
  0
VERTEX
  5
19F06
  8
PART
 10
-0.2759982881597991
 20
0.0873905026646764
 30
0.0
  0
VERTEX
  5
19F07
  8
PART
 10
-0.2374756212425098
 20
0.0626162803224315
 30
0.0
 42
-0.2551506209396624
  0
VERTEX
  5
19F08
  8
PART
 10
-0.225998288159801
 20
0.04158921491986
 30
0.0
  0
VERTEX
  5
19F09
  8
PART
 10
-0.2259982881598006
 20
0.0264146221578747
 30
0.0
 42
0.151068248655507
  0
VERTEX
  5
19F0A
  8
PART
 10
-0.2225079574668314
 20
0.0151260961525675
 30
0.0
 42
-0.0652227519030259
  0
VERTEX
  5
19F0B
  8
PART
 10
-0.2159982881598015
 20
0.0022943132323425
 30
0.0
  0
VERTEX
  5
19F0C
  8
PART
 10
-0.2159982881598008
 20
0.0522943132323432
 30
0.0
 42
-0.9999999999999998
  0
SEQEND
  5
19F0D
  8
PART
  0
INSERT
  5
19CEC
  8
HATCH
  6
CONTINUOUS
  2
*X24
 10
0.0
 20
0.0
 30
0.0
1001
ACAD
1000
HATCH
1002
{
1070
    19
1000
ANSI31
1040
0.1
1040
1.047197551196597
1000
R14_HATCH_DATA
1000
19CEC
1011
1.0
1021
0.0
1031
0.0
1021
0.0
1031
0.0
1011
0.0
1021
0.0
1031
0.0
1021
1.0
1031
0.0
1011
0.0
1021
0.0
1031
0.0
1021
0.0
1031
1.0
1040
0.0
1010
0.0
1020
0.0
1030
1.0
1000
ANSI31
1070
     0
1070
     0
1071
        2
1071
       16
1071
        1
1070
     2
1040
-0.2009982881598011
1040
0.2172943132323433
1040
0.145
1040
0.0
1040
6.2831853071795862
1070
     1
1071
        0
1071
        1
1071
       14
1070
     1
1040
-0.1859982881598006
1040
0.0522943132323432
1040
-0.1859982881597999
1040
0.0022943132323425
1070
     2
1040
-0.1337682261187498
1040
-0.0161353320900382
1040
0.0553862005152971
1040
3.4808087506547678
1040
3.741330755564737
1070
     0
1070
     2
1040
-0.1959982881598012
1040
0.0264146221578738
1040
0.0199999999999996
1040
5.683447205204696
1040
6.2831853071796298
1070
     1
1070
     1
1040
-0.1759982881598017
1040
0.0264146221578747
1040
-0.1759982881598021
1040
0.04158921491986
1070
     2
1040
-0.1509982881598018
1040
0.0415892149198591
1040
0.0250000000000004
1040
3.1415926535898282
1040
4.1408742565091323
1070
     0
1070
     1
1040
-0.1645209550770925
1040
0.0626162803224315
1040
-0.1259982881598014
1040
0.0873905026646773
1070
     2
1040
-0.2009982881598011
1040
0.2172943132323433
1040
0.15
1040
5.2359877559829862
1040
10.47197551196599
1070
     1
1070
     1
1040
-0.2759982881597991
1040
0.0873905026646764
1040
-0.2374756212425098
1040
0.0626162803224315
1070
     2
1040
-0.250998288159801
1040
0.0415892149198609
1040
0.0249999999999996
1040
5.2839037042603003
1040
6.2831853071796209
1070
     0
1070
     1
1040
-0.225998288159801
1040
0.04158921491986
1040
-0.2259982881598006
1040
0.0264146221578747
1070
     2
1040
-0.205998288159801
1040
0.0264146221578738
1040
0.0199999999999996
1040
3.1415926535897478
1040
3.7413307555646851
1070
     1
1070
     2
1040
-0.2682283502008513
1040
-0.0161353320900399
1040
0.0553862005152973
1040
5.6834472052046019
1040
5.9439692101145791
1070
     0
1070
     1
1040
-0.2159982881598015
1040
0.0022943132323425
1040
-0.2159982881598008
1040
0.0522943132323432
1070
     2
1040
-0.2009982881598007
1040
0.0522943132323432
1040
0.0150000000000001
1040
3.1415926535897931
1040
6.2831853071795862
1070
     0
1071
        0
1070
     0
1070
     1
1040
1.047197551196597
1040
0.1
1070
     0
1070
     1
1040
1.832595714594045
1040
-1.0546978528221509
1040
-5.5697630787146073
1040
-0.0120740728286134
1040
-0.0032352380637815
1070
     0
1071
        1
1040
-1.0546978528221509
1040
-5.5697630787146073
1040
0.0
1002
}
  0
VIEWPORT
  5
B94C
 67
     1
  8
0
 10
4.2500000610126278
 20
5.4999997606427646
 30
0.0
 40
22.895325395749602
 41
11.072130905669381
 68
     1
 69
     1
1001
ACAD
1000
MVIEW
1002
{
1070
    16
1010
0.0
1020
0.0
1030
0.0
1010
0.0
1020
0.0
1030
1.0
1040
0.0
1040
11.072130905669381
1040
4.2500000610126278
1040
5.4999997606427646
1040
50.0
1040
0.0
1040
0.0
1070
     0
1070
   500
1070
     1
1070
     1
1070
     0
1070
     0
1070
     0
1070
     0
1040
0.0
1040
0.0
1040
0.0
1040
0.5
1040
0.5
1040
0.5
1040
0.5
1070
     0
1002
{
1002
}
1002
}
  0
ENDSEC
  0
EOF
