  0
SECTION
  2
HEADER
  9
$ACADVER
  1
AC1009
  9
$INSBASE
 10
0.0
 20
0.0
 30
0.0
  9
$EXTMIN
 10
-0.2792099034563984
 20
0.0551300072752987
 30
-0.0000000349181948
  9
$EXTMAX
 10
-0.0188898150817565
 20
0.3553466812653312
 30
0.0000000814935746
  9
$LIMMIN
 10
0.0
 20
0.0
  9
$LIMMAX
 10
1.1999999999999991
 20
1.0
  9
$ORTHOMODE
 70
     1
  9
$REGENMODE
 70
     1
  9
$FILLMODE
 70
     1
  9
$QTEXTMODE
 70
     0
  9
$MIRRTEXT
 70
     1
  9
$DRAGMODE
 70
     2
  9
$LTSCALE
 40
1.0
  9
$OSMODE
 70
    19
  9
$ATTMODE
 70
     1
  9
$TEXTSIZE
 40
0.125
  9
$TRACEWID
 40
0.05
  9
$TEXTSTYLE
  7
STANDARD
  9
$CLAYER
  8
PART
  9
$CELTYPE
  6
BYLAYER
  9
$CECOLOR
 62
     1
  9
$DIMSCALE
 40
0.0
  9
$DIMASZ
 40
0.125
  9
$DIMEXO
 40
0.05
  9
$DIMDLI
 40
0.02
  9
$DIMRND
 40
0.0
  9
$DIMDLE
 40
0.0
  9
$DIMEXE
 40
0.05
  9
$DIMTP
 40
0.005
  9
$DIMTM
 40
0.005
  9
$DIMTXT
 40
0.125
  9
$DIMCEN
 40
0.02
  9
$DIMTSZ
 40
0.0
  9
$DIMTOL
 70
     0
  9
$DIMLIM
 70
     0
  9
$DIMTIH
 70
     1
  9
$DIMTOH
 70
     1
  9
$DIMSE1
 70
     0
  9
$DIMSE2
 70
     0
  9
$DIMTAD
 70
     0
  9
$DIMZIN
 70
     4
  9
$DIMBLK
  1

  9
$DIMASO
 70
     1
  9
$DIMSHO
 70
     1
  9
$DIMPOST
  1

  9
$DIMAPOST
  1

  9
$DIMALT
 70
     0
  9
$DIMALTD
 70
     1
  9
$DIMALTF
 40
25.399999999999999
  9
$DIMLFAC
 40
1.0
  9
$DIMTOFL
 70
     0
  9
$DIMTVP
 40
0.0
  9
$DIMTIX
 70
     0
  9
$DIMSOXD
 70
     0
  9
$DIMSAH
 70
     0
  9
$DIMBLK1
  1

  9
$DIMBLK2
  1

  9
$DIMSTYLE
  2
SCOTTG
  9
$DIMCLRD
 70
   256
  9
$DIMCLRE
 70
   256
  9
$DIMCLRT
 70
   256
  9
$DIMTFAC
 40
1.0
  9
$DIMGAP
 40
0.02
  9
$LUNITS
 70
     2
  9
$LUPREC
 70
     5
  9
$SKETCHINC
 40
0.1
  9
$FILLETRAD
 40
0.01
  9
$AUNITS
 70
     0
  9
$AUPREC
 70
     0
  9
$MENU
  1
.
  9
$ELEVATION
 40
0.0
  9
$PELEVATION
 40
0.0
  9
$THICKNESS
 40
0.0
  9
$LIMCHECK
 70
     0
  9
$BLIPMODE
 70
     0
  9
$CHAMFERA
 40
0.0
  9
$CHAMFERB
 40
0.0
  9
$SKPOLY
 70
     0
  9
$TDCREATE
 40
2450919.3750775461
  9
$TDUPDATE
 40
2455818.6010001162
  9
$TDINDWG
 40
2.4056689352
  9
$TDUSRTIMER
 40
2.4056689352
  9
$USRTIMER
 70
     1
  9
$ANGBASE
 50
0.0
  9
$ANGDIR
 70
     0
  9
$PDMODE
 70
     0
  9
$PDSIZE
 40
0.0
  9
$PLINEWID
 40
0.0
  9
$COORDS
 70
     0
  9
$SPLFRAME
 70
     0
  9
$SPLINETYPE
 70
     6
  9
$SPLINESEGS
 70
     8
  9
$ATTDIA
 70
     0
  9
$ATTREQ
 70
     1
  9
$HANDLING
 70
     1
  9
$HANDSEED
  5
1A11C
  9
$SURFTAB1
 70
     6
  9
$SURFTAB2
 70
     6
  9
$SURFTYPE
 70
     6
  9
$SURFU
 70
     6
  9
$SURFV
 70
     6
  9
$UCSNAME
  2

  9
$UCSORG
 10
0.0
 20
0.0
 30
0.0
  9
$UCSXDIR
 10
1.0
 20
0.0
 30
0.0
  9
$UCSYDIR
 10
0.0
 20
1.0
 30
0.0
  9
$PUCSNAME
  2

  9
$PUCSORG
 10
0.0
 20
0.0
 30
0.0
  9
$PUCSXDIR
 10
1.0
 20
0.0
 30
0.0
  9
$PUCSYDIR
 10
0.0
 20
1.0
 30
0.0
  9
$USERI1
 70
     0
  9
$USERI2
 70
     0
  9
$USERI3
 70
     0
  9
$USERI4
 70
     0
  9
$USERI5
 70
     0
  9
$USERR1
 40
0.0
  9
$USERR2
 40
0.0
  9
$USERR3
 40
0.0
  9
$USERR4
 40
0.0
  9
$USERR5
 40
0.0
  9
$WORLDVIEW
 70
     1
  9
$SHADEDGE
 70
     3
  9
$SHADEDIF
 70
    70
  9
$TILEMODE
 70
     1
  9
$MAXACTVP
 70
    48
  9
$PLIMCHECK
 70
     0
  9
$PEXTMIN
 10
-0.0002593796237598
 20
-0.0003357869613225
 30
-0.0015258207003583
  9
$PEXTMAX
 10
8.5002594192049692
 20
11.000335718974769
 30
0.0000000349246037
  9
$PLIMMIN
 10
0.0000001811605737
 20
-0.0000001192092895
  9
$PLIMMAX
 10
8.4999999408646811
 20
10.999999640494821
  9
$UNITMODE
 70
     0
  9
$VISRETAIN
 70
     1
  9
$PLINEGEN
 70
     0
  9
$PSLTSCALE
 70
     1
  0
ENDSEC
  0
SECTION
  2
TABLES
  0
TABLE
  2
VPORT
 70
     1
  0
VPORT
  2
*ACTIVE
 70
     0
 10
0.0
 20
0.0
 11
1.0
 21
1.0
 12
-19.871036905264429
 22
-0.4339395044427434
 13
0.0
 23
0.0
 14
0.5
 24
0.5
 15
0.5
 25
0.5
 16
0.0
 26
0.0
 36
5.6148375865943736
 17
19.721987045995348
 27
0.6391778487130584
 37
0.0
 40
0.302185307917836
 41
2.067833698030634
 42
50.0
 43
0.0
 44
0.0
 50
0.0
 51
0.0
 71
     0
 72
 20000
 73
     1
 74
     0
 75
     0
 76
     0
 77
     0
 78
     0
  0
ENDTAB
  0
TABLE
  2
LTYPE
 70
     1
  0
LTYPE
  2
CONTINUOUS
 70
     0
  3
Solid line
 72
    65
 73
     0
 40
0.0
  0
ENDTAB
  0
TABLE
  2
LAYER
 70
     6
  0
LAYER
  2
0
 70
     0
 62
     7
  6
CONTINUOUS
  0
LAYER
  2
DEFPOINTS
 70
     0
 62
     7
  6
CONTINUOUS
  0
LAYER
  2
HATCH
 70
     0
 62
     7
  6
CONTINUOUS
  0
LAYER
  2
PART
 70
     0
 62
     7
  6
CONTINUOUS
  0
ENDTAB
  0
TABLE
  2
STYLE
 70
     3
  0
STYLE
  2
STANDARD
 70
     0
 40
0.0
 41
1.0
 50
0.0
 71
     0
 42
0.125
  3
txt
  4

  0
STYLE
  2
ROMANS
 70
     0
 40
0.0
 41
1.0
 50
0.0
 71
     0
 42
0.1
  3
SIMPLEX.shx
  4

  0
ENDTAB
  0
TABLE
  2
VIEW
 70
     0
  0
ENDTAB
  0
TABLE
  2
UCS
 70
     0
  0
ENDTAB
  0
TABLE
  2
APPID
 70
    16
  0
APPID
  2
ACAD
 70
     0
  0
APPID
  2
ADP_SK
 70
     0
  0
APPID
  2
ADP_SOL
 70
     0
  0
APPID
  2
ACIS_LNK
 70
     0
  0
APPID
  2
AME_SOL
 70
     0
  0
APPID
  2
ACAD_MLEADERVER
 70
     0
  0
APPID
  2
ACAD_EXEMPT_FROM_CAD_STANDARDS
 70
     0
  0
APPID
  2
ACAD_PSEXT
 70
     0
  0
APPID
  2
ACDBDYNAMICBLOCKGUID
 70
     0
  0
APPID
  2
ACDBBLOCKREPETAG
 70
     0
  0
APPID
  2
ACDBDYNAMICBLOCKTRUENAME
 70
     0
  0
APPID
  2
ACAD_DSTYLE_DIMJAG
 70
     0
  0
APPID
  2
ACAD_DSTYLE_DIMTALN
 70
     0
  0
APPID
  2
ACAECLAYERSTANDARD
 70
     0
  0
APPID
  2
ACAUTHENVIRON
 70
     0
  0
APPID
  2
ACADANNOPO
 70
     0
  0
ENDTAB
  0
TABLE
  2
DIMSTYLE
 70
     2
  0
DIMSTYLE
  2
SCOTTG
 70
     0
  3

  4

  5

  6

  7

 40
0.15
 41
0.125
 42
0.1
 43
0.25
 44
0.1
 45
0.0
 46
0.0
 47
0.01
 48
0.01
140
0.125
141
0.06
142
0.0
143
25.399999999999999
144
1.0
145
0.0
146
1.0
147
0.09
 71
     1
 72
     0
 73
     1
 74
     1
 75
     0
 76
     0
 77
     0
 78
     4
170
     0
171
     1
172
     0
173
     0
174
     1
175
     0
176
   256
177
   256
178
   256
  0
ENDTAB
  0
ENDSEC
  0
SECTION
  2
BLOCKS
  0
BLOCK
  8
0
  2
$MODEL_SPACE
 70
     0
 10
0.0
 20
0.0
 30
0.0
  3
$MODEL_SPACE
  1

  0
ENDBLK
  5
1A
  8
0
  0
BLOCK
 67
     1
  8
0
  2
$PAPER_SPACE
 70
     0
 10
0.0
 20
0.0
 30
0.0
  3
$PAPER_SPACE
  1

  0
ENDBLK
  5
B932
 67
     1
  8
0
  0
BLOCK
  8
0
 62
     1
  2
*U22
 70
     1
 10
0.0
 20
0.0
 30
0.0
  3
*U22
  1

  0
TEXT
  5
1A02D
  8
PART
 10
-0.3733034910232481
 20
0.7141972627033814
 30
0.0
 40
0.0378374821074757
  1
.400
  7
ROMANS
  0
ENDBLK
  5
1A02F
  8
0
 62
     1
  0
BLOCK
  8
0
 62
     1
  2
*U23
 70
     1
 10
0.0
 20
0.0
 30
0.0
  3
*U23
  1

  0
TEXT
  5
1A031
  8
PART
 10
-0.2841244632638552
 20
0.8031443739727691
 30
0.0
 40
0.0378374821074757
  1
.561
  7
ROMANS
  0
ENDBLK
  5
1A033
  8
0
 62
     1
  0
BLOCK
  8
0
 62
     1
  2
*U24
 70
     1
 10
0.0
 20
0.0
 30
0.0
  3
*U24
  1

  0
TEXT
  5
1A035
  8
PART
 10
-0.7225985692659322
 20
0.3060812574018382
 30
0.0
 40
0.0378374821074757
  1
.650
  7
ROMANS
  0
ENDBLK
  5
1A037
  8
0
 62
     1
  0
BLOCK
  8
0
 62
     1
  2
*U25
 70
     1
 10
0.0
 20
0.0
 30
0.0
  3
*U25
  1

  0
TEXT
  5
1A039
  8
PART
 10
0.1457500447553917
 20
-0.4352694319903586
 30
0.0
 40
0.0378374821394327
  1
.018
  7
ROMANS
  0
ENDBLK
  5
1A03B
  8
0
 62
     1
  0
BLOCK
  8
0
 62
     1
  2
*U26
 70
     1
 10
0.0
 20
0.0
 30
0.0
  3
*U26
  1

  0
TEXT
  5
1A03D
  8
PART
 10
-0.0855716434774586
 20
-0.5545369172463596
 30
0.0
 40
0.0378374821394327
  1
.155
  7
ROMANS
  0
ENDBLK
  5
1A03F
  8
0
 62
     1
  0
BLOCK
  8
0
 62
     1
  2
*U27
 70
     1
 10
0.0
 20
0.0
 30
0.0
  3
*U27
  1

  0
TEXT
  5
1A041
  8
PART
 10
0.1468273350806249
 20
-0.4926613062714235
 30
0.0
 40
0.0378374821394327
  1
.040
  7
ROMANS
  0
ENDBLK
  5
1A043
  8
0
 62
     1
  0
BLOCK
  8
0
 62
     1
  2
*U28
 70
     1
 10
0.0
 20
0.0
 30
0.0
  3
*U28
  1

  0
TEXT
  5
1A045
  8
PART
 10
-0.7225985693146287
 20
-0.1939187410697232
 30
0.0
 40
0.0378374821394327
  1
.350
  7
ROMANS
  0
ENDBLK
  5
1A047
  8
0
 62
     1
  0
BLOCK
  8
0
 62
     1
  2
*U29
 70
     1
 10
0.0
 20
0.0
 30
0.0
  3
*U29
  1

  0
TEXT
  5
1A049
  8
PART
 10
-0.3754939488229078
 20
-0.229541701938869
 30
0.0
 40
0.0378374821394327
  1
.030
  7
ROMANS
  0
ENDBLK
  5
1A04B
  8
0
 62
     1
  0
BLOCK
  8
0
 62
     1
  2
*U30
 70
     1
 10
0.0
 20
0.0
 30
0.0
  3
*U30
  1

  0
TEXT
  5
1A04D
  8
PART
 10
-0.2079462264281474
 20
0.3460745370676188
 30
0.0
 40
0.0378374821074757
  1
.135
  7
ROMANS
  0
ENDBLK
  5
1A04F
  8
0
 62
     1
  0
BLOCK
  8
0
 62
     1
  2
*X31
 70
     1
 10
0.0
 20
0.0
 30
0.0
  3
*X31
  1

  0
LINE
  5
1A066
  8
0
 62
     0
 10
0.2600277311442725
 20
0.2572383468622084
 30
0.0
 11
0.2532134867297544
 21
0.2826694532323817
 31
0.0
  0
LINE
  5
1A067
  8
0
 62
     0
 10
0.2382793843198516
 20
0.2901079908771225
 30
0.0
 11
0.2365217352802729
 21
0.2966676263947061
 31
0.0
  0
LINE
  5
1A068
  8
0
 62
     0
 10
0.2525713369365281
 20
0.2367696975723197
 30
0.0
 11
0.2508136878969487
 21
0.2433293330899042
 31
0.0
  0
LINE
  5
1A069
  8
0
 62
     0
 10
0.224038448371219
 20
0.2949595960703002
 30
0.0
 11
0.2226616098883456
 21
0.3000980272421998
 31
0.0
  0
LINE
  5
1A06A
  8
0
 62
     0
 10
0.2422688436537754
 20
0.2269228346337355
 30
0.0
 11
0.2408801103198395
 21
0.2321056579941487
 31
0.0
  0
LINE
  5
1A06B
  8
0
 62
     0
 10
0.2113399969536209
 20
0.2940545706237669
 30
0.0
 11
0.2100458675921348
 21
0.2988843271524004
 31
0.0
  0
LINE
  5
1A06C
  8
0
 62
     0
 10
0.2315472765734632
 20
0.2186399763997651
 30
0.0
 11
0.2301337273347412
 21
0.223915413977676
 31
0.0
  0
LINE
  5
1A06D
  8
0
 62
     0
 10
0.1998365118179739
 20
0.2886898702996623
 30
0.0
 11
0.1984671839536487
 21
0.293800271461544
 31
0.0
  0
LINE
  5
1A06E
  8
0
 62
     0
 10
0.2209944949323694
 20
0.2097272023310532
 30
0.0
 11
0.2195519618523811
 21
0.2151108090771698
 31
0.0
  0
LINE
  5
1A06F
  8
0
 62
     0
 10
0.1891041090193355
 20
0.2804474515170216
 30
0.0
 11
0.1876998370275191
 21
0.285688265938127
 31
0.0
  0
LINE
  5
1A070
  8
0
 62
     0
 10
0.2106213375239321
 20
0.200144061499798
 30
0.0
 11
0.2091449726308807
 21
0.2056539302911764
 31
0.0
  0
LINE
  5
1A071
  8
0
 62
     0
 10
0.1784711838586681
 20
0.2718337771352557
 30
0.0
 11
0.1770450536840629
 21
0.2771561674050904
 31
0.0
  0
LINE
  5
1A072
  8
0
 62
     0
 10
0.2004410539613164
 20
0.1898411056764839
 30
0.0
 11
0.1989251243800225
 21
0.1954986318945693
 31
0.0
  0
LINE
  5
1A073
  8
0
 62
     0
 10
0.1679781617063822
 20
0.2626979776180809
 30
0.0
 11
0.1665272613979312
 21
0.2681128112859374
 31
0.0
  0
LINE
  5
1A074
  8
0
 62
     0
 10
0.190469980704091
 20
0.178757366363989
 30
0.0
 11
0.188907583688642
 21
0.1845883114072384
 31
0.0
  0
LINE
  5
1A075
  8
0
 62
     0
 10
0.1576325948363981
 20
0.2530118674955082
 30
0.0
 11
0.1561536189092503
 21
0.2585314807987951
 31
0.0
  0
LINE
  5
1A076
  8
0
 62
     0
 10
0.1807285038082054
 20
0.1668167617657374
 30
0.0
 11
0.1791111588045766
 21
0.1728527754926477
 31
0.0
  0
LINE
  5
1A077
  8
0
 62
     0
 10
0.1474433762928209
 20
0.2427422574751077
 30
0.0
 11
0.1459325310344302
 21
0.2483808087417962
 31
0.0
  0
LINE
  5
1A078
  8
0
 62
     0
 10
0.1712424704251263
 20
0.1539228289992298
 30
0.0
 11
0.1695595154662459
 21
0.1602037024126215
 31
0.0
  0
LINE
  5
1A079
  8
0
 62
     0
 10
0.1374210396337103
 20
0.2318498357830165
 30
0.0
 11
0.1358739191106424
 21
0.237623768180538
 31
0.0
  0
LINE
  5
1A07A
  8
0
 62
     0
 10
0.162045332882683
 20
0.1399507222773755
 30
0.0
 11
0.1602829959321332
 21
0.1465278533168828
 31
0.0
  0
LINE
  5
1A07B
  8
0
 62
     0
 10
0.1275781576259456
 20
0.2202876802144456
 30
0.0
 11
0.1259895782542719
 21
0.2262163391413869
 31
0.0
  0
LINE
  5
1A07C
  8
0
 62
     0
 10
0.1531815508495293
 20
0.1247345158578659
 30
0.0
 11
0.1513214520084198
 21
0.1316764992399868
 31
0.0
  0
LINE
  5
1A07D
  8
0
 62
     0
 10
0.1179298824357715
 20
0.207999242115128
 30
0.0
 11
0.1162936575955866
 21
0.2141057163513045
 31
0.0
  0
LINE
  5
1A07E
  8
0
 62
     0
 10
0.1447122931985223
 20
0.1080459243993621
 30
0.0
 11
0.142728882997373
 21
0.1154481120423014
 31
0.0
  0
LINE
  5
1A07F
  8
0
 62
     0
 10
0.1084946935195037
 20
0.1949155552151982
 30
0.0
 11
0.1068033190925379
 21
0.2012278505112572
 31
0.0
  0
LINE
  5
1A080
  8
0
 62
     0
 10
0.1368834899402851
 20
0.0889671246071116
 30
0.0
 11
0.1345815253302969
 21
0.0975581734888138
 31
0.0
  0
LINE
  5
1A081
  8
0
 62
     0
 10
0.0992954597116816
 20
0.1809512718622406
 30
0.0
 11
0.0975396631346557
 21
0.187503993895457
 31
0.0
  0
LINE
  5
1A082
  8
0
 62
     0
 10
0.1303149228865359
 20
0.0651850592701724
 30
0.0
 11
0.1256748429349375
 21
0.08250207340072
 31
0.0
  0
LINE
  5
1A083
  8
0
 62
     0
 10
0.0903609935998813
 20
0.1659988620155275
 30
0.0
 11
0.0885290660667628
 21
0.1728357086449099
 31
0.0
  0
LINE
  5
1A084
  8
0
 62
     0
 10
0.1134644509404696
 20
0.0797755853899522
 30
0.0
 11
0.1134043218151379
 21
0.0799999903407045
 31
0.0
  0
LINE
  5
1A085
  8
0
 62
     0
 10
0.081728410001368
 20
0.1499198112913138
 30
0.0
 11
0.0798051788691334
 21
0.157097407591511
 31
0.0
  0
LINE
  5
1A086
  8
0
 62
     0
 10
0.073446865573487
 20
0.1325306645468496
 30
0.0
 11
0.0714120375383955
 21
0.1401247461584765
 31
0.0
  0
LINE
  5
1A087
  8
0
 62
     0
 10
0.0657074905444877
 20
0.1131181140594508
 30
0.0
 11
0.0634263891866758
 21
0.1216313002240197
 31
0.0
  0
LINE
  5
1A088
  8
0
 62
     0
 10
0.074614745419207
 20
0.0798757863110327
 30
0.0
 11
0.0745528085548182
 21
0.0801069378357937
 31
0.0
  0
LINE
  5
1A089
  8
0
 62
     0
 10
0.063724065871791
 20
0.0722240643964893
 30
0.0
 11
0.0566587177261555
 21
0.0985923026491635
 31
0.0
  0
LINE
  5
1A08A
  8
0
 62
     0
 10
0.0538907827355231
 20
0.0606260853517959
 30
0.0
 11
0.0534999918160062
 21
0.0620845369185696
 31
0.0
  0
ENDBLK
  5
1A08C
  8
0
 62
     1
  0
BLOCK
  8
0
 62
     1
  2
*X32
 70
     1
 10
0.0
 20
0.0
 30
0.0
  3
*X32
  1

  0
LINE
  5
1A08E
  8
0
 62
     0
 10
0.1394685929477961
 20
-0.0000000096592978
 30
0.0
 11
0.1674685929477975
 21
0.0279999903407036
 31
0.0
  0
LINE
  5
1A08F
  8
0
 62
     0
 10
0.095274419123637
 20
-0.0000000096592978
 30
0.0
 11
0.1334999918160054
 21
0.0382255630330706
 31
0.0
  0
LINE
  5
1A090
  8
0
 62
     0
 10
0.0510802452994779
 20
-0.0000000096592978
 30
0.0
 11
0.1232901185577413
 21
0.0722098635989657
 31
0.0
  0
LINE
  5
1A091
  8
0
 62
     0
 10
0.0534999918160057
 20
0.0466139106813897
 30
0.0
 11
0.0868860714753188
 21
0.0799999903407027
 31
0.0
  0
LINE
  5
1A092
  8
0
 62
     0
 10
0.0072668291933948
 20
0.0003807480587787
 30
0.0
 11
0.0348860714753196
 21
0.0279999903407036
 31
0.0
  0
ENDBLK
  5
1A094
  8
0
 62
     1
  0
BLOCK
  8
0
 62
     1
  2
*X33
 70
     1
 10
0.0
 20
0.0
 30
0.0
  3
*X33
  1

  0
LINE
  5
1A0BE
  8
0
 62
     0
 10
-0.0191085555960384
 20
0.312403273374283
 30
0.0
 11
-0.0259228000105565
 21
0.3378343797444563
 31
0.0
  0
LINE
  5
1A0BF
  8
0
 62
     0
 10
-0.0408569024204593
 20
0.3452729173891971
 30
0.0
 11
-0.042614551460038
 21
0.3518325529067807
 31
0.0
  0
LINE
  5
1A0C0
  8
0
 62
     0
 10
-0.0265649498037828
 20
0.2919346240843943
 30
0.0
 11
-0.0283225988433622
 21
0.2984942596019788
 31
0.0
  0
LINE
  5
1A0C1
  8
0
 62
     0
 10
-0.0550978383690919
 20
0.3501245225823748
 30
0.0
 11
-0.0564746768519653
 21
0.3552629537542744
 31
0.0
  0
LINE
  5
1A0C2
  8
0
 62
     0
 10
-0.0368674430865355
 20
0.2820877611458101
 30
0.0
 11
-0.0382561764204714
 21
0.2872705845062233
 31
0.0
  0
LINE
  5
1A0C3
  8
0
 62
     0
 10
-0.06779628978669
 20
0.3492194971358415
 30
0.0
 11
-0.0690904191481761
 21
0.354049253664475
 31
0.0
  0
LINE
  5
1A0C4
  8
0
 62
     0
 10
-0.0475890101668477
 20
0.2738049029118397
 30
0.0
 11
-0.0490025594055696
 21
0.2790803404897506
 31
0.0
  0
LINE
  5
1A0C5
  8
0
 62
     0
 10
-0.079299774922337
 20
0.3438547968117369
 30
0.0
 11
-0.0806691027866622
 21
0.3489651979736186
 31
0.0
  0
LINE
  5
1A0C6
  8
0
 62
     0
 10
-0.0581417918079414
 20
0.2648921288431278
 30
0.0
 11
-0.0595843248879298
 21
0.2702757355892444
 31
0.0
  0
LINE
  5
1A0C7
  8
0
 62
     0
 10
-0.0900321777209754
 20
0.3356123780290963
 30
0.0
 11
-0.0914364497127918
 21
0.3408531924502016
 31
0.0
  0
LINE
  5
1A0C8
  8
0
 62
     0
 10
-0.0685149492163788
 20
0.2553089880118726
 30
0.0
 11
-0.0699913141094302
 21
0.260818856803251
 31
0.0
  0
LINE
  5
1A0C9
  8
0
 62
     0
 10
-0.1006651028816428
 20
0.3269987036473303
 30
0.0
 11
-0.102091233056248
 21
0.332321093917165
 31
0.0
  0
LINE
  5
1A0CA
  8
0
 62
     0
 10
-0.0786952327789945
 20
0.2450060321885585
 30
0.0
 11
-0.0802111623602884
 21
0.2506635584066439
 31
0.0
  0
LINE
  5
1A0CB
  8
0
 62
     0
 10
-0.1111581250339286
 20
0.3178629041301546
 30
0.0
 11
-0.1126090253423797
 21
0.3232777377980112
 31
0.0
  0
LINE
  5
1A0CC
  8
0
 62
     0
 10
-0.0886663060362199
 20
0.2339222928760627
 30
0.0
 11
-0.0902287030516689
 21
0.2397532379193121
 31
0.0
  0
LINE
  5
1A0CD
  8
0
 62
     0
 10
-0.1215036919039127
 20
0.3081767940075828
 30
0.0
 11
-0.1229826678310606
 21
0.3136964073108697
 31
0.0
  0
LINE
  5
1A0CE
  8
0
 62
     0
 10
-0.0984077829321055
 20
0.2219816882778121
 30
0.0
 11
-0.1000251279357343
 21
0.2280177020047223
 31
0.0
  0
LINE
  5
1A0CF
  8
0
 62
     0
 10
-0.13169291044749
 20
0.2979071839871823
 30
0.0
 11
-0.1332037557058807
 21
0.3035457352538708
 31
0.0
  0
LINE
  5
1A0D0
  8
0
 62
     0
 10
-0.1078938163151846
 20
0.2090877555113044
 30
0.0
 11
-0.1095767712740649
 21
0.2153686289246961
 31
0.0
  0
LINE
  5
1A0D1
  8
0
 62
     0
 10
-0.1417152471066005
 20
0.2870147622950902
 30
0.0
 11
-0.1432623676296685
 21
0.2927886946926117
 31
0.0
  0
LINE
  5
1A0D2
  8
0
 62
     0
 10
-0.1170909538576279
 20
0.1951156487894492
 30
0.0
 11
-0.1188532908081776
 21
0.2016927798289565
 31
0.0
  0
LINE
  5
1A0D3
  8
0
 62
     0
 10
-0.1515581291143653
 20
0.2754526067265202
 30
0.0
 11
-0.1531467084860389
 21
0.2813812656534615
 31
0.0
  0
LINE
  5
1A0D4
  8
0
 62
     0
 10
-0.1259547358907815
 20
0.1798994423699405
 30
0.0
 11
-0.127814834731891
 21
0.1868414257520614
 31
0.0
  0
LINE
  5
1A0D5
  8
0
 62
     0
 10
-0.1612064043045394
 20
0.2631641686272026
 30
0.0
 11
-0.1628426291447242
 21
0.2692706428633791
 31
0.0
  0
LINE
  5
1A0D6
  8
0
 62
     0
 10
-0.1344239935417886
 20
0.1632108509114367
 30
0.0
 11
-0.1364074037429379
 21
0.170613038554376
 31
0.0
  0
LINE
  5
1A0D7
  8
0
 62
     0
 10
-0.1706415932208072
 20
0.2500804817272728
 30
0.0
 11
-0.1723329676477729
 21
0.2563927770233318
 31
0.0
  0
LINE
  5
1A0D8
  8
0
 62
     0
 10
-0.1422527968000258
 20
0.1441320511191861
 30
0.0
 11
-0.144554761410014
 21
0.1527231000008884
 31
0.0
  0
LINE
  5
1A0D9
  8
0
 62
     0
 10
-0.1798408270286294
 20
0.2361161983743152
 30
0.0
 11
-0.1815966236056552
 21
0.2426689204075316
 31
0.0
  0
LINE
  5
1A0DA
  8
0
 62
     0
 10
-0.1488213638537748
 20
0.1203499857822461
 30
0.0
 11
-0.1534614438053734
 21
0.1376669999127946
 31
0.0
  0
LINE
  5
1A0DB
  8
0
 62
     0
 10
-0.1887752931404296
 20
0.2211637885276021
 30
0.0
 11
-0.1906072206735481
 21
0.2280006351569845
 31
0.0
  0
LINE
  5
1A0DC
  8
0
 62
     0
 10
-0.1656718357998412
 20
0.1349405119020268
 30
0.0
 11
-0.1657319649251729
 21
0.1351649168527791
 31
0.0
  0
LINE
  5
1A0DD
  8
0
 62
     0
 10
-0.1974078767389429
 20
0.2050847378033884
 30
0.0
 11
-0.1993311078711775
 21
0.2122623341035856
 31
0.0
  0
LINE
  5
1A0DE
  8
0
 62
     0
 10
-0.2056894211668239
 20
0.1876955910589242
 30
0.0
 11
-0.2077242492019153
 21
0.1952896726705511
 31
0.0
  0
LINE
  5
1A0DF
  8
0
 62
     0
 10
-0.2134287961958232
 20
0.1682830405715254
 30
0.0
 11
-0.2157098975536351
 21
0.1767962267360943
 31
0.0
  0
LINE
  5
1A0E0
  8
0
 62
     0
 10
-0.2045215413211039
 20
0.1350407128231073
 30
0.0
 11
-0.2045834781854927
 21
0.1352718643478683
 31
0.0
  0
LINE
  5
1A0E1
  8
0
 62
     0
 10
-0.2154122208685198
 20
0.1273889909085639
 30
0.0
 11
-0.2224775690141554
 21
0.1537572291612381
 31
0.0
  0
LINE
  5
1A0E2
  8
0
 62
     0
 10
-0.2252455040047878
 20
0.1157910118638714
 30
0.0
 11
-0.2256362949243049
 21
0.117249463430646
 31
0.0
  0
ENDBLK
  5
1A0E4
  8
0
 62
     1
  0
BLOCK
  8
0
 62
     1
  2
*X34
 70
     1
 10
0.0
 20
0.0
 30
0.0
  3
*X34
  1

  0
LINE
  5
1A0E6
  8
0
 62
     0
 10
-0.1396676937925139
 20
0.0551649168527777
 30
0.0
 11
-0.1116676937925134
 21
0.0831649168527782
 31
0.0
  0
LINE
  5
1A0E7
  8
0
 62
     0
 10
-0.1838618676166734
 20
0.0551649168527773
 30
0.0
 11
-0.1456362949243055
 21
0.0933904895451452
 31
0.0
  0
LINE
  5
1A0E8
  8
0
 62
     0
 10
-0.2280560414408321
 20
0.0551649168527777
 30
0.0
 11
-0.1558461681825696
 21
0.1273747901110402
 31
0.0
  0
LINE
  5
1A0E9
  8
0
 62
     0
 10
-0.225636294924306
 20
0.1017788371934634
 30
0.0
 11
-0.1922502152649921
 21
0.1351649168527773
 31
0.0
  0
LINE
  5
1A0EA
  8
0
 62
     0
 10
-0.271869457546916
 20
0.0555456745708534
 30
0.0
 11
-0.2442502152649912
 21
0.0831649168527782
 31
0.0
  0
ENDBLK
  5
1A0EC
  8
0
 62
     1
  0
BLOCK
  8
0
 62
     1
  2
*U35
 70
     1
 10
0.0
 20
0.0
 30
0.0
  3
*U35
  1

  0
TEXT
  5
1A101
  8
PART
 10
-0.200971329789668
 20
0.0317915009884381
 30
0.0
 40
0.010734524405754
  1
.187
  7
ROMANS
  0
ENDBLK
  5
1A103
  8
0
 62
     1
  0
BLOCK
  8
0
 62
     1
  2
*U36
 70
     1
 10
0.0
 20
0.0
 30
0.0
  3
*U36
  1

  0
TEXT
  5
1A105
  8
PART
 10
-0.3191343429409561
 20
0.0637976546498998
 30
0.0
 40
0.010734524405754
  1
.028
  7
ROMANS
  0
ENDBLK
  5
1A107
  8
0
 62
     1
  0
BLOCK
  8
0
 62
     1
  2
*U37
 70
     1
 10
0.0
 20
0.0
 30
0.0
  3
*U37
  1

  0
TEXT
  5
1A109
  8
PART
 10
-0.0700378465151421
 20
0.0897976546499009
 30
0.0
 40
0.010734524405754
  1
.080
  7
ROMANS
  0
ENDBLK
  5
1A10B
  8
0
 62
     1
  0
BLOCK
  8
0
 62
     1
  2
*U38
 70
     1
 10
0.0
 20
0.0
 30
0.0
  3
*U38
  1

  0
TEXT
  5
1A10D
  8
PART
 10
-0.0081850284717793
 20
0.1998865834384826
 30
0.0
 40
0.010734524405754
  1
.300
  7
ROMANS
  0
ENDBLK
  5
1A10F
  8
0
 62
     1
  0
BLOCK
  8
0
 62
     1
  2
*U39
 70
     1
 10
0.0
 20
0.0
 30
0.0
  3
*U39
  1

  0
TEXT
  5
1A111
  8
PART
 10
-0.1224497222078764
 20
0.0961222383996142
 30
0.0
 40
0.010734524405754
  1
.080
  7
ROMANS
  0
ENDBLK
  5
1A113
  8
0
 62
     1
  0
BLOCK
  8
0
 62
     1
  2
*U40
 70
     1
 10
0.0
 20
0.0
 30
0.0
  3
*U40
  1

  0
TEXT
  5
1A115
  8
PART
 10
-0.1386757185090849
 20
0.3691301846959326
 30
0.0
 40
0.010734524405754
  1
.207
  7
ROMANS
  0
ENDBLK
  5
1A117
  8
0
 62
     1
  0
BLOCK
  8
0
 62
     1
  2
*U41
 70
     1
 10
0.0
 20
0.0
 30
0.0
  3
*U41
  1

  0
TEXT
  5
1A119
  8
PART
 10
-0.0653547897565077
 20
0.2081176421100896
 30
0.0
 40
0.010734524405754
  1
.080
  7
ROMANS
  0
ENDBLK
  5
1A11B
  8
0
 62
     1
  0
ENDSEC
  0
SECTION
  2
ENTITIES
  0
CIRCLE
  5
19EEA
  8
HATCH
 10
-0.0535988549399686
 20
0.3366615540805149
 30
0.0
 40
0.0045
  0
POLYLINE
  5
19EEB
  8
PART
 66
     1
 10
0.0
 20
0.0
 30
0.0
 70
     1
1001
ACAD
1000
ASC_BOUNDS
1002
{
1070
    19
1005
19EFC
1002
}
  0
VERTEX
  5
1A0A8
  8
PART
 10
-0.1677784305480365
 20
0.1351649168527789
 30
0.0
  0
VERTEX
  5
1A0A9
  8
PART
 10
-0.1617561452563763
 20
0.1351649168527789
 30
0.0
 42
0.3096714058963914
  0
VERTEX
  5
1A0AA
  8
PART
 10
-0.1477689196433491
 20
0.1447466588623996
 30
0.0
 42
-0.145575441446729
  0
VERTEX
  5
1A0AB
  8
PART
 10
-0.0364312583308095
 20
0.2885914418085196
 30
0.0
 42
1.0085493158075429
  0
VERTEX
  5
1A0AC
  8
PART
 10
-0.0820217121889204
 20
0.3417059918614658
 30
0.0
 42
0.1353680807655866
  0
VERTEX
  5
1A0AD
  8
PART
 10
-0.209458334638752
 20
0.1789633870986147
 30
0.0
 42
0.0464792146478042
  0
VERTEX
  5
1A0AE
  8
PART
 10
-0.2174676781998635
 20
0.1532836013797361
 30
0.0
 42
0.4763918822312273
  0
VERTEX
  5
1A0AF
  8
PART
 10
-0.2028240105666352
 20
0.1351649440122837
 30
0.0
 42
0.1827156668013256
  0
VERTEX
  5
1A0B0
  8
PART
 10
-0.2105652271124399
 20
0.1322359846646435
 30
0.0
  0
VERTEX
  5
1A0B1
  8
PART
 10
-0.2227073627361715
 20
0.1200938490409118
 30
0.0
 42
0.1989123673796531
  0
VERTEX
  5
1A0B2
  8
PART
 10
-0.2256362949243051
 20
0.1130227812290474
 30
0.0
  0
VERTEX
  5
1A0B3
  8
PART
 10
-0.2256362949243051
 20
0.1231363176191429
 30
0.0
 42
-0.0991286159002365
  0
VERTEX
  5
1A0B4
  8
PART
 10
-0.2140728877323479
 20
0.1808884584599706
 30
0.0
 42
-0.1352418904348387
  0
VERTEX
  5
1A0B5
  8
PART
 10
-0.0851539612676504
 20
0.345608122401251
 30
0.0
 42
-1.008481109248186
  0
VERTEX
  5
1A0B6
  8
PART
 10
-0.0333617437278981
 20
0.2846400180254303
 30
0.0
 42
0.1373134445494618
  0
VERTEX
  5
1A0B7
  8
PART
 10
-0.1392052907495387
 20
0.1525383905778284
 30
0.0
 42
0.1012699692510897
  0
VERTEX
  5
1A0B8
  8
PART
 10
-0.1456362949243068
 20
0.1211122413821737
 30
0.0
  0
VERTEX
  5
1A0B9
  8
PART
 10
-0.1456362949243051
 20
0.1130227812290474
 30
0.0
 42
0.1989123673796571
  0
VERTEX
  5
1A0BA
  8
PART
 10
-0.1485652271124405
 20
0.1200938490409118
 30
0.0
  0
VERTEX
  5
1A0BB
  8
PART
 10
-0.1607073627361704
 20
0.1322359846646435
 30
0.0
 42
0.1989123673796596
  0
SEQEND
  5
1A0BC
  8
PART
  0
CIRCLE
  5
19EEC
  8
HATCH
 10
-0.1605281961609517
 20
0.1953714840265401
 30
0.0
 40
0.0045
  0
CIRCLE
  5
19EED
  8
HATCH
 10
-0.1511262906070829
 20
0.17096725418643
 30
0.0
 40
0.009
  0
CIRCLE
  5
19EEE
  8
HATCH
 10
-0.1763478312011841
 20
0.1535762009341297
 30
0.0
 40
0.0045
  0
CIRCLE
  5
19EEF
  8
HATCH
 10
-0.1846463850793753
 20
0.1809413991544246
 30
0.0
 40
0.009
  0
CIRCLE
  5
19EF0
  8
HATCH
 10
-0.2030556413720372
 20
0.1544550150217308
 30
0.0
 40
0.0045
  0
CIRCLE
  5
19EF1
  8
HATCH
 10
-0.0745450786522408
 20
0.3279618212832289
 30
0.0
 40
0.009
  0
CIRCLE
  5
19EF2
  8
HATCH
 10
-0.070302850284353
 20
0.3020950400410409
 30
0.0
 40
0.0045
  0
CIRCLE
  5
19EF3
  8
HATCH
 10
-0.0987547839062479
 20
0.2547899785841998
 30
0.0
 40
0.009
  0
CIRCLE
  5
19EF4
  8
HATCH
 10
-0.1309248983667306
 20
0.2679124835629796
 30
0.0
 40
0.009
  0
CIRCLE
  5
19EF5
  8
HATCH
 10
-0.1249351012713191
 20
0.2372498432459664
 30
0.0
 40
0.0045
  0
CIRCLE
  5
19EF6
  8
HATCH
 10
-0.1009995128072809
 20
0.2727366395203361
 30
0.0
 40
0.0045
  0
CIRCLE
  5
19EF7
  8
HATCH
 10
-0.0711199175659019
 20
0.2800810001400442
 30
0.0
 40
0.009
  0
CIRCLE
  5
19EF8
  8
HATCH
 10
-0.1286166744104307
 20
0.2163608517288853
 30
0.0
 40
0.009
  0
CIRCLE
  5
19EF9
  8
HATCH
 10
-0.1583961357471644
 20
0.2285838441483576
 30
0.0
 40
0.009
  0
CIRCLE
  5
19EFA
  8
HATCH
 10
-0.1057414001015129
 20
0.3001018377406328
 30
0.0
 40
0.009
  0
CIRCLE
  5
19EFB
  8
HATCH
 10
-0.0409229139693181
 20
0.3137410496482917
 30
0.0
 40
0.009
  0
INSERT
  5
19EFC
  8
HATCH
  6
CONTINUOUS
  2
*X33
 10
0.0
 20
0.0
 30
0.0
1001
ACAD
1000
HATCH
1002
{
1070
    19
1000
ANSI31
1040
0.1
1040
1.047197551196597
1000
ASC_BOUNDS
1070
     1
1070
     2
1070
     1
1005
19EEB
1000
ASC_SEEDPOINT
1011
-0.9459135082525307
1021
0.0
1031
0.0
1021
-5.4050089043513792
1031
0.0
1000
R14_HATCH_DATA
1000
19EFC
1011
1.0
1021
0.0
1031
0.0
1021
0.0
1031
0.0
1011
0.0
1021
0.0
1031
0.0
1021
1.0
1031
0.0
1011
0.0
1021
0.0
1031
0.0
1021
0.0
1031
1.0
1040
0.0
1010
0.0
1020
0.0
1030
1.0
1000
ANSI31
1070
     0
1070
     1
1071
        1
1071
        1
1071
       20
1070
     1
1040
-0.1677784305480365
1040
0.1351649168527789
1040
-0.1617561452563763
1040
0.1351649168527789
1070
     2
1040
-0.1617561452563752
1040
0.1501649168527794
1040
0.0150000000000006
1040
4.7123889803846151
1040
5.9136124099969862
1070
     1
1070
     2
1040
0.1496927450603533
1040
0.0295183722670316
1040
0.3190000000000035
1040
3.5111655507722461
1040
4.0894054208613371
1070
     0
1070
     2
1040
-0.0590004010477552
1040
0.3153427744299442
1040
0.0349999999999994
1040
5.413193290438957
1040
8.5718116931306181
1070
     1
1070
     2
1040
0.1493081596299233
1040
0.0292953500160624
1040
0.3887337375813675
1040
2.2081685552324668
1040
2.7463693666715638
1070
     1
1070
     2
1040
-0.0756362949243049
1040
0.1231363176191571
1040
0.1449999999999973
1040
2.7463693666716682
1040
2.9321525187214492
1070
     1
1070
     2
1040
-0.2027954661368735
1040
0.1501649168527777
1040
0.0150000000000013
1040
2.9321525187213369
1040
4.7104860172520491
1070
     1
1070
     2
1040
-0.2028208733012418
1040
0.1234621853130304
1040
0.011702759119771
1040
1.57106440592042
1040
2.2939529172463131
1070
     1
1070
     1
1040
-0.2105652271124399
1040
0.1322359846646435
1040
-0.2227073627361715
1040
0.1200938490409118
1070
     2
1040
-0.2156362949243067
1040
0.1130227812290474
1040
0.0099999999999988
1040
2.3561944901923759
1040
3.1415926535897931
1070
     1
1070
     1
1040
-0.2256362949243051
1040
0.1130227812290474
1040
-0.2256362949243051
1040
0.1231363176191429
1070
     2
1040
-0.0756362949243168
1040
0.123136317619134
1040
0.1499999999999884
1040
3.1415926535898522
1040
3.5368159405080748
1070
     0
1070
     2
1040
0.1493081596299319
1040
0.0292953500160713
1040
0.3937337375813651
1040
3.5368159405079851
1040
4.0745210653764206
1070
     0
1070
     2
1040
-0.059000401047757
1040
0.3153427744299424
1040
0.0399999999999999
1040
3.999741799973676
1040
7.1582249461879073
1070
     0
1070
     2
1040
0.1496927450603473
1040
0.0295183722670351
1040
0.3139999999999967
1040
2.1931831393170338
1040
2.7390233955202099
1070
     1
1070
     2
1040
-0.0656362949243047
1040
0.1211122413821817
1040
0.0800000000000022
1040
2.7378890974201342
1040
3.141592653589893
1070
     1
1070
     1
1040
-0.1456362949243068
1040
0.1211122413821737
1040
-0.1456362949243051
1040
0.1130227812290474
1070
     2
1040
-0.1556362949243042
1040
0.1130227812290456
1040
0.0099999999999991
1040
0.0000000000001776
1040
0.7853981633976213
1070
     1
1070
     1
1040
-0.1485652271124405
1040
0.1200938490409118
1040
-0.1607073627361704
1040
0.1322359846646435
1070
     2
1040
-0.1677784305480372
1040
0.1251649168527773
1040
0.0100000000000015
1040
0.7853981633974012
1040
1.5707963267948291
1070
     1
1071
        1
1005
19EEB
1070
     0
1070
     1
1040
1.047197551196597
1040
0.1
1070
     0
1070
     1
1040
1.832595714594045
1040
-0.9459135082525307
1040
-5.4050089043513792
1040
-0.0120740728286134
1040
-0.0032352380637815
1070
     0
1071
        1
1040
-0.9459135082525307
1040
-5.4050089043513792
1040
0.0
1002
}
  0
INSERT
  5
19EFD
  8
HATCH
  6
CONTINUOUS
  2
*X34
 10
0.0
 20
0.0
 30
0.0
1001
ACAD
1000
HATCH
1002
{
1070
    19
1000
ANSI31
1040
0.25
1040
0.0
1000
R14_HATCH_DATA
1000
19EFD
1011
1.0
1021
0.0
1031
0.0
1021
0.0
1031
0.0
1011
0.0
1021
0.0
1031
0.0
1021
1.0
1031
0.0
1011
0.0
1021
0.0
1031
0.0
1021
0.0
1031
1.0
1040
0.0
1010
0.0
1020
0.0
1030
1.0
1000
ANSI31
1070
     0
1070
     0
1071
        1
1071
        7
1070
     1
1070
     1
1071
       18
1040
-0.1021362949243052
1040
0.0831649168527775
1040
0.0
1040
-0.1456362949243051
1040
0.0831649168527766
1040
0.0
1040
-0.1456362949243051
1040
0.1130227812290456
1040
0.0
1040
-0.1485652271124405
1040
0.1200938490409127
1040
0.0
1040
-0.1607073627361721
1040
0.1322359846646426
1040
0.198912367379661
1040
-0.1677784305480383
1040
0.1351649168527771
1040
0.0
1040
-0.2034941593005755
1040
0.1351649168527771
1040
0.1989123673796639
1040
-0.2105652271124416
1040
0.1322359846646426
1040
0.0
1040
-0.2227073627361715
1040
0.1200938490409127
1040
0.0
1040
-0.2256362949243051
1040
0.1130227812290474
1040
0.0
1040
-0.2256362949243051
1040
0.0831649168527775
1040
0.0
1040
-0.269136294924305
1040
0.0831649168527775
1040
0.4142135623730949
1040
-0.2791362949243048
1040
0.0731649168527777
1040
0.0
1040
-0.2791362949243048
1040
0.0651649168527768
1040
0.4142135623730951
1040
-0.269136294924305
1040
0.055164916852777
1040
0.0
1040
-0.1021362949243052
1040
0.055164916852777
1040
0.4142135623730951
1040
-0.0921362949243054
1040
0.0651649168527768
1040
0.0
1040
-0.0921362949243054
1040
0.0731649168527777
1040
0.4142135623730951
1071
        0
1070
     0
1070
     1
1040
0.0
1040
0.25
1070
     0
1070
     1
1040
0.7853981633974483
1040
-1.1203294372564061
1040
-5.3891083828511954
1040
-0.0220970869120796
1040
0.0220970869120796
1070
     0
1040
0.0005696527490363
1071
        1
1040
-0.1988584778296989
1040
0.0816980124853764
1040
0.0
1002
}
  0
POLYLINE
  5
19EFE
  8
PART
 66
     1
 10
0.0
 20
0.0
 30
0.0
 70
     1
  0
VERTEX
  5
1A0ED
  8
PART
 10
-0.2791362949243048
 20
0.0651649168527768
 30
0.0
 42
0.4142135623730951
  0
VERTEX
  5
1A0EE
  8
PART
 10
-0.269136294924305
 20
0.055164916852777
 30
0.0
  0
VERTEX
  5
1A0EF
  8
PART
 10
-0.1021362949243052
 20
0.055164916852777
 30
0.0
 42
0.4142135623730951
  0
VERTEX
  5
1A0F0
  8
PART
 10
-0.0921362949243054
 20
0.0651649168527768
 30
0.0
  0
VERTEX
  5
1A0F1
  8
PART
 10
-0.0921362949243054
 20
0.0731649168527777
 30
0.0
 42
0.4142135623730951
  0
VERTEX
  5
1A0F2
  8
PART
 10
-0.1021362949243052
 20
0.0831649168527775
 30
0.0
  0
VERTEX
  5
1A0F3
  8
PART
 10
-0.1456362949243051
 20
0.0831649168527775
 30
0.0
  0
VERTEX
  5
1A0F4
  8
PART
 10
-0.1456362949243051
 20
0.1130227812290465
 30
0.0
  0
VERTEX
  5
1A0F5
  8
PART
 10
-0.1485652271124405
 20
0.1200938490409118
 30
0.0
  0
VERTEX
  5
1A0F6
  8
PART
 10
-0.1607073627361721
 20
0.1322359846646426
 30
0.0
 42
0.1989123673796675
  0
VERTEX
  5
1A0F7
  8
PART
 10
-0.1677784305480365
 20
0.1351649168527771
 30
0.0
  0
VERTEX
  5
1A0F8
  8
PART
 10
-0.2034941593005755
 20
0.1351649168527771
 30
0.0
 42
0.1989123673796486
  0
VERTEX
  5
1A0F9
  8
PART
 10
-0.2105652271124399
 20
0.1322359846646435
 30
0.0
  0
VERTEX
  5
1A0FA
  8
PART
 10
-0.2227073627361715
 20
0.1200938490409118
 30
0.0
  0
VERTEX
  5
1A0FB
  8
PART
 10
-0.2256362949243051
 20
0.1130227812290465
 30
0.0
  0
VERTEX
  5
1A0FC
  8
PART
 10
-0.2256362949243051
 20
0.0831649168527775
 30
0.0
  0
VERTEX
  5
1A0FD
  8
PART
 10
-0.269136294924305
 20
0.0831649168527775
 30
0.0
 42
0.4142135623731209
  0
VERTEX
  5
1A0FE
  8
PART
 10
-0.2791362949243048
 20
0.0731649168527768
 30
0.0
  0
SEQEND
  5
1A0FF
  8
PART
  0
VIEWPORT
  5
B94C
 67
     1
  8
0
 10
4.2500000197906047
 20
5.499999966006726
 30
0.0
 40
22.896723563831479
 41
11.072807056794691
 68
     1
 69
     1
1001
ACAD
1000
MVIEW
1002
{
1070
    16
1010
0.0
1020
0.0
1030
0.0
1010
0.0
1020
0.0
1030
1.0
1040
0.0
1040
11.072807056794691
1040
4.2500000197906047
1040
5.499999966006726
1040
50.0
1040
0.0
1040
0.0
1070
     0
1070
   500
1070
     1
1070
     1
1070
     0
1070
     0
1070
     0
1070
     0
1040
0.0
1040
0.0
1040
0.0
1040
0.5
1040
0.5
1040
0.5
1040
0.5
1070
     0
1002
{
1002
}
1002
}
  0
ENDSEC
  0
EOF
