  0
SECTION
  2
HEADER
  9
$ACADVER
  1
AC1009
  9
$INSBASE
 10
0.0
 20
0.0
 30
0.0
  9
$EXTMIN
 10
4.3245838921978201
 20
1.0421662762205759
 30
0.0
  9
$EXTMAX
 10
4.5174833877823524
 20
1.3481662762205751
 30
0.0
  9
$LIMMIN
 10
0.0
 20
0.0
  9
$LIMMAX
 10
12.0
 20
9.0
  9
$ORTHOMODE
 70
     0
  9
$REGENMODE
 70
     1
  9
$FILLMODE
 70
     1
  9
$QTEXTMODE
 70
     0
  9
$MIRRTEXT
 70
     1
  9
$DRAGMODE
 70
     2
  9
$LTSCALE
 40
1.0
  9
$OSMODE
 70
    39
  9
$ATTMODE
 70
     1
  9
$TEXTSIZE
 40
0.2
  9
$TRACEWID
 40
0.05
  9
$TEXTSTYLE
  7
STANDARD
  9
$CLAYER
  8
0
  9
$CELTYPE
  6
BYLAYER
  9
$CECOLOR
 62
   256
  9
$DIMSCALE
 40
1.0
  9
$DIMASZ
 40
0.18
  9
$DIMEXO
 40
0.0625
  9
$DIMDLI
 40
0.38
  9
$DIMRND
 40
0.0
  9
$DIMDLE
 40
0.0
  9
$DIMEXE
 40
0.18
  9
$DIMTP
 40
0.0
  9
$DIMTM
 40
0.0
  9
$DIMTXT
 40
0.18
  9
$DIMCEN
 40
0.09
  9
$DIMTSZ
 40
0.0
  9
$DIMTOL
 70
     0
  9
$DIMLIM
 70
     0
  9
$DIMTIH
 70
     1
  9
$DIMTOH
 70
     1
  9
$DIMSE1
 70
     0
  9
$DIMSE2
 70
     0
  9
$DIMTAD
 70
     0
  9
$DIMZIN
 70
     0
  9
$DIMBLK
  1

  9
$DIMASO
 70
     1
  9
$DIMSHO
 70
     1
  9
$DIMPOST
  1

  9
$DIMAPOST
  1

  9
$DIMALT
 70
     1
  9
$DIMALTD
 70
     2
  9
$DIMALTF
 40
25.399999999999999
  9
$DIMLFAC
 40
0.1
  9
$DIMTOFL
 70
     0
  9
$DIMTVP
 40
0.0
  9
$DIMTIX
 70
     0
  9
$DIMSOXD
 70
     0
  9
$DIMSAH
 70
     0
  9
$DIMBLK1
  1

  9
$DIMBLK2
  1

  9
$DIMSTYLE
  2
STANDARD
  9
$DIMCLRD
 70
     0
  9
$DIMCLRE
 70
     0
  9
$DIMCLRT
 70
     0
  9
$DIMTFAC
 40
1.0
  9
$DIMGAP
 40
0.09
  9
$LUNITS
 70
     2
  9
$LUPREC
 70
     3
  9
$SKETCHINC
 40
0.1
  9
$FILLETRAD
 40
0.0
  9
$AUNITS
 70
     0
  9
$AUPREC
 70
     0
  9
$MENU
  1
acad
  9
$ELEVATION
 40
0.0
  9
$PELEVATION
 40
0.0
  9
$THICKNESS
 40
0.0
  9
$LIMCHECK
 70
     0
  9
$BLIPMODE
 70
     0
  9
$CHAMFERA
 40
0.0
  9
$CHAMFERB
 40
0.0
  9
$SKPOLY
 70
     0
  9
$TDCREATE
 40
2450128.6625711801
  9
$TDUPDATE
 40
2451982.5696192118
  9
$TDINDWG
 40
0.0040666667
  9
$TDUSRTIMER
 40
0.0040666667
  9
$USRTIMER
 70
     1
  9
$ANGBASE
 50
0.0
  9
$ANGDIR
 70
     0
  9
$PDMODE
 70
     0
  9
$PDSIZE
 40
0.0
  9
$PLINEWID
 40
0.0
  9
$COORDS
 70
     0
  9
$SPLFRAME
 70
     0
  9
$SPLINETYPE
 70
     6
  9
$SPLINESEGS
 70
     8
  9
$ATTDIA
 70
     0
  9
$ATTREQ
 70
     1
  9
$HANDLING
 70
  4097
  9
$HANDSEED
  5
90
  9
$SURFTAB1
 70
     6
  9
$SURFTAB2
 70
     6
  9
$SURFTYPE
 70
     6
  9
$SURFU
 70
     6
  9
$SURFV
 70
     6
  9
$UCSNAME
  2

  9
$UCSORG
 10
0.0
 20
0.0
 30
0.0
  9
$UCSXDIR
 10
1.0
 20
0.0
 30
0.0
  9
$UCSYDIR
 10
0.0
 20
1.0
 30
0.0
  9
$PUCSNAME
  2

  9
$PUCSORG
 10
0.0
 20
0.0
 30
0.0
  9
$PUCSXDIR
 10
1.0
 20
0.0
 30
0.0
  9
$PUCSYDIR
 10
0.0
 20
1.0
 30
0.0
  9
$USERI1
 70
     0
  9
$USERI2
 70
     0
  9
$USERI3
 70
     0
  9
$USERI4
 70
     0
  9
$USERI5
 70
     0
  9
$USERR1
 40
0.0
  9
$USERR2
 40
0.0
  9
$USERR3
 40
0.0
  9
$USERR4
 40
0.0
  9
$USERR5
 40
0.0
  9
$WORLDVIEW
 70
     1
  9
$SHADEDGE
 70
     3
  9
$SHADEDIF
 70
    70
  9
$TILEMODE
 70
     1
  9
$MAXACTVP
 70
    16
  9
$PLIMCHECK
 70
     0
  9
$PEXTMIN
 10
1.0000000000000000E+020
 20
1.0000000000000000E+020
 30
1.0000000000000000E+020
  9
$PEXTMAX
 10
-1.0000000000000000E+020
 20
-1.0000000000000000E+020
 30
-1.0000000000000000E+020
  9
$PLIMMIN
 10
0.0
 20
0.0
  9
$PLIMMAX
 10
12.0
 20
9.0
  9
$UNITMODE
 70
     0
  9
$VISRETAIN
 70
     0
  9
$PLINEGEN
 70
     0
  9
$PSLTSCALE
 70
     1
  0
ENDSEC
  0
SECTION
  2
TABLES
  0
TABLE
  2
VPORT
 70
     2
  0
VPORT
  2
*ACTIVE
 70
     0
 10
0.0
 20
0.0
 11
1.0
 21
1.0
 12
4.5291069016394561
 22
1.2038026668697761
 13
0.0
 23
0.0
 14
1.0
 24
1.0
 15
0.0
 25
0.0
 16
0.0
 26
0.0
 36
1.0
 17
0.0
 27
0.0
 37
0.0
 40
1.532163738409245
 41
1.8397565922920891
 42
50.0
 43
0.0
 44
0.0
 50
0.0
 51
0.0
 71
     0
 72
   100
 73
     1
 74
     0
 75
     0
 76
     0
 77
     0
 78
     0
  0
ENDTAB
  0
TABLE
  2
LTYPE
 70
     2
  0
LTYPE
  2
CONTINUOUS
 70
     0
  3
Solid line
 72
    65
 73
     0
 40
0.0
  0
LTYPE
  2
HIDDEN2
 70
     0
  3
_ _ _ _ _ _ _ _ _ _ _ _ _ _ _ _ _ _ _ _ _ _ _ _
 72
    65
 73
     2
 40
0.1875
 49
0.125
 49
-0.0625
  0
ENDTAB
  0
TABLE
  2
LAYER
 70
     1
  0
LAYER
  2
0
 70
     0
 62
     1
  6
CONTINUOUS
  0
ENDTAB
  0
TABLE
  2
STYLE
 70
     1
  0
STYLE
  2
STANDARD
 70
     0
 40
0.0
 41
1.0
 50
0.0
 71
     0
 42
0.2
  3
txt
  4

  0
ENDTAB
  0
TABLE
  2
VIEW
 70
     0
  0
ENDTAB
  0
TABLE
  2
UCS
 70
     0
  0
ENDTAB
  0
TABLE
  2
APPID
 70
     1
  0
APPID
  2
ACAD
 70
     0
  0
ENDTAB
  0
TABLE
  2
DIMSTYLE
 70
     1
  0
DIMSTYLE
  2
STANDARD
 70
     0
  3

  4

  5

  6

  7

 40
1.0
 41
0.18
 42
0.0625
 43
0.38
 44
0.18
 45
0.0
 46
0.0
 47
0.0
 48
0.0
140
0.18
141
0.09
142
0.0
143
25.399999999999999
144
1.0
145
0.0
146
1.0
147
0.09
 71
     0
 72
     0
 73
     1
 74
     1
 75
     0
 76
     0
 77
     0
 78
     0
170
     0
171
     2
172
     0
173
     0
174
     0
175
     0
176
     0
177
     0
178
     0
  0
ENDTAB
  0
ENDSEC
  0
SECTION
  2
BLOCKS
  0
BLOCK
  8
0
  2
$MODEL_SPACE
 70
     0
 10
0.0
 20
0.0
 30
0.0
  3
$MODEL_SPACE
  1

  0
ENDBLK
  5
9
  8
0
  0
BLOCK
 67
     1
  8
0
  2
$PAPER_SPACE
 70
     0
 10
0.0
 20
0.0
 30
0.0
  3
$PAPER_SPACE
  1

  0
ENDBLK
  5
E
 67
     1
  8
0
  0
ENDSEC
  0
SECTION
  2
ENTITIES
  0
ARC
  5
28
  8
0
 10
4.3499179856103343
 20
1.111281930924287
 30
0.0
 40
0.0311156547037117
 50
270.0
 51
22.08088169870755
  0
ARC
  5
2A
  8
0
 10
4.4921492950177573
 20
1.1112819309242861
 30
0.0
 40
0.0311156547037106
 50
157.9191183012916
 51
270.0
  0
ARC
  5
2B
  8
0
 10
4.4921492950177573
 20
1.1112819309242861
 30
0.0
 40
0.0371156547037106
 50
157.9191183012916
 51
270.0
  0
ARC
  5
2C
  8
0
 10
4.3499179856103343
 20
1.111281930924287
 30
0.0
 40
0.0371156547037117
 50
270.0
 51
22.08088169870755
  0
LINE
  5
2D
  8
0
 10
4.3355336403140461
 20
1.074166276220575
 30
0.0
 11
4.5065336403140472
 21
1.074166276220575
 31
0.0
  0
LINE
  5
2E
  8
0
 10
4.3355336403140461
 20
1.054166276220575
 30
0.0
 11
4.5065336403140472
 21
1.054166276220575
 31
0.0
  0
LINE
  5
2F
  8
0
 10
4.3330336403140457
 20
1.048166276220575
 30
0.0
 11
4.3800336403140472
 21
1.048166276220575
 31
0.0
  0
LINE
  5
30
  8
0
 10
4.326033640314046
 20
1.055166276220576
 30
0.0
 11
4.326033640314046
 21
1.0731662762205749
 31
0.0
  0
ARC
  5
31
  8
0
 10
4.3330336403140457
 20
1.0731662762205749
 30
0.0
 40
0.007
 50
90.0
 51
180.00001499999999
  0
ARC
  5
32
  8
0
 10
4.3330336403140457
 20
1.055166276220576
 30
0.0
 40
0.007
 50
180.0
 51
270.0
  0
LINE
  5
33
  8
0
 10
4.3320336403140471
 20
1.0706662762205761
 30
0.0
 11
4.3320336403140471
 21
1.0576662762205751
 31
0.0
  0
ARC
  5
34
  8
0
 10
4.3355336403140461
 20
1.0706662762205761
 30
0.0
 40
0.0035
 50
90.0
 51
179.99998500000001
  0
ARC
  5
35
  8
0
 10
4.3355336403140461
 20
1.0576662762205751
 30
0.0
 40
0.0035
 50
180.0
 51
270.0
  0
LINE
  5
36
  8
0
 10
4.3330336403140457
 20
1.0801662762205759
 30
0.0
 11
4.3499179856103343
 21
1.0801662762205759
 31
0.0
  0
LINE
  5
37
  8
0
 10
4.3860336403140474
 20
1.048166276220575
 30
0.0
 11
4.5090336403140459
 21
1.048166276220575
 31
0.0
  0
LINE
  5
38
  8
0
 10
4.4560336403140468
 20
1.0421662762205759
 30
0.0
 11
4.3860336403140474
 21
1.0421662762205759
 31
0.0
  0
LINE
  5
39
  8
0
 10
4.3860336403140474
 20
1.0421662762205759
 30
0.0
 11
4.3800336403140472
 21
1.048166276220575
 31
0.0
  0
LINE
  5
3A
  8
0
 10
4.3860336403140474
 20
1.048166276220575
 30
0.0
 11
4.3800336403140472
 21
1.054166276220575
 31
0.0
  0
LINE
  5
3B
  8
0
 10
4.4560336403140468
 20
1.0421662762205759
 30
0.0
 11
4.4560336403140468
 21
1.048166276220575
 31
0.0
  0
LINE
  5
3C
  8
0
 10
4.5160336403140464
 20
1.0731662762205749
 30
0.0
 11
4.5160336403140464
 21
1.055166276220576
 31
0.0
  0
ARC
  5
3D
  8
0
 10
4.5090336403140459
 20
1.055166276220576
 30
0.0
 40
0.007
 50
270.0
 51
0.0
  0
ARC
  5
3E
  8
0
 10
-4.5090336403140459
 20
1.0731662762205749
 30
0.0
 40
0.007
210
0.0
220
0.0
230
-1.0
 50
90.0
 51
179.99998500000001
  0
LINE
  5
3F
  8
0
 10
4.5100336403140462
 20
1.0576662762205751
 30
0.0
 11
4.5100336403140462
 21
1.0706662762205761
 31
0.0
  0
ARC
  5
40
  8
0
 10
4.5065336403140472
 20
1.0576662762205751
 30
0.0
 40
0.0035
 50
270.0
 51
0.0
  0
ARC
  5
41
  8
0
 10
-4.5065336403140472
 20
1.0706662762205761
 30
0.0
 40
0.0035
210
0.0
220
0.0
230
-1.0
 50
90.0
 51
180.00001499999999
  0
LINE
  5
42
  8
0
 10
4.4921492950177573
 20
1.0801662762205759
 30
0.0
 11
4.5090336403140459
 21
1.0801662762205759
 31
0.0
  0
ARC
  5
43
  8
0
 10
4.4210336403140467
 20
1.258166276220575
 30
0.0
 40
0.09
 50
337.91911830129141
 51
202.08088169870791
  0
LINE
  5
44
  8
0
 10
4.3787514351380699
 20
1.122978774770905
 30
0.0
 11
4.3376347698031639
 21
1.224333918964406
 31
0.0
  0
ARC
  5
45
  8
0
 10
4.4210336403140467
 20
1.258166276220575
 30
0.0
 40
0.084
 50
337.91911830129141
 51
202.08088169870791
  0
LINE
  5
46
  8
0
 10
4.3843113598387964
 20
1.1252342652546501
 30
0.0
 11
4.3431946945038904
 21
1.2265894094481511
 31
0.0
  0
LINE
  5
47
  8
0
 10
4.4633158454900217
 20
1.1229787747709039
 30
0.0
 11
4.5044325108249286
 21
1.2243339189644049
 31
0.0
  0
LINE
  5
48
  8
0
 10
4.4577559207892961
 20
1.1252342652546481
 30
0.0
 11
4.4988725861242029
 21
1.2265894094481491
 31
0.0
  0
ENDSEC
  0
EOF
