  0
SECTION
  2
HEADER
  9
$ACADVER
  1
AC1015
  9
$ACADMAINTVER
 70
    14
  9
$DWGCODEPAGE
  3
ANSI_1252
  9
$INSBASE
 10
0.0
 20
0.0
 30
0.0
  9
$EXTMIN
 10
3.114990256627777
 20
4.579620389942572
 30
-0.0015258207003583
  9
$EXTMAX
 10
4.986328140118075
 20
5.772857684377651
 30
0.0000000349246037
  9
$LIMMIN
 10
0.0
 20
0.0
  9
$LIMMAX
 10
8.0
 20
10.0
  9
$ORTHOMODE
 70
     0
  9
$REGENMODE
 70
     1
  9
$FILLMODE
 70
     1
  9
$QTEXTMODE
 70
     0
  9
$MIRRTEXT
 70
     1
  9
$LTSCALE
 40
0.6518518519
  9
$ATTMODE
 70
     1
  9
$TEXTSIZE
 40
0.2
  9
$TRACEWID
 40
0.05
  9
$TEXTSTYLE
  7
Standard
  9
$CLAYER
  8
0
  9
$CELTYPE
  6
ByLayer
  9
$CECOLOR
 62
   256
  9
$CELTSCALE
 40
1.0
  9
$DISPSILH
 70
     0
  9
$DIMSCALE
 40
1.0
  9
$DIMASZ
 40
0.1875
  9
$DIMEXO
 40
0.0740740741
  9
$DIMDLI
 40
0.4503703704000001
  9
$DIMRND
 40
0.0
  9
$DIMDLE
 40
0.0
  9
$DIMEXE
 40
0.2133333333
  9
$DIMTP
 40
0.0
  9
$DIMTM
 40
0.0
  9
$DIMTXT
 40
0.1339285714
  9
$DIMCEN
 40
0.1066666667
  9
$DIMTSZ
 40
0.0
  9
$DIMTOL
 70
     0
  9
$DIMLIM
 70
     0
  9
$DIMTIH
 70
     1
  9
$DIMTOH
 70
     1
  9
$DIMSE1
 70
     0
  9
$DIMSE2
 70
     0
  9
$DIMTAD
 70
     0
  9
$DIMZIN
 70
     0
  9
$DIMBLK
  1

  9
$DIMASO
 70
     1
  9
$DIMSHO
 70
     1
  9
$DIMPOST
  1

  9
$DIMAPOST
  1

  9
$DIMALT
 70
     0
  9
$DIMALTD
 70
     2
  9
$DIMALTF
 40
25.4
  9
$DIMLFAC
 40
1.0
  9
$DIMTOFL
 70
     0
  9
$DIMTVP
 40
0.0
  9
$DIMTIX
 70
     0
  9
$DIMSOXD
 70
     0
  9
$DIMSAH
 70
     0
  9
$DIMBLK1
  1

  9
$DIMBLK2
  1

  9
$DIMSTYLE
  2
Standard
  9
$DIMCLRD
 70
     0
  9
$DIMCLRE
 70
     0
  9
$DIMCLRT
 70
     0
  9
$DIMTFAC
 40
1.0
  9
$DIMGAP
 40
0.09
  9
$DIMJUST
 70
     0
  9
$DIMSD1
 70
     0
  9
$DIMSD2
 70
     0
  9
$DIMTOLJ
 70
     1
  9
$DIMTZIN
 70
     0
  9
$DIMALTZ
 70
     0
  9
$DIMALTTZ
 70
     0
  9
$DIMUPT
 70
     0
  9
$DIMDEC
 70
     4
  9
$DIMTDEC
 70
     4
  9
$DIMALTU
 70
     2
  9
$DIMALTTD
 70
     2
  9
$DIMTXSTY
  7
Standard
  9
$DIMAUNIT
 70
     0
  9
$DIMADEC
 70
     0
  9
$DIMALTRND
 40
0.0
  9
$DIMAZIN
 70
     0
  9
$DIMDSEP
 70
    46
  9
$DIMATFIT
 70
     3
  9
$DIMFRAC
 70
     0
  9
$DIMLDRBLK
  1

  9
$DIMLUNIT
 70
     2
  9
$DIMLWD
 70
    -2
  9
$DIMLWE
 70
    -2
  9
$DIMTMOVE
 70
     0
  9
$LUNITS
 70
     2
  9
$LUPREC
 70
     4
  9
$SKETCHINC
 40
0.1
  9
$FILLETRAD
 40
0.0
  9
$AUNITS
 70
     0
  9
$AUPREC
 70
     0
  9
$MENU
  1
.
  9
$ELEVATION
 40
0.0
  9
$PELEVATION
 40
0.0
  9
$THICKNESS
 40
0.0
  9
$LIMCHECK
 70
     0
  9
$CHAMFERA
 40
0.0
  9
$CHAMFERB
 40
0.0
  9
$CHAMFERC
 40
0.0
  9
$CHAMFERD
 40
0.0
  9
$SKPOLY
 70
     0
  9
$TDCREATE
 40
2453476.648294803
  9
$TDUCREATE
 40
2453476.814961469
  9
$TDUPDATE
 40
2453476.652939444
  9
$TDUUPDATE
 40
2453476.819606111
  9
$TDINDWG
 40
0.0046448264
  9
$TDUSRTIMER
 40
0.0046448264
  9
$USRTIMER
 70
     1
  9
$ANGBASE
 50
0.0
  9
$ANGDIR
 70
     0
  9
$PDMODE
 70
     0
  9
$PDSIZE
 40
0.0
  9
$PLINEWID
 40
0.0
  9
$SPLFRAME
 70
     0
  9
$SPLINETYPE
 70
     6
  9
$SPLINESEGS
 70
     8
  9
$HANDSEED
  5
4A4
  9
$SURFTAB1
 70
     6
  9
$SURFTAB2
 70
     6
  9
$SURFTYPE
 70
     6
  9
$SURFU
 70
     6
  9
$SURFV
 70
     6
  9
$UCSBASE
  2

  9
$UCSNAME
  2

  9
$UCSORG
 10
0.0
 20
0.0
 30
0.0
  9
$UCSXDIR
 10
1.0
 20
0.0
 30
0.0
  9
$UCSYDIR
 10
0.0
 20
1.0
 30
0.0
  9
$UCSORTHOREF
  2

  9
$UCSORTHOVIEW
 70
     0
  9
$UCSORGTOP
 10
0.0
 20
0.0
 30
0.0
  9
$UCSORGBOTTOM
 10
0.0
 20
0.0
 30
0.0
  9
$UCSORGLEFT
 10
0.0
 20
0.0
 30
0.0
  9
$UCSORGRIGHT
 10
0.0
 20
0.0
 30
0.0
  9
$UCSORGFRONT
 10
0.0
 20
0.0
 30
0.0
  9
$UCSORGBACK
 10
0.0
 20
0.0
 30
0.0
  9
$PUCSBASE
  2

  9
$PUCSNAME
  2

  9
$PUCSORG
 10
0.0
 20
0.0
 30
0.0
  9
$PUCSXDIR
 10
1.0
 20
0.0
 30
0.0
  9
$PUCSYDIR
 10
0.0
 20
1.0
 30
0.0
  9
$PUCSORTHOREF
  2

  9
$PUCSORTHOVIEW
 70
     0
  9
$PUCSORGTOP
 10
0.0
 20
0.0
 30
0.0
  9
$PUCSORGBOTTOM
 10
0.0
 20
0.0
 30
0.0
  9
$PUCSORGLEFT
 10
0.0
 20
0.0
 30
0.0
  9
$PUCSORGRIGHT
 10
0.0
 20
0.0
 30
0.0
  9
$PUCSORGFRONT
 10
0.0
 20
0.0
 30
0.0
  9
$PUCSORGBACK
 10
0.0
 20
0.0
 30
0.0
  9
$USERI1
 70
     0
  9
$USERI2
 70
     0
  9
$USERI3
 70
     0
  9
$USERI4
 70
     0
  9
$USERI5
 70
     0
  9
$USERR1
 40
0.0
  9
$USERR2
 40
0.0
  9
$USERR3
 40
0.0
  9
$USERR4
 40
0.0
  9
$USERR5
 40
0.0
  9
$WORLDVIEW
 70
     1
  9
$SHADEDGE
 70
     3
  9
$SHADEDIF
 70
    70
  9
$TILEMODE
 70
     1
  9
$MAXACTVP
 70
    64
  9
$PINSBASE
 10
0.0
 20
0.0
 30
0.0
  9
$PLIMCHECK
 70
     0
  9
$PEXTMIN
 10
1.000000000000000E+20
 20
1.000000000000000E+20
 30
1.000000000000000E+20
  9
$PEXTMAX
 10
-1.000000000000000E+20
 20
-1.000000000000000E+20
 30
-1.000000000000000E+20
  9
$PLIMMIN
 10
0.0
 20
0.0
  9
$PLIMMAX
 10
12.0
 20
9.0
  9
$UNITMODE
 70
     0
  9
$VISRETAIN
 70
     1
  9
$PLINEGEN
 70
     0
  9
$PSLTSCALE
 70
     1
  9
$TREEDEPTH
 70
  3020
  9
$CMLSTYLE
  2
Standard
  9
$CMLJUST
 70
     0
  9
$CMLSCALE
 40
1.0
  9
$PROXYGRAPHICS
 70
     1
  9
$MEASUREMENT
 70
     0
  9
$CELWEIGHT
370
    -1
  9
$ENDCAPS
280
     0
  9
$JOINSTYLE
280
     0
  9
$LWDISPLAY
290
     0
  9
$INSUNITS
 70
     0
  9
$HYPERLINKBASE
  1

  9
$STYLESHEET
  1

  9
$XEDIT
290
     1
  9
$CEPSNTYPE
380
     0
  9
$PSTYLEMODE
290
     1
  9
$FINGERPRINTGUID
  2
{D8F9FDAD-238A-4B0D-AE3E-3A441C406AC7}
  9
$VERSIONGUID
  2
{C872C648-CEC4-4B71-A9ED-5762227984A7}
  9
$EXTNAMES
290
     1
  9
$PSVPSCALE
 40
0.0
  9
$OLESTARTUP
290
     0
  0
ENDSEC
  0
SECTION
  2
CLASSES
  0
CLASS
  1
ACDBDICTIONARYWDFLT
  2
AcDbDictionaryWithDefault
  3
AutoCAD 2000
 90
        0
280
     0
281
     0
  0
CLASS
  1
ACDBPLACEHOLDER
  2
AcDbPlaceHolder
  3
AutoCAD 2000
 90
        0
280
     0
281
     0
  0
CLASS
  1
LAYOUT
  2
AcDbLayout
  3
AutoCAD 2000
 90
        0
280
     0
281
     0
  0
CLASS
  1
DICTIONARYVAR
  2
AcDbDictionaryVar
  3
AutoCAD 2000
 90
        0
280
     0
281
     0
  0
ENDSEC
  0
SECTION
  2
TABLES
  0
TABLE
  2
VPORT
  5
8
330
0
100
AcDbSymbolTable
 70
     4
  0
VPORT
  5
4A3
330
8
100
AcDbSymbolTableRecord
100
AcDbViewportTableRecord
  2
*Active
 70
     0
 10
0.0
 20
0.0
 11
1.0
 21
1.0
 12
4.272594098075497
 22
5.130385521455096
 13
0.0
 23
0.0
 14
1.0
 24
1.0
 15
0.0
 25
0.0
 16
0.0
 26
0.0
 36
1.0
 17
0.0
 27
0.0
 37
0.0
 40
2.207743099152807
 41
2.151057401812688
 42
50.0
 43
0.0
 44
0.0
 50
0.0
 51
0.0
 71
     0
 72
   100
 73
     1
 74
     1
 75
     0
 76
     0
 77
     0
 78
     0
281
     0
 65
     1
110
0.0
120
0.0
130
0.0
111
1.0
121
0.0
131
0.0
112
0.0
122
1.0
132
0.0
 79
     0
146
0.0
  0
ENDTAB
  0
TABLE
  2
LTYPE
  5
5
330
0
100
AcDbSymbolTable
 70
     6
  0
LTYPE
  5
13
330
5
100
AcDbSymbolTableRecord
100
AcDbLinetypeTableRecord
  2
ByBlock
 70
     0
  3

 72
    65
 73
     0
 40
0.0
  0
LTYPE
  5
14
330
5
100
AcDbSymbolTableRecord
100
AcDbLinetypeTableRecord
  2
ByLayer
 70
     0
  3

 72
    65
 73
     0
 40
0.0
  0
LTYPE
  5
15
330
5
100
AcDbSymbolTableRecord
100
AcDbLinetypeTableRecord
  2
CONTINUOUS
 70
     0
  3
Solid line
 72
    65
 73
     0
 40
0.0
  0
LTYPE
  5
22
330
5
100
AcDbSymbolTableRecord
100
AcDbLinetypeTableRecord
  2
CENTER
 70
     0
  3
____ _ ____ _ ____ _ ____ _ ____ _ ____ _ ____
 72
    65
 73
     4
 40
0.6
 49
0.375
 74
     0
 49
-0.075
 74
     0
 49
0.075
 74
     0
 49
-0.075
 74
     0
  0
LTYPE
  5
23
330
5
100
AcDbSymbolTableRecord
100
AcDbLinetypeTableRecord
  2
HIDDEN
 70
     0
  3
- - - - - - - - - - - - - - - - - - - -
 72
    65
 73
     2
 40
0.2
 49
0.1
 74
     0
 49
-0.1
 74
     0
  0
LTYPE
  5
24
330
5
100
AcDbSymbolTableRecord
100
AcDbLinetypeTableRecord
  2
PHANTOM
 70
     0
  3
_____ _ _ _____ _ _ _____ _ _ _____
 72
    65
 73
     6
 40
0.8
 49
0.45
 74
     0
 49
-0.05
 74
     0
 49
0.1
 74
     0
 49
-0.05
 74
     0
 49
0.1
 74
     0
 49
-0.05
 74
     0
  0
LTYPE
  5
25
330
5
100
AcDbSymbolTableRecord
100
AcDbLinetypeTableRecord
  2
DOT
 70
     0
  3
. . . . . . . . . . . . . . . . . . . .
 72
    65
 73
     2
 40
0.2
 49
0.1
 74
     0
 49
-0.1
 74
     0
  0
LTYPE
  5
26
330
5
100
AcDbSymbolTableRecord
100
AcDbLinetypeTableRecord
  2
DASHED
 70
     0
  3
- - - - - - - - - - - - - - - - - - - -
 72
    65
 73
     2
 40
0.2
 49
0.1
 74
     0
 49
-0.1
 74
     0
  0
ENDTAB
  0
TABLE
  2
LAYER
  5
2
330
0
100
AcDbSymbolTable
 70
     4
  0
LAYER
  5
10
330
2
100
AcDbSymbolTableRecord
100
AcDbLayerTableRecord
  2
0
 70
     0
 62
     7
  6
CONTINUOUS
370
    -3
390
F
  0
LAYER
  5
27
330
2
100
AcDbSymbolTableRecord
100
AcDbLayerTableRecord
  2
DEFAULT_1
 70
     0
 62
     7
  6
CENTER
370
    -3
390
F
  0
LAYER
  5
28
330
2
100
AcDbSymbolTableRecord
100
AcDbLayerTableRecord
  2
DEFAULT_2
 70
     0
 62
     8
  6
HIDDEN
370
    -3
390
F
  0
LAYER
  5
29
330
2
100
AcDbSymbolTableRecord
100
AcDbLayerTableRecord
  2
DEFAULT_3
 70
     0
 62
     7
  6
PHANTOM
370
    -3
390
F
  0
ENDTAB
  0
TABLE
  2
STYLE
  5
3
330
0
100
AcDbSymbolTable
 70
     1
  0
STYLE
  5
11
330
3
100
AcDbSymbolTableRecord
100
AcDbTextStyleTableRecord
  2
Standard
 70
     0
 40
0.0
 41
1.0
 50
0.0
 71
     0
 42
0.2
  3
txt
  4

  0
ENDTAB
  0
TABLE
  2
VIEW
  5
6
330
0
100
AcDbSymbolTable
 70
     0
  0
ENDTAB
  0
TABLE
  2
UCS
  5
7
330
0
100
AcDbSymbolTable
 70
     0
  0
ENDTAB
  0
TABLE
  2
APPID
  5
9
330
0
100
AcDbSymbolTable
 70
     2
  0
APPID
  5
12
330
9
100
AcDbSymbolTableRecord
100
AcDbRegAppTableRecord
  2
ACAD
 70
     0
  0
APPID
  5
49D
330
9
100
AcDbSymbolTableRecord
100
AcDbRegAppTableRecord
  2
DCO15
 70
     0
  0
ENDTAB
  0
TABLE
  2
DIMSTYLE
  5
A
330
0
100
AcDbSymbolTable
 70
     1
100
AcDbDimStyleTable
 71
     0
  0
DIMSTYLE
105
47D
330
A
100
AcDbSymbolTableRecord
100
AcDbDimStyleTableRecord
  2
Standard
 70
     0
340
11
  0
ENDTAB
  0
TABLE
  2
BLOCK_RECORD
  5
1
330
0
100
AcDbSymbolTable
 70
     5
  0
BLOCK_RECORD
  5
1E
330
1
100
AcDbSymbolTableRecord
100
AcDbBlockTableRecord
  2
*Model_Space
340
21
  0
BLOCK_RECORD
  5
1A
330
1
100
AcDbSymbolTableRecord
100
AcDbBlockTableRecord
  2
*Paper_Space
340
1D
  0
BLOCK_RECORD
  5
2C
330
1
100
AcDbSymbolTableRecord
100
AcDbBlockTableRecord
  2
*D0
340
0
  0
BLOCK_RECORD
  5
40
330
1
100
AcDbSymbolTableRecord
100
AcDbBlockTableRecord
  2
*D1
340
0
  0
BLOCK_RECORD
  5
4A
330
1
100
AcDbSymbolTableRecord
100
AcDbBlockTableRecord
  2
*D2
340
0
  0
BLOCK_RECORD
  5
53
330
1
100
AcDbSymbolTableRecord
100
AcDbBlockTableRecord
  2
*D3
340
0
  0
BLOCK_RECORD
  5
67
330
1
100
AcDbSymbolTableRecord
100
AcDbBlockTableRecord
  2
*D4
340
0
  0
ENDTAB
  0
ENDSEC
  0
SECTION
  2
BLOCKS
  0
BLOCK
  5
1F
330
1E
100
AcDbEntity
  8
0
100
AcDbBlockBegin
  2
*Model_Space
 70
     0
 10
0.0
 20
0.0
 30
0.0
  3
*Model_Space
  1

  0
ENDBLK
  5
20
330
1E
100
AcDbEntity
  8
0
100
AcDbBlockEnd
  0
BLOCK
  5
1B
330
1A
100
AcDbEntity
 67
     1
  8
0
100
AcDbBlockBegin
  2
*Paper_Space
 70
     0
 10
0.0
 20
0.0
 30
0.0
  3
*Paper_Space
  1

  0
ENDBLK
  5
1C
330
1A
100
AcDbEntity
 67
     1
  8
0
100
AcDbBlockEnd
  0
BLOCK
  5
2D
330
2C
100
AcDbEntity
  8
0
  6
Continuous
 62
     2
100
AcDbBlockBegin
  2
*D0
 70
     1
 10
0.0
 20
0.0
 30
0.0
  3
*D0
  1

  0
TEXT
  5
2E
330
2C
100
AcDbEntity
  8
0
  6
Continuous
 62
     2
100
AcDbText
 10
0.1904968383
 20
4.974717253799999
 30
0.0
 40
0.1
  1
.375
 41
1.066666666666666
 72
     5
 11
0.5104968383
 21
4.974717253799999
 31
0.0
100
AcDbText
  0
LINE
  5
2F
330
2C
100
AcDbEntity
  8
0
  6
Continuous
 62
     2
100
AcDbLine
 10
0.6877446552
 20
5.726538994299999
 30
0.0
 11
0.2254968383
 21
5.726538994299999
 31
0.0
  0
LINE
  5
30
330
2C
100
AcDbEntity
  8
0
  6
Continuous
 62
     2
100
AcDbLine
 10
5.7103282144
 20
4.2265389943
 30
0.0
 11
0.2254968383
 21
4.2265389943
 31
0.0
  0
LINE
  5
31
330
2C
100
AcDbEntity
  8
0
  6
Continuous
 62
     2
100
AcDbLine
 10
0.3504968383
 20
5.726538994299999
 30
0.0
 11
0.3504968383
 21
5.1247172538
 31
0.0
  0
LINE
  5
32
330
2C
100
AcDbEntity
  8
0
  6
Continuous
 62
     2
100
AcDbLine
 10
0.3504968383
 20
4.2265389943
 30
0.0
 11
0.3504968383
 21
4.924717253799999
 31
0.0
  0
LWPOLYLINE
  5
33
330
2C
100
AcDbEntity
  8
0
  6
Continuous
 62
     2
100
AcDbPolyline
 90
        4
 70
     0
 43
0.0
 10
0.3817468383
 20
5.539038994299999
 10
0.3504968383
 20
5.726538994299999
 10
0.3192468383
 20
5.539038994299999
 10
0.3817468383
 20
5.539038994299999
  0
LWPOLYLINE
  5
39
330
2C
100
AcDbEntity
  8
0
  6
Continuous
 62
     2
100
AcDbPolyline
 90
        4
 70
     0
 43
0.0
 10
0.3192468383
 20
4.4140389943
 10
0.3504968383
 20
4.2265389943
 10
0.3817468383
 20
4.4140389943
 10
0.3192468383
 20
4.4140389943
  0
ENDBLK
  5
3F
330
2C
100
AcDbEntity
  8
0
100
AcDbBlockEnd
  0
BLOCK
  5
41
330
40
100
AcDbEntity
  8
0
  6
Continuous
 62
     2
100
AcDbBlockBegin
  2
*D1
 70
     1
 10
0.0
 20
0.0
 30
0.0
  3
*D1
  1

  0
TEXT
  5
42
330
40
100
AcDbEntity
  8
0
  6
Continuous
 62
     2
100
AcDbText
 10
1.795224329999999
 20
4.5290683529
 30
0.0
 40
0.1
  1
11.0%%d
 41
1.364705882470588
 72
     5
 11
2.181890996699999
 21
4.5290683529
 31
0.0
100
AcDbText
  0
LINE
  5
43
330
40
100
AcDbEntity
  8
0
  6
Continuous
 62
     2
100
AcDbLine
 10
5.5657934357
 20
4.2265389943
 30
0.0
 11
1.848022550499999
 21
4.2265389943
 31
0.0
  0
LINE
  5
44
330
40
100
AcDbEntity
  8
0
  6
Continuous
 62
     2
100
AcDbLine
 10
5.9193111462
 20
4.238464556499999
 30
0.0
 11
1.923950792499999
 21
5.0150839372
 31
0.0
  0
ARC
  5
45
330
40
100
AcDbEntity
  8
0
  6
Continuous
 62
     2
100
AcDbCircle
 10
5.980662845199999
 20
4.2265389943
 30
0.0
 40
4.0076402947
100
AcDbArc
 50
176.3872859508
 51
180.0
  0
ARC
  5
46
330
40
100
AcDbEntity
  8
0
  6
Continuous
 62
     2
100
AcDbCircle
 10
5.980662845199999
 20
4.2265389943
 30
0.0
 40
4.0076402947
100
AcDbArc
 50
169.0
 51
173.5165242425999
  0
SOLID
  5
47
330
40
100
AcDbEntity
  8
0
  6
Continuous
 62
     2
100
AcDbTrace
 10
2.008649753899999
 20
4.4132567355
 30
0.0
 11
1.946166853799999
 21
4.414718653299999
 31
0.0
 12
1.973022550499999
 22
4.2265389943
 32
0.0
 13
1.973022550499999
 23
4.2265389943
 33
0.0
  0
SOLID
  5
48
330
40
100
AcDbEntity
  8
0
  6
Continuous
 62
     2
100
AcDbTrace
 10
1.984385536899999
 20
4.8116348526
 30
0.0
 11
2.0459993971
 21
4.801147611499999
 31
0.0
 12
2.046654190499999
 22
4.991232812699999
 32
0.0
 13
2.046654190499999
 23
4.991232812699999
 33
0.0
  0
ENDBLK
  5
49
330
40
100
AcDbEntity
  8
0
100
AcDbBlockEnd
  0
BLOCK
  5
4B
330
4A
100
AcDbEntity
  8
0
  6
Continuous
 62
     2
100
AcDbBlockBegin
  2
*D2
 70
     1
 10
0.0
 20
0.0
 30
0.0
  3
*D2
  1

  0
TEXT
  5
4C
330
4A
100
AcDbEntity
  8
0
  6
Continuous
 62
     2
100
AcDbText
 10
5.962643782
 20
6.733223727799999
 30
0.0
 40
0.1
  1
10.0%%d
 41
1.288888888999997
 72
     5
 11
6.349310448699999
 21
6.733223727799999
 31
0.0
100
AcDbText
  0
LINE
  5
4D
330
4A
100
AcDbEntity
  8
0
  6
Continuous
 62
     2
100
AcDbLine
 10
7.387961603599999
 20
5.7522450762
 30
0.0
 11
7.117119589299999
 21
7.288266467799999
 31
0.0
  0
LINE
  5
4E
330
4A
100
AcDbEntity
  8
0
  6
Continuous
 62
     2
100
AcDbLine
 10
7.608662845199999
 20
4.5630861375
 30
0.0
 11
7.608662845199999
 21
7.331270930399999
 31
0.0
  0
ARC
  5
4F
330
4A
100
AcDbEntity
  8
0
  6
Continuous
 62
     2
100
AcDbCircle
 10
7.608662845199999
 20
4.5005861375
 30
0.0
 40
2.7056847929
100
AcDbArc
 50
118.2846573562
 51
90.0
  0
SOLID
  5
50
330
4A
100
AcDbEntity
  8
0
  6
Continuous
 62
     2
100
AcDbTrace
 10
7.3288512758
 20
7.1603634745
 30
0.0
 11
7.320137031499999
 21
7.2222529885
 31
0.0
 12
7.138825611599999
 22
7.1651654987
 32
0.0
 13
7.138825611599999
 23
7.1651654987
 33
0.0
  0
SOLID
  5
51
330
4A
100
AcDbEntity
  8
0
  6
Continuous
 62
     2
100
AcDbTrace
 10
7.4201928145
 20
7.231006735299999
 30
0.0
 11
7.422357960499999
 21
7.1685442494
 31
0.0
 12
7.608662845199999
 22
7.206270930399999
 32
0.0
 13
7.608662845199999
 23
7.206270930399999
 33
0.0
  0
ENDBLK
  5
52
330
4A
100
AcDbEntity
  8
0
100
AcDbBlockEnd
  0
BLOCK
  5
54
330
53
100
AcDbEntity
  8
0
  6
Continuous
 62
     2
100
AcDbBlockBegin
  2
*D3
 70
     1
 10
0.0
 20
0.0
 30
0.0
  3
*D3
  1

  0
TEXT
  5
55
330
53
100
AcDbEntity
  8
0
  6
Continuous
 62
     2
100
AcDbText
 10
6.670472749199999
 20
3.384834688299999
 30
0.0
 40
0.1
  1
.407
 41
1.12941176470588
 72
     5
 11
6.990472749199999
 21
3.384834688299999
 31
0.0
100
AcDbText
  0
LINE
  5
56
330
53
100
AcDbEntity
  8
0
  6
Continuous
 62
     2
100
AcDbLine
 10
7.608662845199999
 20
4.1640389943
 30
0.0
 11
7.608662845199999
 21
3.3098346883
 31
0.0
  0
LINE
  5
57
330
53
100
AcDbEntity
  8
0
  6
Continuous
 62
     2
100
AcDbLine
 10
5.980662845199999
 20
4.1640389943
 30
0.0
 11
5.980662845199999
 21
3.3098346883
 31
0.0
  0
LINE
  5
58
330
53
100
AcDbEntity
  8
0
  6
Continuous
 62
     2
100
AcDbLine
 10
7.608662845199999
 20
3.4348346883
 30
0.0
 11
7.040472749199999
 21
3.4348346883
 31
0.0
  0
LINE
  5
59
330
53
100
AcDbEntity
  8
0
  6
Continuous
 62
     2
100
AcDbLine
 10
5.980662845199999
 20
3.4348346883
 30
0.0
 11
6.620472749199999
 21
3.4348346883
 31
0.0
  0
LWPOLYLINE
  5
5A
330
53
100
AcDbEntity
  8
0
  6
Continuous
 62
     2
100
AcDbPolyline
 90
        4
 70
     0
 43
0.0
 10
7.421162845199999
 20
3.4035846883
 10
7.608662845199999
 20
3.4348346883
 10
7.421162845199999
 20
3.4660846883
 10
7.421162845199999
 20
3.4035846883
  0
LWPOLYLINE
  5
60
330
53
100
AcDbEntity
  8
0
  6
Continuous
 62
     2
100
AcDbPolyline
 90
        4
 70
     0
 43
0.0
 10
6.168162845199999
 20
3.4660846883
 10
5.980662845199999
 20
3.4348346883
 10
6.168162845199999
 20
3.4035846883
 10
6.168162845199999
 20
3.4660846883
  0
ENDBLK
  5
66
330
53
100
AcDbEntity
  8
0
100
AcDbBlockEnd
  0
BLOCK
  5
68
330
67
100
AcDbEntity
  8
0
  6
Continuous
 62
     2
100
AcDbBlockBegin
  2
*D4
 70
     1
 10
0.0
 20
0.0
 30
0.0
  3
*D4
  1

  0
TEXT
  5
69
330
67
100
AcDbEntity
  8
0
  6
Continuous
 62
     2
100
AcDbText
 10
3.473651951499999
 20
7.904296616199999
 30
0.0
 40
0.1
  1
1.750
 41
1.142857142857142
 72
     5
 11
3.873651951499999
 21
7.904296616199999
 31
0.0
100
AcDbText
  0
LINE
  5
6A
330
67
100
AcDbEntity
  8
0
  6
Continuous
 62
     2
100
AcDbLine
 10
7.608662845199999
 20
5.5392007611
 30
0.0
 11
7.608662845199999
 21
8.0792966162
 31
0.0
  0
LINE
  5
6B
330
67
100
AcDbEntity
  8
0
  6
Continuous
 62
     2
100
AcDbLine
 10
0.6086628452000001
 20
5.5392007611
 30
0.0
 11
0.6086628452000001
 21
8.0792966162
 31
0.0
  0
LINE
  5
6C
330
67
100
AcDbEntity
  8
0
  6
Continuous
 62
     2
100
AcDbLine
 10
7.608662845199999
 20
7.954296616199999
 30
0.0
 11
3.923651951499999
 21
7.954296616199999
 31
0.0
  0
LINE
  5
6D
330
67
100
AcDbEntity
  8
0
  6
Continuous
 62
     2
100
AcDbLine
 10
0.6086628452000001
 20
7.954296616199999
 30
0.0
 11
3.423651951499999
 21
7.954296616199999
 31
0.0
  0
LWPOLYLINE
  5
6E
330
67
100
AcDbEntity
  8
0
  6
Continuous
 62
     2
100
AcDbPolyline
 90
        4
 70
     0
 43
0.0
 10
7.421162845199999
 20
7.923046616199999
 10
7.608662845199999
 20
7.954296616199999
 10
7.421162845199999
 20
7.985546616199999
 10
7.421162845199999
 20
7.923046616199999
  0
LWPOLYLINE
  5
74
330
67
100
AcDbEntity
  8
0
  6
Continuous
 62
     2
100
AcDbPolyline
 90
        4
 70
     0
 43
0.0
 10
0.7961628452
 20
7.985546616199999
 10
0.6086628452000001
 20
7.954296616199999
 10
0.7961628452
 20
7.923046616199999
 10
0.7961628452
 20
7.985546616199999
  0
ENDBLK
  5
7A
330
67
100
AcDbEntity
  8
0
100
AcDbBlockEnd
  0
ENDSEC
  0
SECTION
  2
ENTITIES
  0
TEXT
  5
88
330
1E
100
AcDbEntity
  8
0
  6
Continuous
 62
     2
100
AcDbText
 10
1.0625
 20
9.6090625
 30
0.0
 40
0.15625
  1
 
 41
0.8
 72
     5
 11
1.1875
 21
9.6090625
 31
0.0
100
AcDbText
  0
TEXT
  5
8E
330
1E
100
AcDbEntity
  8
0
  6
Continuous
 62
     2
100
AcDbText
 10
1.0625
 20
8.834687499999999
 30
0.0
 40
0.15625
  1
 
 41
0.8
 72
     5
 11
1.1875
 21
8.834687499999999
 31
0.0
100
AcDbText
  0
LINE
  5
F8
330
1E
100
AcDbEntity
  8
0
  6
Continuous
 62
     7
100
AcDbLine
 10
3.419669824375
 20
5.1732622763
 30
0.0
 11
3.419669824375
 21
5.179262276299999
 31
0.0
  0
LINE
  5
F9
330
1E
100
AcDbEntity
  8
0
  6
Continuous
 62
     7
100
AcDbLine
 10
3.619669824375
 20
5.1842622763
 30
0.0
 11
3.619669824375
 21
5.179262276299999
 31
0.0
  0
LINE
  5
FA
330
1E
100
AcDbEntity
  8
0
  6
Continuous
 62
     7
100
AcDbLine
 10
3.619669824375
 20
5.178262276299999
 30
0.0
 11
3.630062129225
 21
5.1842622763
 31
0.0
  0
LINE
  5
FB
330
1E
100
AcDbEntity
  8
0
  6
Continuous
 62
     7
100
AcDbLine
 10
3.631401875175
 20
5.179262276299999
 30
0.0
 11
3.621009570325
 21
5.1732622763
 31
0.0
  0
LINE
  5
FD
330
1E
100
AcDbEntity
  8
0
  6
Continuous
 62
     7
100
AcDbLine
 10
4.906669824375
 20
4.8092622763
 30
0.0
 11
4.562669824374999
 21
4.8092622763
 31
0.0
  0
LINE
  5
FE
330
1E
100
AcDbEntity
  8
0
  6
Continuous
 62
     7
100
AcDbLine
 10
4.5631512696
 20
4.8142622763
 30
0.0
 11
4.906669824375
 21
4.8142622763
 31
0.0
  0
LINE
  5
100
330
1E
100
AcDbEntity
  8
0
  6
Continuous
 62
     7
100
AcDbLine
 10
4.562669824374999
 20
4.8092622763
 30
0.0
 11
3.2702115371
 21
5.060490717725
 31
0.0
  0
LINE
  5
101
330
1E
100
AcDbEntity
  8
0
  6
Continuous
 62
     7
100
AcDbLine
 10
3.271165582075
 20
5.065398853649999
 30
0.0
 11
4.5631512696
 21
4.8142622763
 31
0.0
  0
LINE
  5
103
330
1E
100
AcDbEntity
  8
0
  6
Continuous
 62
     7
100
AcDbLine
 10
3.621009570325
 20
5.1732622763
 30
0.0
 11
3.419669824375
 21
5.1732622763
 31
0.0
  0
LINE
  5
104
330
1E
100
AcDbEntity
  8
0
  6
Continuous
 62
     7
100
AcDbLine
 10
3.419669824375
 20
5.178262276299999
 30
0.0
 11
3.619669824375
 21
5.178262276299999
 31
0.0
  0
LINE
  5
105
330
1E
100
AcDbEntity
  8
0
  6
Continuous
 62
     7
100
AcDbLine
 10
4.862764406175
 20
5.179262276299999
 30
0.0
 11
3.631401875175
 21
5.179262276299999
 31
0.0
  0
LINE
  5
106
330
1E
100
AcDbEntity
  8
0
  6
Continuous
 62
     7
100
AcDbLine
 10
3.619669824375
 20
5.179262276299999
 30
0.0
 11
3.28212938265
 21
5.179262276299999
 31
0.0
  0
LINE
  5
107
330
1E
100
AcDbEntity
  8
0
  6
Continuous
 62
     7
100
AcDbLine
 10
3.28212938265
 20
5.1842622763
 30
0.0
 11
4.862764406175
 21
5.1842622763
 31
0.0
  0
LINE
  5
10A
330
1E
100
AcDbEntity
  8
0
  6
Continuous
 62
     7
100
AcDbLine
 10
4.96378867405
 20
4.8823338706
 30
0.0
 11
4.91988325585
 21
5.131333870599999
 31
0.0
  0
LINE
  5
10B
330
1E
100
AcDbEntity
  8
0
  6
Continuous
 62
     7
100
AcDbLine
 10
4.924807294625
 20
5.132202111499999
 30
0.0
 11
4.9687127128
 21
4.8832021115
 31
0.0
  0
ARC
  5
11E
330
1E
100
AcDbEntity
  8
0
  6
Continuous
 62
     7
100
AcDbCircle
 10
3.28212938265
 20
5.121802717999999
 30
0.0
 40
0.0624595583
100
AcDbArc
 50
90.0
 51
259.0
  0
ARC
  5
11F
330
1E
100
AcDbEntity
  8
0
  6
Continuous
 62
     7
100
AcDbCircle
 10
4.906669824375
 20
4.872262276299999
 30
0.0
 40
0.063
100
AcDbArc
 50
270.0
 51
10.0
  0
ARC
  5
120
330
1E
100
AcDbEntity
  8
0
  6
Continuous
 62
     7
100
AcDbCircle
 10
4.862764406175
 20
5.121262276299999
 30
0.0
 40
0.063
100
AcDbArc
 50
10.0
 51
90.0
  0
ARC
  5
121
330
1E
100
AcDbEntity
  8
0
  6
Continuous
 62
     7
100
AcDbCircle
 10
3.28212938265
 20
5.121802717999999
 30
0.0
 40
0.0574595583
100
AcDbArc
 50
90.0
 51
259.0
  0
ARC
  5
122
330
1E
100
AcDbEntity
  8
0
  6
Continuous
 62
     7
100
AcDbCircle
 10
4.906669824375
 20
4.872262276299999
 30
0.0
 40
0.058
100
AcDbArc
 50
270.0
 51
10.0
  0
ARC
  5
123
330
1E
100
AcDbEntity
  8
0
  6
Continuous
 62
     7
100
AcDbCircle
 10
4.862764406175
 20
5.121262276299999
 30
0.0
 40
0.058
100
AcDbArc
 50
10.0
 51
90.0
  0
CIRCLE
  5
124
330
1E
100
AcDbEntity
  8
0
  6
Continuous
 62
     4
100
AcDbCircle
 10
3.2429643188
 20
5.118869610475
 30
0.0
 40
0.005420348875
  0
CIRCLE
  5
125
330
1E
100
AcDbEntity
  8
0
  6
Continuous
 62
     4
100
AcDbCircle
 10
3.25599572135
 20
5.14071637355
 30
0.0
 40
0.006560637675
  0
CIRCLE
  5
126
330
1E
100
AcDbEntity
  8
0
  6
Continuous
 62
     4
100
AcDbCircle
 10
3.254845891725
 20
5.102005442474999
 30
0.0
 40
0.00499731475
  0
CIRCLE
  5
127
330
1E
100
AcDbEntity
  8
0
  6
Continuous
 62
     4
100
AcDbCircle
 10
3.2732431659
 20
5.095873017749999
 30
0.0
 40
0.00767510685
  0
CIRCLE
  5
128
330
1E
100
AcDbEntity
  8
0
  6
Continuous
 62
     4
100
AcDbCircle
 10
3.299305970975
 20
5.081308509024999
 30
0.0
 40
0.00874004995
  0
CIRCLE
  5
129
330
1E
100
AcDbEntity
  8
0
  6
Continuous
 62
     4
100
AcDbCircle
 10
3.274009718975
 20
5.157580541549999
 30
0.0
 40
0.0051135469
  0
CIRCLE
  5
12A
330
1E
100
AcDbEntity
  8
0
  6
Continuous
 62
     4
100
AcDbCircle
 10
3.283591632625
 20
5.126535141375
 30
0.0
 40
0.00499731475
  0
CIRCLE
  5
12B
330
1E
100
AcDbEntity
  8
0
  6
Continuous
 62
     4
100
AcDbCircle
 10
3.300455800625
 20
5.147998627925
 30
0.0
 40
0.006239290125
  0
CIRCLE
  5
12C
330
1E
100
AcDbEntity
  8
0
  6
Continuous
 62
     4
100
AcDbCircle
 10
3.3357172428
 20
5.153747776099999
 30
0.0
 40
0.006856259275
  0
CIRCLE
  5
12D
330
1E
100
AcDbEntity
  8
0
  6
Continuous
 62
     4
100
AcDbCircle
 10
3.3686790257
 20
5.151064840274999
 30
0.0
 40
0.0085703241
  0
CIRCLE
  5
12E
330
1E
100
AcDbEntity
  8
0
  6
Continuous
 62
     4
100
AcDbCircle
 10
3.4024073617
 20
5.134967225375
 30
0.0
 40
0.004615260775
  0
CIRCLE
  5
12F
330
1E
100
AcDbEntity
  8
0
  6
Continuous
 62
     4
100
AcDbCircle
 10
3.307354778425
 20
5.124235482099999
 30
0.0
 40
0.006060134275
  0
CIRCLE
  5
130
330
1E
100
AcDbEntity
  8
0
  6
Continuous
 62
     4
100
AcDbCircle
 10
3.320769457525
 20
5.116569951199999
 30
0.0
 40
0.006239290125
  0
CIRCLE
  5
131
330
1E
100
AcDbEntity
  8
0
  6
Continuous
 62
     4
100
AcDbCircle
 10
3.328818264975
 20
5.092423528824999
 30
0.0
 40
0.0072923336
  0
CIRCLE
  5
132
330
1E
100
AcDbEntity
  8
0
  6
Continuous
 62
     4
100
AcDbCircle
 10
3.350281751525
 20
5.069043659574999
 30
0.0
 40
0.006321158725
  0
CIRCLE
  5
133
330
1E
100
AcDbEntity
  8
0
  6
Continuous
 62
     4
100
AcDbCircle
 10
3.3525814108
 20
5.126535141375
 30
0.0
 40
0.005487685
  0
CIRCLE
  5
134
330
1E
100
AcDbEntity
  8
0
  6
Continuous
 62
     4
100
AcDbCircle
 10
3.362163324425
 20
5.0989392301
 30
0.0
 40
0.004233427825
  0
CIRCLE
  5
135
330
1E
100
AcDbEntity
  8
0
  6
Continuous
 62
     4
100
AcDbCircle
 10
3.37672783315
 20
5.076709190475
 30
0.0
 40
0.004848107425
  0
CIRCLE
  5
136
330
1E
100
AcDbEntity
  8
0
  6
Continuous
 62
     4
100
AcDbCircle
 10
3.40125753205
 20
5.067510553374999
 30
0.0
 40
0.008890033175
  0
CIRCLE
  5
137
330
1E
100
AcDbEntity
  8
0
  6
Continuous
 62
     4
100
AcDbCircle
 10
3.39780804315
 20
5.165629348999999
 30
0.0
 40
0.005580590725
  0
CIRCLE
  5
138
330
1E
100
AcDbEntity
  8
0
  6
Continuous
 62
     4
100
AcDbCircle
 10
3.391292341875
 20
5.11120407955
 30
0.0
 40
0.0057619099
  0
CIRCLE
  5
139
330
1E
100
AcDbEntity
  8
0
  6
Continuous
 62
     4
100
AcDbCircle
 10
3.420038082775
 20
5.104305101749999
 30
0.0
 40
0.00614439045
  0
CIRCLE
  5
13A
330
1E
100
AcDbEntity
  8
0
  6
Continuous
 62
     4
100
AcDbCircle
 10
3.431919655675
 20
5.07824229665
 30
0.0
 40
0.006060134275
  0
CIRCLE
  5
13B
330
1E
100
AcDbEntity
  8
0
  6
Continuous
 62
     4
100
AcDbCircle
 10
3.445717611325
 20
5.0575453632
 30
0.0
 40
0.005213124625
  0
CIRCLE
  5
13C
330
1E
100
AcDbEntity
  8
0
  6
Continuous
 62
     4
100
AcDbCircle
 10
3.473313522575
 20
5.053329321199999
 30
0.0
 40
0.008466855625
  0
CIRCLE
  5
13D
330
1E
100
AcDbEntity
  8
0
  6
Continuous
 62
     4
100
AcDbCircle
 10
3.487111478225
 20
5.070960042299999
 30
0.0
 40
0.008085227575
  0
CIRCLE
  5
13E
330
1E
100
AcDbEntity
  8
0
  6
Continuous
 62
     4
100
AcDbCircle
 10
3.5089582413
 20
5.03761498285
 30
0.0
 40
0.00586300375
  0
CIRCLE
  5
13F
330
1E
100
AcDbEntity
  8
0
  6
Continuous
 62
     4
100
AcDbCircle
 10
3.490560967125
 20
5.03684842975
 30
0.0
 40
0.00586300375
  0
CIRCLE
  5
140
330
1E
100
AcDbEntity
  8
0
  6
Continuous
 62
     4
100
AcDbCircle
 10
3.42732033715
 20
5.146082245199999
 30
0.0
 40
0.005041215875
  0
CIRCLE
  5
141
330
1E
100
AcDbEntity
  8
0
  6
Continuous
 62
     4
100
AcDbCircle
 10
3.44265139895
 20
5.157580541549999
 30
0.0
 40
0.006909616175
  0
CIRCLE
  5
142
330
1E
100
AcDbEntity
  8
0
  6
Continuous
 62
     4
100
AcDbCircle
 10
3.4641148855
 20
5.157580541549999
 30
0.0
 40
0.004615260775
  0
CIRCLE
  5
143
330
1E
100
AcDbEntity
  8
0
  6
Continuous
 62
     4
100
AcDbCircle
 10
3.473696799125
 20
5.146082245199999
 30
0.0
 40
0.005837894425
  0
CIRCLE
  5
144
330
1E
100
AcDbEntity
  8
0
  6
Continuous
 62
     4
100
AcDbCircle
 10
3.482512159675
 20
5.126151864825
 30
0.0
 40
0.005487685
  0
CIRCLE
  5
145
330
1E
100
AcDbEntity
  8
0
  6
Continuous
 62
     4
100
AcDbCircle
 10
3.4422681224
 20
5.129984630274999
 30
0.0
 40
0.004662760425
  0
CIRCLE
  5
146
330
1E
100
AcDbEntity
  8
0
  6
Continuous
 62
     4
100
AcDbCircle
 10
3.45185003605
 20
5.107371314099999
 30
0.0
 40
0.00499731475
  0
CIRCLE
  5
147
330
1E
100
AcDbEntity
  8
0
  6
Continuous
 62
     4
100
AcDbCircle
 10
3.466031268225
 20
5.0912736992
 30
0.0
 40
0.004370024975
  0
CIRCLE
  5
148
330
1E
100
AcDbEntity
  8
0
  6
Continuous
 62
     4
100
AcDbCircle
 10
3.444567781675
 20
5.0905071461
 30
0.0
 40
0.0051135469
  0
CIRCLE
  5
149
330
1E
100
AcDbEntity
  8
0
  6
Continuous
 62
     4
100
AcDbCircle
 10
3.458365737325
 20
5.072109871924999
 30
0.0
 40
0.006424885675
  0
CIRCLE
  5
14A
330
1E
100
AcDbEntity
  8
0
  6
Continuous
 62
     4
100
AcDbCircle
 10
3.514707389475
 20
5.154897605724999
 30
0.0
 40
0.006378993025
  0
CIRCLE
  5
14B
330
1E
100
AcDbEntity
  8
0
  6
Continuous
 62
     4
100
AcDbCircle
 10
3.508191688225
 20
5.113887015375
 30
0.0
 40
0.005986971025
  0
CIRCLE
  5
14C
330
1E
100
AcDbEntity
  8
0
  6
Continuous
 62
     4
100
AcDbCircle
 10
3.51700704875
 20
5.084757997924999
 30
0.0
 40
0.00342812965
  0
CIRCLE
  5
14D
330
1E
100
AcDbEntity
  8
0
  6
Continuous
 62
     4
100
AcDbCircle
 10
3.5223729204
 20
5.070193489199999
 30
0.0
 40
0.006239290125
  0
CIRCLE
  5
14E
330
1E
100
AcDbEntity
  8
0
  6
Continuous
 62
     4
100
AcDbCircle
 10
3.531954834025
 20
5.042214301399999
 30
0.0
 40
0.00614439045
  0
CIRCLE
  5
14F
330
1E
100
AcDbEntity
  8
0
  6
Continuous
 62
     4
100
AcDbCircle
 10
3.545369513125
 20
5.028799622299999
 30
0.0
 40
0.006132424725
  0
CIRCLE
  5
150
330
1E
100
AcDbEntity
  8
0
  6
Continuous
 62
     4
100
AcDbCircle
 10
3.5748818071
 20
5.024966856849999
 30
0.0
 40
0.00428516205
  0
CIRCLE
  5
151
330
1E
100
AcDbEntity
  8
0
  6
Continuous
 62
     4
100
AcDbCircle
 10
3.593662357825
 20
5.024200303749999
 30
0.0
 40
0.006526964375
  0
CIRCLE
  5
152
330
1E
100
AcDbEntity
  8
0
  6
Continuous
 62
     4
100
AcDbCircle
 10
3.6128261851
 20
5.0203675383
 30
0.0
 40
0.00804880745
  0
CIRCLE
  5
153
330
1E
100
AcDbEntity
  8
0
  6
Continuous
 62
     4
100
AcDbCircle
 10
3.643871585275
 20
5.01998426175
 30
0.0
 40
0.0057619099
  0
CIRCLE
  5
154
330
1E
100
AcDbEntity
  8
0
  6
Continuous
 62
     4
100
AcDbCircle
 10
3.5434531304
 20
5.131134459924999
 30
0.0
 40
0.006239290125
  0
CIRCLE
  5
155
330
1E
100
AcDbEntity
  8
0
  6
Continuous
 62
     4
100
AcDbCircle
 10
3.54651934275
 20
5.096639570824999
 30
0.0
 40
0.0076655309
  0
CIRCLE
  5
156
330
1E
100
AcDbEntity
  8
0
  6
Continuous
 62
     4
100
AcDbCircle
 10
3.553801597125
 20
5.07824229665
 30
0.0
 40
0.005379542675
  0
CIRCLE
  5
157
330
1E
100
AcDbEntity
  8
0
  6
Continuous
 62
     4
100
AcDbCircle
 10
3.560317298375
 20
5.060228299024999
 30
0.0
 40
0.005041215875
  0
CIRCLE
  5
158
330
1E
100
AcDbEntity
  8
0
  6
Continuous
 62
     4
100
AcDbCircle
 10
3.589446315825
 20
5.060611575574999
 30
0.0
 40
0.00459931855
  0
CIRCLE
  5
159
330
1E
100
AcDbEntity
  8
0
  6
Continuous
 62
     4
100
AcDbCircle
 10
3.610526525825
 20
5.059461745924999
 30
0.0
 40
0.00737247155
  0
CIRCLE
  5
15A
330
1E
100
AcDbEntity
  8
0
  6
Continuous
 62
     4
100
AcDbCircle
 10
3.544602960025
 20
5.153364499549999
 30
0.0
 40
0.004233427825
  0
CIRCLE
  5
15B
330
1E
100
AcDbEntity
  8
0
  6
Continuous
 62
     4
100
AcDbCircle
 10
3.566066446575
 20
5.156047435374999
 30
0.0
 40
0.006909616175
  0
CIRCLE
  5
15C
330
1E
100
AcDbEntity
  8
0
  6
Continuous
 62
     4
100
AcDbCircle
 10
3.570282488575
 20
5.127684970999999
 30
0.0
 40
0.005420348875
  0
CIRCLE
  5
15D
330
1E
100
AcDbEntity
  8
0
  6
Continuous
 62
     4
100
AcDbCircle
 10
3.57258214785
 20
5.090123869574999
 30
0.0
 40
0.0057619099
  0
CIRCLE
  5
15E
330
1E
100
AcDbEntity
  8
0
  6
Continuous
 62
     4
100
AcDbCircle
 10
3.58867976275
 20
5.106988037549999
 30
0.0
 40
0.00459931855
  0
CIRCLE
  5
15F
330
1E
100
AcDbEntity
  8
0
  6
Continuous
 62
     4
100
AcDbCircle
 10
3.602860994925
 20
5.095106464649999
 30
0.0
 40
0.00474086905
  0
CIRCLE
  5
160
330
1E
100
AcDbEntity
  8
0
  6
Continuous
 62
     4
100
AcDbCircle
 10
3.5932790813
 20
5.159496924275
 30
0.0
 40
0.006060134275
  0
CIRCLE
  5
161
330
1E
100
AcDbEntity
  8
0
  6
Continuous
 62
     4
100
AcDbCircle
 10
3.594428910925
 20
5.136117054999999
 30
0.0
 40
0.00614439045
  0
CIRCLE
  5
162
330
1E
100
AcDbEntity
  8
0
  6
Continuous
 62
     4
100
AcDbCircle
 10
3.618575333275
 20
5.14071637355
 30
0.0
 40
0.00586300375
  0
CIRCLE
  5
163
330
1E
100
AcDbEntity
  8
0
  6
Continuous
 62
     4
100
AcDbCircle
 10
3.62930707655
 20
5.1089044203
 30
0.0
 40
0.01203512765
  0
CIRCLE
  5
164
330
1E
100
AcDbEntity
  8
0
  6
Continuous
 62
     4
100
AcDbCircle
 10
3.64540469145
 20
5.157580541549999
 30
0.0
 40
0.00614439045
  0
CIRCLE
  5
165
330
1E
100
AcDbEntity
  8
0
  6
Continuous
 62
     4
100
AcDbCircle
 10
3.6549866051
 20
5.124235482099999
 30
0.0
 40
0.0057619099
  0
CIRCLE
  5
166
330
1E
100
AcDbEntity
  8
0
  6
Continuous
 62
     4
100
AcDbCircle
 10
3.643871585275
 20
5.082075062099999
 30
0.0
 40
0.006060134275
  0
CIRCLE
  5
167
330
1E
100
AcDbEntity
  8
0
  6
Continuous
 62
     4
100
AcDbCircle
 10
3.641188649475
 20
5.043364131025
 30
0.0
 40
0.0057619099
  0
CIRCLE
  5
168
330
1E
100
AcDbEntity
  8
0
  6
Continuous
 62
     4
100
AcDbCircle
 10
3.666101624925
 20
5.013468560475
 30
0.0
 40
0.006909616175
  0
CIRCLE
  5
169
330
1E
100
AcDbEntity
  8
0
  6
Continuous
 62
     4
100
AcDbCircle
 10
3.689481494175
 20
5.013085283949999
 30
0.0
 40
0.006898977825
  0
CIRCLE
  5
16A
330
1E
100
AcDbEntity
  8
0
  6
Continuous
 62
     4
100
AcDbCircle
 10
3.681049410175
 20
5.151448116824999
 30
0.0
 40
0.006132424725
  0
CIRCLE
  5
16B
330
1E
100
AcDbEntity
  8
0
  6
Continuous
 62
     4
100
AcDbCircle
 10
3.68833166455
 20
5.13228428955
 30
0.0
 40
0.006239290125
  0
CIRCLE
  5
16C
330
1E
100
AcDbEntity
  8
0
  6
Continuous
 62
     4
100
AcDbCircle
 10
3.678366474375
 20
5.100472336299999
 30
0.0
 40
0.006560637675
  0
CIRCLE
  5
16D
330
1E
100
AcDbEntity
  8
0
  6
Continuous
 62
     4
100
AcDbCircle
 10
3.673767155825
 20
5.06981021265
 30
0.0
 40
0.0061920221
  0
CIRCLE
  5
16E
330
1E
100
AcDbEntity
  8
0
  6
Continuous
 62
     4
100
AcDbCircle
 10
3.6718507731
 20
5.048730002674999
 30
0.0
 40
0.008057927925
  0
CIRCLE
  5
16F
330
1E
100
AcDbEntity
  8
0
  6
Continuous
 62
     4
100
AcDbCircle
 10
3.6971470251
 20
5.036465153199999
 30
0.0
 40
0.005213124625
  0
CIRCLE
  5
170
330
1E
100
AcDbEntity
  8
0
  6
Continuous
 62
     4
100
AcDbCircle
 10
3.71707740545
 20
5.000437157949999
 30
0.0
 40
0.006526964375
  0
CIRCLE
  5
171
330
1E
100
AcDbEntity
  8
0
  6
Continuous
 62
     4
100
AcDbCircle
 10
3.739307445075
 20
5.001970264125
 30
0.0
 40
0.005749148175
  0
CIRCLE
  5
172
330
1E
100
AcDbEntity
  8
0
  6
Continuous
 62
     4
100
AcDbCircle
 10
3.705579109075
 20
5.11963616355
 30
0.0
 40
0.00881536055
  0
CIRCLE
  5
173
330
1E
100
AcDbEntity
  8
0
  6
Continuous
 62
     4
100
AcDbCircle
 10
3.709795151075
 20
5.089357316474999
 30
0.0
 40
0.005213124625
  0
CIRCLE
  5
174
330
1E
100
AcDbEntity
  8
0
  6
Continuous
 62
     4
100
AcDbCircle
 10
3.714394469625
 20
5.064444341025
 30
0.0
 40
0.005213124625
  0
CIRCLE
  5
175
330
1E
100
AcDbEntity
  8
0
  6
Continuous
 62
     4
100
AcDbCircle
 10
3.7201436178
 20
5.031482558125
 30
0.0
 40
0.004615260775
  0
CIRCLE
  5
176
330
1E
100
AcDbEntity
  8
0
  6
Continuous
 62
     4
100
AcDbCircle
 10
3.722826553625
 20
5.148765180999999
 30
0.0
 40
0.007322488125
  0
CIRCLE
  5
177
330
1E
100
AcDbEntity
  8
0
  6
Continuous
 62
     4
100
AcDbCircle
 10
3.7370077858
 20
5.124235482099999
 30
0.0
 40
0.005041215875
  0
CIRCLE
  5
178
330
1E
100
AcDbEntity
  8
0
  6
Continuous
 62
     4
100
AcDbCircle
 10
3.735857956175
 20
5.088590763374999
 30
0.0
 40
0.004216042
  0
CIRCLE
  5
179
330
1E
100
AcDbEntity
  8
0
  6
Continuous
 62
     4
100
AcDbCircle
 10
3.739307445075
 20
5.041447748299999
 30
0.0
 40
0.005447383225
  0
CIRCLE
  5
17A
330
1E
100
AcDbEntity
  8
0
  6
Continuous
 62
     4
100
AcDbCircle
 10
3.753105400725
 20
5.16103003045
 30
0.0
 40
0.006941433475
  0
CIRCLE
  5
17B
330
1E
100
AcDbEntity
  8
0
  6
Continuous
 62
     4
100
AcDbCircle
 10
3.764220420525
 20
5.146465521725
 30
0.0
 40
0.007441884375
  0
CIRCLE
  5
17C
330
1E
100
AcDbEntity
  8
0
  6
Continuous
 62
     4
100
AcDbCircle
 10
3.76766990945
 20
5.111970632649999
 30
0.0
 40
0.007530189325
  0
CIRCLE
  5
17D
330
1E
100
AcDbEntity
  8
0
  6
Continuous
 62
     4
100
AcDbCircle
 10
3.773419057625
 20
5.071726595374999
 30
0.0
 40
0.006594139025
  0
CIRCLE
  5
17E
330
1E
100
AcDbEntity
  8
0
  6
Continuous
 62
     4
100
AcDbCircle
 10
3.773419057625
 20
5.0379982594
 30
0.0
 40
0.006424885675
  0
CIRCLE
  5
17F
330
1E
100
AcDbEntity
  8
0
  6
Continuous
 62
     4
100
AcDbCircle
 10
3.773035781075
 20
5.003886646849999
 30
0.0
 40
0.00614439045
  0
CIRCLE
  5
180
330
1E
100
AcDbEntity
  8
0
  6
Continuous
 62
     4
100
AcDbCircle
 10
3.79564909725
 20
4.985106096124999
 30
0.0
 40
0.005379542675
  0
CIRCLE
  5
181
330
1E
100
AcDbEntity
  8
0
  6
Continuous
 62
     4
100
AcDbCircle
 10
3.82592794435
 20
4.983956266499999
 30
0.0
 40
0.006560637675
  0
CIRCLE
  5
182
330
1E
100
AcDbEntity
  8
0
  6
Continuous
 62
     4
100
AcDbCircle
 10
3.863872322325
 20
4.981656607225
 30
0.0
 40
0.005749148175
  0
CIRCLE
  5
183
330
1E
100
AcDbEntity
  8
0
  6
Continuous
 62
     4
100
AcDbCircle
 10
3.884952532325
 20
4.964409162675
 30
0.0
 40
0.006898977825
  0
CIRCLE
  5
184
330
1E
100
AcDbEntity
  8
0
  6
Continuous
 62
     4
100
AcDbCircle
 10
3.8010149689
 20
5.053329321199999
 30
0.0
 40
0.006560637675
  0
CIRCLE
  5
185
330
1E
100
AcDbEntity
  8
0
  6
Continuous
 62
     4
100
AcDbCircle
 10
3.801398245425
 20
5.025350133399999
 30
0.0
 40
0.0112790154
  0
CIRCLE
  5
186
330
1E
100
AcDbEntity
  8
0
  6
Continuous
 62
     4
100
AcDbCircle
 10
3.801398245425
 20
5.095489741199999
 30
0.0
 40
0.006515701275
  0
CIRCLE
  5
187
330
1E
100
AcDbEntity
  8
0
  6
Continuous
 62
     4
100
AcDbCircle
 10
3.79564909725
 20
5.136883608099999
 30
0.0
 40
0.0061920221
  0
CIRCLE
  5
188
330
1E
100
AcDbEntity
  8
0
  6
Continuous
 62
     4
100
AcDbCircle
 10
3.789899949075
 20
5.16256313665
 30
0.0
 40
0.00499731475
  0
CIRCLE
  5
189
330
1E
100
AcDbEntity
  8
0
  6
Continuous
 62
     4
100
AcDbCircle
 10
3.814812924525
 20
5.16256313665
 30
0.0
 40
0.00614439045
  0
CIRCLE
  5
18A
330
1E
100
AcDbEntity
  8
0
  6
Continuous
 62
     4
100
AcDbCircle
 10
3.82861088015
 20
5.146465521725
 30
0.0
 40
0.005487685
  0
CIRCLE
  5
18B
330
1E
100
AcDbEntity
  8
0
  6
Continuous
 62
     4
100
AcDbCircle
 10
3.844325218525
 20
5.162946413174999
 30
0.0
 40
0.0061801486
  0
CIRCLE
  5
18C
330
1E
100
AcDbEntity
  8
0
  6
Continuous
 62
     4
100
AcDbCircle
 10
3.8627224927
 20
5.162946413174999
 30
0.0
 40
0.0057619099
  0
CIRCLE
  5
18D
330
1E
100
AcDbEntity
  8
0
  6
Continuous
 62
     4
100
AcDbCircle
 10
3.8830361496
 20
5.163329689724999
 30
0.0
 40
0.00804880745
  0
CIRCLE
  5
18E
330
1E
100
AcDbEntity
  8
0
  6
Continuous
 62
     4
100
AcDbCircle
 10
3.901816700325
 20
5.134200672274999
 30
0.0
 40
0.007322488125
  0
CIRCLE
  5
18F
330
1E
100
AcDbEntity
  8
0
  6
Continuous
 62
     4
100
AcDbCircle
 10
3.8155794776
 20
5.1200194401
 30
0.0
 40
0.006560637675
  0
CIRCLE
  5
190
330
1E
100
AcDbEntity
  8
0
  6
Continuous
 62
     4
100
AcDbCircle
 10
3.834360028325
 20
5.103921825199999
 30
0.0
 40
0.00499731475
  0
CIRCLE
  5
191
330
1E
100
AcDbEntity
  8
0
  6
Continuous
 62
     4
100
AcDbCircle
 10
3.835893134525
 20
5.069043659574999
 30
0.0
 40
0.005580590725
  0
CIRCLE
  5
192
330
1E
100
AcDbEntity
  8
0
  6
Continuous
 62
     4
100
AcDbCircle
 10
3.855440238325
 20
5.052562768125
 30
0.0
 40
0.006526964375
  0
CIRCLE
  5
193
330
1E
100
AcDbEntity
  8
0
  6
Continuous
 62
     4
100
AcDbCircle
 10
3.8542904087
 20
5.030332728474999
 30
0.0
 40
0.006549432475
  0
CIRCLE
  5
194
330
1E
100
AcDbEntity
  8
0
  6
Continuous
 62
     4
100
AcDbCircle
 10
3.826694497425
 20
5.023050474125
 30
0.0
 40
0.006560637675
  0
CIRCLE
  5
195
330
1E
100
AcDbEntity
  8
0
  6
Continuous
 62
     4
100
AcDbCircle
 10
3.8493078136
 20
5.000437157949999
 30
0.0
 40
0.006321158725
  0
CIRCLE
  5
196
330
1E
100
AcDbEntity
  8
0
  6
Continuous
 62
     4
100
AcDbCircle
 10
3.983837881025
 20
4.999287328299999
 30
0.0
 40
0.00499731475
  0
CIRCLE
  5
197
330
1E
100
AcDbEntity
  8
0
  6
Continuous
 62
     4
100
AcDbCircle
 10
3.996869283575
 20
4.965558992324999
 30
0.0
 40
0.0082738035
  0
CIRCLE
  5
198
330
1E
100
AcDbEntity
  8
0
  6
Continuous
 62
     4
100
AcDbCircle
 10
3.9616078414
 20
4.962876056499999
 30
0.0
 40
0.0092702229
  0
CIRCLE
  5
199
330
1E
100
AcDbEntity
  8
0
  6
Continuous
 62
     4
100
AcDbCircle
 10
3.927496228875
 20
4.9866392023
 30
0.0
 40
0.006909616175
  0
CIRCLE
  5
19A
330
1E
100
AcDbEntity
  8
0
  6
Continuous
 62
     4
100
AcDbCircle
 10
3.871921129775
 20
5.0912736992
 30
0.0
 40
0.006909616175
  0
CIRCLE
  5
19B
330
1E
100
AcDbEntity
  8
0
  6
Continuous
 62
     4
100
AcDbCircle
 10
3.884952532325
 20
5.0583119163
 30
0.0
 40
0.0072011125
  0
CIRCLE
  5
19C
330
1E
100
AcDbEntity
  8
0
  6
Continuous
 62
     4
100
AcDbCircle
 10
3.888785297775
 20
5.033398940849999
 30
0.0
 40
0.00499731475
  0
CIRCLE
  5
19D
330
1E
100
AcDbEntity
  8
0
  6
Continuous
 62
     4
100
AcDbCircle
 10
3.89453444595
 20
5.00733613575
 30
0.0
 40
0.006132424725
  0
CIRCLE
  5
19E
330
1E
100
AcDbEntity
  8
0
  6
Continuous
 62
     4
100
AcDbCircle
 10
3.909865507775
 20
4.964792439225
 30
0.0
 40
0.0057619099
  0
CIRCLE
  5
19F
330
1E
100
AcDbEntity
  8
0
  6
Continuous
 62
     4
100
AcDbCircle
 10
3.917531038675
 20
5.031865834675
 30
0.0
 40
0.005379542675
  0
CIRCLE
  5
1A0
330
1E
100
AcDbEntity
  8
0
  6
Continuous
 62
     4
100
AcDbCircle
 10
3.923280186875
 20
5.159113647725
 30
0.0
 40
0.00767510685
  0
CIRCLE
  5
1A1
330
1E
100
AcDbEntity
  8
0
  6
Continuous
 62
     4
100
AcDbCircle
 10
3.855056961775
 20
5.13228428955
 30
0.0
 40
0.00614439045
  0
CIRCLE
  5
1A2
330
1E
100
AcDbEntity
  8
0
  6
Continuous
 62
     4
100
AcDbCircle
 10
3.87498734215
 20
5.126535141375
 30
0.0
 40
0.00586300375
  0
CIRCLE
  5
1A3
330
1E
100
AcDbEntity
  8
0
  6
Continuous
 62
     4
100
AcDbCircle
 10
3.892618063225
 20
5.11120407955
 30
0.0
 40
0.008440790325
  0
CIRCLE
  5
1A4
330
1E
100
AcDbEntity
  8
0
  6
Continuous
 62
     4
100
AcDbCircle
 10
3.902583253425
 20
5.085907827574999
 30
0.0
 40
0.00499731475
  0
CIRCLE
  5
1A5
330
1E
100
AcDbEntity
  8
0
  6
Continuous
 62
     4
100
AcDbCircle
 10
3.921747080675
 20
5.083991444849999
 30
0.0
 40
0.00586300375
  0
CIRCLE
  5
1A6
330
1E
100
AcDbEntity
  8
0
  6
Continuous
 62
     4
100
AcDbCircle
 10
3.9336286536
 20
5.065594170649999
 30
0.0
 40
0.007817338325
  0
CIRCLE
  5
1A7
330
1E
100
AcDbEntity
  8
0
  6
Continuous
 62
     4
100
AcDbCircle
 10
3.9573917994
 20
5.1621798601
 30
0.0
 40
0.00716019675
  0
CIRCLE
  5
1A8
330
1E
100
AcDbEntity
  8
0
  6
Continuous
 62
     4
100
AcDbCircle
 10
3.983837881025
 20
5.156047435374999
 30
0.0
 40
0.006515701275
  0
CIRCLE
  5
1A9
330
1E
100
AcDbEntity
  8
0
  6
Continuous
 62
     4
100
AcDbCircle
 10
3.99840238975
 20
5.119252887025
 30
0.0
 40
0.008440790325
  0
CIRCLE
  5
1AA
330
1E
100
AcDbEntity
  8
0
  6
Continuous
 62
     4
100
AcDbCircle
 10
4.00683447375
 20
5.148381904449999
 30
0.0
 40
0.0057619099
  0
CIRCLE
  5
1AB
330
1E
100
AcDbEntity
  8
0
  6
Continuous
 62
     4
100
AcDbCircle
 10
3.96697371305
 20
5.134200672274999
 30
0.0
 40
0.005749148175
  0
CIRCLE
  5
1AC
330
1E
100
AcDbEntity
  8
0
  6
Continuous
 62
     4
100
AcDbCircle
 10
3.9370781425
 20
5.117719780825
 30
0.0
 40
0.00459931855
  0
CIRCLE
  5
1AD
330
1E
100
AcDbEntity
  8
0
  6
Continuous
 62
     4
100
AcDbCircle
 10
3.934395206675
 20
5.138416714274999
 30
0.0
 40
0.00499731475
  0
CIRCLE
  5
1AE
330
1E
100
AcDbEntity
  8
0
  6
Continuous
 62
     4
100
AcDbCircle
 10
3.960458011775
 20
5.09932250665
 30
0.0
 40
0.00474086905
  0
CIRCLE
  5
1AF
330
1E
100
AcDbEntity
  8
0
  6
Continuous
 62
     4
100
AcDbCircle
 10
3.9826880514
 20
5.0920402523
 30
0.0
 40
0.006994140625
  0
CIRCLE
  5
1B0
330
1E
100
AcDbEntity
  8
0
  6
Continuous
 62
     4
100
AcDbCircle
 10
3.997252560125
 20
5.055628980474999
 30
0.0
 40
0.00459931855
  0
CIRCLE
  5
1B1
330
1E
100
AcDbEntity
  8
0
  6
Continuous
 62
     4
100
AcDbCircle
 10
3.9616078414
 20
5.044897237199999
 30
0.0
 40
0.0061801486
  0
CIRCLE
  5
1B2
330
1E
100
AcDbEntity
  8
0
  6
Continuous
 62
     4
100
AcDbCircle
 10
3.951259374675
 20
5.017684602474999
 30
0.0
 40
0.0058000266
  0
CIRCLE
  5
1B3
330
1E
100
AcDbEntity
  8
0
  6
Continuous
 62
     4
100
AcDbCircle
 10
3.95777507595
 20
4.983572989949999
 30
0.0
 40
0.005749148175
  0
CIRCLE
  5
1B4
330
1E
100
AcDbEntity
  8
0
  6
Continuous
 62
     4
100
AcDbCircle
 10
3.975405797025
 20
5.026499963024999
 30
0.0
 40
0.004216042
  0
CIRCLE
  5
1B5
330
1E
100
AcDbEntity
  8
0
  6
Continuous
 62
     4
100
AcDbCircle
 10
4.00683447375
 20
5.023050474125
 30
0.0
 40
0.006515701275
  0
CIRCLE
  5
1B6
330
1E
100
AcDbEntity
  8
0
  6
Continuous
 62
     4
100
AcDbCircle
 10
4.014116728125
 20
4.992388350499999
 30
0.0
 40
0.006132424725
  0
CIRCLE
  5
1B7
330
1E
100
AcDbEntity
  8
0
  6
Continuous
 62
     4
100
AcDbCircle
 10
4.02369864175
 20
4.970541587399999
 30
0.0
 40
0.006060134275
  0
CIRCLE
  5
1B8
330
1E
100
AcDbEntity
  8
0
  6
Continuous
 62
     4
100
AcDbCircle
 10
4.0290645134
 20
4.942945676124999
 30
0.0
 40
0.006526964375
  0
CIRCLE
  5
1B9
330
1E
100
AcDbEntity
  8
0
  6
Continuous
 62
     4
100
AcDbCircle
 10
4.06164301975
 20
4.9341303156
 30
0.0
 40
0.006941433475
  0
CIRCLE
  5
1BA
330
1E
100
AcDbEntity
  8
0
  6
Continuous
 62
     4
100
AcDbCircle
 10
4.093071696475
 20
4.931447379774999
 30
0.0
 40
0.009142571725
  0
CIRCLE
  5
1BB
330
1E
100
AcDbEntity
  8
0
  6
Continuous
 62
     4
100
AcDbCircle
 10
4.135615393
 20
4.923015295775
 30
0.0
 40
0.008848626175
  0
CIRCLE
  5
1BC
330
1E
100
AcDbEntity
  8
0
  6
Continuous
 62
     4
100
AcDbCircle
 10
4.059726637025
 20
5.022667197575
 30
0.0
 40
0.0085703241
  0
CIRCLE
  5
1BD
330
1E
100
AcDbEntity
  8
0
  6
Continuous
 62
     4
100
AcDbCircle
 10
4.06164301975
 20
4.987405755399999
 30
0.0
 40
0.009650656825
  0
CIRCLE
  5
1BE
330
1E
100
AcDbEntity
  8
0
  6
Continuous
 62
     4
100
AcDbCircle
 10
4.093071696475
 20
4.970924863949999
 30
0.0
 40
0.00459931855
  0
CIRCLE
  5
1BF
330
1E
100
AcDbEntity
  8
0
  6
Continuous
 62
     4
100
AcDbCircle
 10
4.0190993232
 20
5.066744000299999
 30
0.0
 40
0.006909616175
  0
CIRCLE
  5
1C0
330
1E
100
AcDbEntity
  8
0
  6
Continuous
 62
     4
100
AcDbCircle
 10
4.0317474492
 20
5.03684842975
 30
0.0
 40
0.00716019675
  0
CIRCLE
  5
1C1
330
1E
100
AcDbEntity
  8
0
  6
Continuous
 62
     4
100
AcDbCircle
 10
4.038646427025
 20
5.119252887025
 30
0.0
 40
0.006132424725
  0
CIRCLE
  5
1C2
330
1E
100
AcDbEntity
  8
0
  6
Continuous
 62
     4
100
AcDbCircle
 10
4.0401795332
 20
5.151448116824999
 30
0.0
 40
0.005365871625
  0
CIRCLE
  5
1C3
330
1E
100
AcDbEntity
  8
0
  6
Continuous
 62
     4
100
AcDbCircle
 10
4.06240957285
 20
5.152214669924999
 30
0.0
 40
0.003908669175
  0
CIRCLE
  5
1C4
330
1E
100
AcDbEntity
  8
0
  6
Continuous
 62
     4
100
AcDbCircle
 10
4.080806847025
 20
5.155280882275
 30
0.0
 40
0.005487685
  0
CIRCLE
  5
1C5
330
1E
100
AcDbEntity
  8
0
  6
Continuous
 62
     4
100
AcDbCircle
 10
4.10303688665
 20
5.157963818099999
 30
0.0
 40
0.0070672703
  0
CIRCLE
  5
1C6
330
1E
100
AcDbEntity
  8
0
  6
Continuous
 62
     4
100
AcDbCircle
 10
4.133315733725
 20
5.154897605724999
 30
0.0
 40
0.007441884375
  0
CIRCLE
  5
1C7
330
1E
100
AcDbEntity
  8
0
  6
Continuous
 62
     4
100
AcDbCircle
 10
4.165127687
 20
5.149531734099999
 30
0.0
 40
0.005487685
  0
CIRCLE
  5
1C8
330
1E
100
AcDbEntity
  8
0
  6
Continuous
 62
     4
100
AcDbCircle
 10
4.198856023
 20
5.154131052649999
 30
0.0
 40
0.005379542675
  0
CIRCLE
  5
1C9
330
1E
100
AcDbEntity
  8
0
  6
Continuous
 62
     4
100
AcDbCircle
 10
4.228368317
 20
5.155664158825
 30
0.0
 40
0.005379542675
  0
CIRCLE
  5
1CA
330
1E
100
AcDbEntity
  8
0
  6
Continuous
 62
     4
100
AcDbCircle
 10
4.18505806735
 20
5.12040271665
 30
0.0
 40
0.006132424725
  0
CIRCLE
  5
1CB
330
1E
100
AcDbEntity
  8
0
  6
Continuous
 62
     4
100
AcDbCircle
 10
4.208437936625
 20
5.115036845024999
 30
0.0
 40
0.004216042
  0
CIRCLE
  5
1CC
330
1E
100
AcDbEntity
  8
0
  6
Continuous
 62
     4
100
AcDbCircle
 10
4.2276017639
 20
5.121552546274999
 30
0.0
 40
0.00459931855
  0
CIRCLE
  5
1CD
330
1E
100
AcDbEntity
  8
0
  6
Continuous
 62
     4
100
AcDbCircle
 10
4.2233857219
 20
5.03684842975
 30
0.0
 40
0.0049825951
  0
CIRCLE
  5
1CE
330
1E
100
AcDbEntity
  8
0
  6
Continuous
 62
     4
100
AcDbCircle
 10
4.2184031268
 20
4.999287328299999
 30
0.0
 40
0.006515701275
  0
CIRCLE
  5
1CF
330
1E
100
AcDbEntity
  8
0
  6
Continuous
 62
     4
100
AcDbCircle
 10
4.2226191688
 20
4.961342950325
 30
0.0
 40
0.004848107425
  0
CIRCLE
  5
1D0
330
1E
100
AcDbEntity
  8
0
  6
Continuous
 62
     4
100
AcDbCircle
 10
4.063559402475
 20
5.087057657199999
 30
0.0
 40
0.00499731475
  0
CIRCLE
  5
1D1
330
1E
100
AcDbEntity
  8
0
  6
Continuous
 62
     4
100
AcDbCircle
 10
4.03289727885
 20
5.0912736992
 30
0.0
 40
0.00533842455
  0
CIRCLE
  5
1D2
330
1E
100
AcDbEntity
  8
0
  6
Continuous
 62
     4
100
AcDbCircle
 10
4.050527999925
 20
5.052562768125
 30
0.0
 40
0.006239290125
  0
CIRCLE
  5
1D3
330
1E
100
AcDbEntity
  8
0
  6
Continuous
 62
     4
100
AcDbCircle
 10
4.0359634912
 20
5.003120093749999
 30
0.0
 40
0.0057619099
  0
CIRCLE
  5
1D4
330
1E
100
AcDbEntity
  8
0
  6
Continuous
 62
     4
100
AcDbCircle
 10
4.0900054841
 20
5.003503370299999
 30
0.0
 40
0.005379542675
  0
CIRCLE
  5
1D5
330
1E
100
AcDbEntity
  8
0
  6
Continuous
 62
     4
100
AcDbCircle
 10
4.126416755925
 20
4.998520775224999
 30
0.0
 40
0.0066936371
  0
CIRCLE
  5
1D6
330
1E
100
AcDbEntity
  8
0
  6
Continuous
 62
     4
100
AcDbCircle
 10
4.138298328825
 20
4.976674012124999
 30
0.0
 40
0.006549432475
  0
CIRCLE
  5
1D7
330
1E
100
AcDbEntity
  8
0
  6
Continuous
 62
     4
100
AcDbCircle
 10
4.156695603000001
 20
4.952527589775
 30
0.0
 40
0.00383276545
  0
CIRCLE
  5
1D8
330
1E
100
AcDbEntity
  8
0
  6
Continuous
 62
     4
100
AcDbCircle
 10
4.177775813
 20
4.913050105599999
 30
0.0
 40
0.009581913625
  0
CIRCLE
  5
1D9
330
1E
100
AcDbEntity
  8
0
  6
Continuous
 62
     4
100
AcDbCircle
 10
4.22798504045
 20
4.90346819195
 30
0.0
 40
0.006132424725
  0
CIRCLE
  5
1DA
330
1E
100
AcDbEntity
  8
0
  6
Continuous
 62
     4
100
AcDbCircle
 10
4.219936233
 20
4.919565806875
 30
0.0
 40
0.0058000266
  0
CIRCLE
  5
1DB
330
1E
100
AcDbEntity
  8
0
  6
Continuous
 62
     4
100
AcDbCircle
 10
4.18505806735
 20
4.96594226885
 30
0.0
 40
0.006526964375
  0
CIRCLE
  5
1DC
330
1E
100
AcDbEntity
  8
0
  6
Continuous
 62
     4
100
AcDbCircle
 10
4.192723598275
 20
4.947544994674999
 30
0.0
 40
0.005379542675
  0
CIRCLE
  5
1DD
330
1E
100
AcDbEntity
  8
0
  6
Continuous
 62
     4
100
AcDbCircle
 10
4.1237338201
 20
4.953677419399999
 30
0.0
 40
0.005420348875
  0
CIRCLE
  5
1DE
330
1E
100
AcDbEntity
  8
0
  6
Continuous
 62
     4
100
AcDbCircle
 10
4.150179901725
 20
5.013468560475
 30
0.0
 40
0.00448613695
  0
CIRCLE
  5
1DF
330
1E
100
AcDbEntity
  8
0
  6
Continuous
 62
     4
100
AcDbCircle
 10
4.18160857845
 20
5.0203675383
 30
0.0
 40
0.004615260775
  0
CIRCLE
  5
1E0
330
1E
100
AcDbEntity
  8
0
  6
Continuous
 62
     4
100
AcDbCircle
 10
4.1896573859
 20
5.056012257024999
 30
0.0
 40
0.008057927925
  0
CIRCLE
  5
1E1
330
1E
100
AcDbEntity
  8
0
  6
Continuous
 62
     4
100
AcDbCircle
 10
4.218019850275
 20
5.086291104099999
 30
0.0
 40
0.006941433475
  0
CIRCLE
  5
1E2
330
1E
100
AcDbEntity
  8
0
  6
Continuous
 62
     4
100
AcDbCircle
 10
4.23220108245
 20
5.071726595374999
 30
0.0
 40
0.005379542675
  0
CIRCLE
  5
1E3
330
1E
100
AcDbEntity
  8
0
  6
Continuous
 62
     4
100
AcDbCircle
 10
4.237950230625
 20
5.028416345749999
 30
0.0
 40
0.004370024975
  0
CIRCLE
  5
1E4
330
1E
100
AcDbEntity
  8
0
  6
Continuous
 62
     4
100
AcDbCircle
 10
4.205371724275
 20
5.022667197575
 30
0.0
 40
0.006515701275
  0
CIRCLE
  5
1E5
330
1E
100
AcDbEntity
  8
0
  6
Continuous
 62
     4
100
AcDbCircle
 10
4.06240957285
 20
5.127684970999999
 30
0.0
 40
0.006321158725
  0
CIRCLE
  5
1E6
330
1E
100
AcDbEntity
  8
0
  6
Continuous
 62
     4
100
AcDbCircle
 10
4.0788904643
 20
5.113503738824999
 30
0.0
 40
0.006909616175
  0
CIRCLE
  5
1E7
330
1E
100
AcDbEntity
  8
0
  6
Continuous
 62
     4
100
AcDbCircle
 10
4.093071696475
 20
5.126918417925
 30
0.0
 40
0.006994140625
  0
CIRCLE
  5
1E8
330
1E
100
AcDbEntity
  8
0
  6
Continuous
 62
     4
100
AcDbCircle
 10
4.113002076825
 20
5.125768588275
 30
0.0
 40
0.005487685
  0
CIRCLE
  5
1E9
330
1E
100
AcDbEntity
  8
0
  6
Continuous
 62
     4
100
AcDbCircle
 10
4.1153017361
 20
5.090123869574999
 30
0.0
 40
0.004216042
  0
CIRCLE
  5
1EA
330
1E
100
AcDbEntity
  8
0
  6
Continuous
 62
     4
100
AcDbCircle
 10
4.139831435
 20
5.0905071461
 30
0.0
 40
0.008613069125
  0
CIRCLE
  5
1EB
330
1E
100
AcDbEntity
  8
0
  6
Continuous
 62
     4
100
AcDbCircle
 10
4.164744410449999
 20
5.082075062099999
 30
0.0
 40
0.005379542675
  0
CIRCLE
  5
1EC
330
1E
100
AcDbEntity
  8
0
  6
Continuous
 62
     4
100
AcDbCircle
 10
4.18505806735
 20
5.089740593024999
 30
0.0
 40
0.005420348875
  0
CIRCLE
  5
1ED
330
1E
100
AcDbEntity
  8
0
  6
Continuous
 62
     4
100
AcDbCircle
 10
4.0831065063
 20
5.05792863975
 30
0.0
 40
0.00474086905
  0
CIRCLE
  5
1EE
330
1E
100
AcDbEntity
  8
0
  6
Continuous
 62
     4
100
AcDbCircle
 10
4.088472377925
 20
5.041064471749999
 30
0.0
 40
0.007322488125
  0
CIRCLE
  5
1EF
330
1E
100
AcDbEntity
  8
0
  6
Continuous
 62
     4
100
AcDbCircle
 10
4.11491845955
 20
5.038381535924999
 30
0.0
 40
0.0058000266
  0
CIRCLE
  5
1F0
330
1E
100
AcDbEntity
  8
0
  6
Continuous
 62
     4
100
AcDbCircle
 10
4.133699010275
 20
5.036081876674999
 30
0.0
 40
0.006526964375
  0
CIRCLE
  5
1F1
330
1E
100
AcDbEntity
  8
0
  6
Continuous
 62
     4
100
AcDbCircle
 10
4.16052836845
 20
5.045663790299999
 30
0.0
 40
0.0049825951
  0
CIRCLE
  5
1F2
330
1E
100
AcDbEntity
  8
0
  6
Continuous
 62
     4
100
AcDbCircle
 10
4.109552587925
 20
5.057162086649999
 30
0.0
 40
0.003908669175
  0
CIRCLE
  5
1F3
330
1E
100
AcDbEntity
  8
0
  6
Continuous
 62
     4
100
AcDbCircle
 10
4.131016074475
 20
5.0575453632
 30
0.0
 40
0.005749148175
  0
CIRCLE
  5
1F4
330
1E
100
AcDbEntity
  8
0
  6
Continuous
 62
     4
100
AcDbCircle
 10
4.09115531375
 20
5.085907827574999
 30
0.0
 40
0.00499731475
  0
CIRCLE
  5
1F5
330
1E
100
AcDbEntity
  8
0
  6
Continuous
 62
     4
100
AcDbCircle
 10
4.133699010275
 20
5.118486333925
 30
0.0
 40
0.0051135469
  0
CIRCLE
  5
1F6
330
1E
100
AcDbEntity
  8
0
  6
Continuous
 62
     4
100
AcDbCircle
 10
4.152479561
 20
5.121552546274999
 30
0.0
 40
0.0058000266
  0
CIRCLE
  5
1F7
330
1E
100
AcDbEntity
  8
0
  6
Continuous
 62
     4
100
AcDbCircle
 10
4.245615761525
 20
4.980890054125
 30
0.0
 40
0.006616379025
  0
CIRCLE
  5
1F8
330
1E
100
AcDbEntity
  8
0
  6
Continuous
 62
     4
100
AcDbCircle
 10
4.24063316645
 20
4.9552105256
 30
0.0
 40
0.007751288425
  0
CIRCLE
  5
1F9
330
1E
100
AcDbEntity
  8
0
  6
Continuous
 62
     4
100
AcDbCircle
 10
4.24484920845
 20
4.930680826674999
 30
0.0
 40
0.0040015246
  0
CIRCLE
  5
1FA
330
1E
100
AcDbEntity
  8
0
  6
Continuous
 62
     4
100
AcDbCircle
 10
4.25328129245
 20
4.90423474505
 30
0.0
 40
0.004233427825
  0
CIRCLE
  5
1FB
330
1E
100
AcDbEntity
  8
0
  6
Continuous
 62
     4
100
AcDbCircle
 10
4.26439631225
 20
4.882004705424999
 30
0.0
 40
0.005365871625
  0
CIRCLE
  5
1FC
330
1E
100
AcDbEntity
  8
0
  6
Continuous
 62
     4
100
AcDbCircle
 10
4.280493927175
 20
4.910367169775
 30
0.0
 40
0.0038518816
  0
CIRCLE
  5
1FD
330
1E
100
AcDbEntity
  8
0
  6
Continuous
 62
     4
100
AcDbCircle
 10
4.2850932457
 20
4.891969895599999
 30
0.0
 40
0.00353363515
  0
CIRCLE
  5
1FE
330
1E
100
AcDbEntity
  8
0
  6
Continuous
 62
     4
100
AcDbCircle
 10
4.30234069025
 20
4.882004705424999
 30
0.0
 40
0.0034494889
  0
CIRCLE
  5
1FF
330
1E
100
AcDbEntity
  8
0
  6
Continuous
 62
     4
100
AcDbCircle
 10
4.3272536657
 20
4.8843043647
 30
0.0
 40
0.00459931855
  0
CIRCLE
  5
200
330
1E
100
AcDbEntity
  8
0
  6
Continuous
 62
     4
100
AcDbCircle
 10
4.350250258425
 20
4.880854875775
 30
0.0
 40
0.0049825951
  0
CIRCLE
  5
201
330
1E
100
AcDbEntity
  8
0
  6
Continuous
 62
     4
100
AcDbCircle
 10
4.378229446225
 20
4.875105727599999
 30
0.0
 40
0.0049825951
  0
CIRCLE
  5
202
330
1E
100
AcDbEntity
  8
0
  6
Continuous
 62
     4
100
AcDbCircle
 10
4.4065919106
 20
4.872422791774999
 30
0.0
 40
0.004615260775
  0
CIRCLE
  5
203
330
1E
100
AcDbEntity
  8
0
  6
Continuous
 62
     4
100
AcDbCircle
 10
4.432271439125
 20
4.871656238699999
 30
0.0
 40
0.005365871625
  0
CIRCLE
  5
204
330
1E
100
AcDbEntity
  8
0
  6
Continuous
 62
     4
100
AcDbCircle
 10
4.46025062695
 20
4.873955897974999
 30
0.0
 40
0.0079014484
  0
CIRCLE
  5
205
330
1E
100
AcDbEntity
  8
0
  6
Continuous
 62
     4
100
AcDbCircle
 10
4.492062580225
 20
4.859774665799999
 30
0.0
 40
0.00891478505
  0
CIRCLE
  5
206
330
1E
100
AcDbEntity
  8
0
  6
Continuous
 62
     4
100
AcDbCircle
 10
4.250598356625
 20
5.109287696824999
 30
0.0
 40
0.005697815475
  0
CIRCLE
  5
207
330
1E
100
AcDbEntity
  8
0
  6
Continuous
 62
     4
100
AcDbCircle
 10
4.26018027025
 20
5.131901013
 30
0.0
 40
0.0049825951
  0
CIRCLE
  5
208
330
1E
100
AcDbEntity
  8
0
  6
Continuous
 62
     4
100
AcDbCircle
 10
4.278960820975
 20
5.150681563724999
 30
0.0
 40
0.004615260775
  0
CIRCLE
  5
209
330
1E
100
AcDbEntity
  8
0
  6
Continuous
 62
     4
100
AcDbCircle
 10
4.2985079248
 20
5.151831393374999
 30
0.0
 40
0.007751288425
  0
CIRCLE
  5
20A
330
1E
100
AcDbEntity
  8
0
  6
Continuous
 62
     4
100
AcDbCircle
 10
4.33185298425
 20
5.152981222999999
 30
0.0
 40
0.008057927925
  0
CIRCLE
  5
20B
330
1E
100
AcDbEntity
  8
0
  6
Continuous
 62
     4
100
AcDbCircle
 10
4.36826425605
 20
5.153364499549999
 30
0.0
 40
0.006560637675
  0
CIRCLE
  5
20C
330
1E
100
AcDbEntity
  8
0
  6
Continuous
 62
     4
100
AcDbCircle
 10
4.404292251325
 20
5.152214669924999
 30
0.0
 40
0.0089722739
  0
CIRCLE
  5
20D
330
1E
100
AcDbEntity
  8
0
  6
Continuous
 62
     4
100
AcDbCircle
 10
4.449135607125001
 20
5.143016032824999
 30
0.0
 40
0.008405910875
  0
CIRCLE
  5
20E
330
1E
100
AcDbEntity
  8
0
  6
Continuous
 62
     4
100
AcDbCircle
 10
4.482480666575
 20
5.134200672274999
 30
0.0
 40
0.014243249525
  0
CIRCLE
  5
20F
330
1E
100
AcDbEntity
  8
0
  6
Continuous
 62
     4
100
AcDbCircle
 10
4.26937890735
 20
5.060611575574999
 30
0.0
 40
0.005041215875
  0
CIRCLE
  5
210
330
1E
100
AcDbEntity
  8
0
  6
Continuous
 62
     4
100
AcDbCircle
 10
4.272061843175
 20
5.042597577925
 30
0.0
 40
0.004370024975
  0
CIRCLE
  5
211
330
1E
100
AcDbEntity
  8
0
  6
Continuous
 62
     4
100
AcDbCircle
 10
4.27282839625
 20
5.017684602474999
 30
0.0
 40
0.005999226875
  0
CIRCLE
  5
212
330
1E
100
AcDbEntity
  8
0
  6
Continuous
 62
     4
100
AcDbCircle
 10
4.275894608625
 20
4.989705414674999
 30
0.0
 40
0.006549432475
  0
CIRCLE
  5
213
330
1E
100
AcDbEntity
  8
0
  6
Continuous
 62
     4
100
AcDbCircle
 10
4.2739782259
 20
4.962492779949999
 30
0.0
 40
0.00499731475
  0
CIRCLE
  5
214
330
1E
100
AcDbEntity
  8
0
  6
Continuous
 62
     4
100
AcDbCircle
 10
4.2724451197
 20
4.93451359215
 30
0.0
 40
0.005420348875
  0
CIRCLE
  5
215
330
1E
100
AcDbEntity
  8
0
  6
Continuous
 62
     4
100
AcDbCircle
 10
4.296208265525
 20
4.949078100874999
 30
0.0
 40
0.0051135469
  0
CIRCLE
  5
216
330
1E
100
AcDbEntity
  8
0
  6
Continuous
 62
     4
100
AcDbCircle
 10
4.3019574137
 20
4.92454840195
 30
0.0
 40
0.0051135469
  0
CIRCLE
  5
217
330
1E
100
AcDbEntity
  8
0
  6
Continuous
 62
     4
100
AcDbCircle
 10
4.313455710075
 20
4.980890054125
 30
0.0
 40
0.007636731075
  0
CIRCLE
  5
218
330
1E
100
AcDbEntity
  8
0
  6
Continuous
 62
     4
100
AcDbCircle
 10
4.325720559525
 20
4.954060695949999
 30
0.0
 40
0.005041215875
  0
CIRCLE
  5
219
330
1E
100
AcDbEntity
  8
0
  6
Continuous
 62
     4
100
AcDbCircle
 10
4.333002813875
 20
4.930680826674999
 30
0.0
 40
0.005379542675
  0
CIRCLE
  5
21A
330
1E
100
AcDbEntity
  8
0
  6
Continuous
 62
     4
100
AcDbCircle
 10
4.351016811525
 20
4.929530997049999
 30
0.0
 40
0.0072923336
  0
CIRCLE
  5
21B
330
1E
100
AcDbEntity
  8
0
  6
Continuous
 62
     4
100
AcDbCircle
 10
4.3812956586
 20
4.924165125424999
 30
0.0
 40
0.00804880745
  0
CIRCLE
  5
21C
330
1E
100
AcDbEntity
  8
0
  6
Continuous
 62
     4
100
AcDbCircle
 10
4.300807584075
 20
5.067127276849999
 30
0.0
 40
0.0076655309
  0
CIRCLE
  5
21D
330
1E
100
AcDbEntity
  8
0
  6
Continuous
 62
     4
100
AcDbCircle
 10
4.27359494935
 20
5.087824210299999
 30
0.0
 40
0.00474086905
  0
CIRCLE
  5
21E
330
1E
100
AcDbEntity
  8
0
  6
Continuous
 62
     4
100
AcDbCircle
 10
4.283176862975
 20
5.100472336299999
 30
0.0
 40
0.006526964375
  0
CIRCLE
  5
21F
330
1E
100
AcDbEntity
  8
0
  6
Continuous
 62
     4
100
AcDbCircle
 10
4.310389497700001
 20
5.118103057375
 30
0.0
 40
0.0057619099
  0
CIRCLE
  5
220
330
1E
100
AcDbEntity
  8
0
  6
Continuous
 62
     4
100
AcDbCircle
 10
4.325720559525
 20
5.103538548649999
 30
0.0
 40
0.00727216115
  0
CIRCLE
  5
221
330
1E
100
AcDbEntity
  8
0
  6
Continuous
 62
     4
100
AcDbCircle
 10
4.346034216425
 20
5.088207486824999
 30
0.0
 40
0.0091986371
  0
CIRCLE
  5
222
330
1E
100
AcDbEntity
  8
0
  6
Continuous
 62
     4
100
AcDbCircle
 10
4.38436187095
 20
5.087824210299999
 30
0.0
 40
0.006526964375
  0
CIRCLE
  5
223
330
1E
100
AcDbEntity
  8
0
  6
Continuous
 62
     4
100
AcDbCircle
 10
4.39854310315
 20
5.070576765749999
 30
0.0
 40
0.00595005205
  0
CIRCLE
  5
224
330
1E
100
AcDbEntity
  8
0
  6
Continuous
 62
     4
100
AcDbCircle
 10
4.419623313125
 20
5.069043659574999
 30
0.0
 40
0.008466855625
  0
CIRCLE
  5
225
330
1E
100
AcDbEntity
  8
0
  6
Continuous
 62
     4
100
AcDbCircle
 10
4.433421268775
 20
5.041064471749999
 30
0.0
 40
0.0078641772
  0
CIRCLE
  5
226
330
1E
100
AcDbEntity
  8
0
  6
Continuous
 62
     4
100
AcDbCircle
 10
4.44760250095
 20
5.014235113574999
 30
0.0
 40
0.006594139025
  0
CIRCLE
  5
227
330
1E
100
AcDbEntity
  8
0
  6
Continuous
 62
     4
100
AcDbCircle
 10
4.461783733125
 20
4.97859039485
 30
0.0
 40
0.00515645855
  0
CIRCLE
  5
228
330
1E
100
AcDbEntity
  8
0
  6
Continuous
 62
     4
100
AcDbCircle
 10
4.4759649653
 20
4.960959673775
 30
0.0
 40
0.00552769295
  0
CIRCLE
  5
229
330
1E
100
AcDbEntity
  8
0
  6
Continuous
 62
     4
100
AcDbCircle
 10
4.4901461975
 20
4.933363762499999
 30
0.0
 40
0.0088236887
  0
CIRCLE
  5
22A
330
1E
100
AcDbEntity
  8
0
  6
Continuous
 62
     4
100
AcDbCircle
 10
4.51007657785
 20
4.952144313225
 30
0.0
 40
0.006239290125
  0
CIRCLE
  5
22B
330
1E
100
AcDbEntity
  8
0
  6
Continuous
 62
     4
100
AcDbCircle
 10
4.524641086575
 20
4.920715636499999
 30
0.0
 40
0.007441884375
  0
CIRCLE
  5
22C
330
1E
100
AcDbEntity
  8
0
  6
Continuous
 62
     4
100
AcDbCircle
 10
4.5223414273
 20
4.875105727599999
 30
0.0
 40
0.00758848845
  0
CIRCLE
  5
22D
330
1E
100
AcDbEntity
  8
0
  6
Continuous
 62
     4
100
AcDbCircle
 10
4.4901461975
 20
4.897335767224999
 30
0.0
 40
0.007817338325
  0
CIRCLE
  5
22E
330
1E
100
AcDbEntity
  8
0
  6
Continuous
 62
     4
100
AcDbCircle
 10
4.429205226775
 20
4.927614614324999
 30
0.0
 40
0.00716019675
  0
CIRCLE
  5
22F
330
1E
100
AcDbEntity
  8
0
  6
Continuous
 62
     4
100
AcDbCircle
 10
4.452968372575
 20
4.914583211774999
 30
0.0
 40
0.004370024975
  0
CIRCLE
  5
230
330
1E
100
AcDbEntity
  8
0
  6
Continuous
 62
     4
100
AcDbCircle
 10
4.408125016775001
 20
4.897719043775
 30
0.0
 40
0.008085227575
  0
CIRCLE
  5
231
330
1E
100
AcDbEntity
  8
0
  6
Continuous
 62
     4
100
AcDbCircle
 10
4.29390860625
 20
5.035698600124999
 30
0.0
 40
0.006321158725
  0
CIRCLE
  5
232
330
1E
100
AcDbEntity
  8
0
  6
Continuous
 62
     4
100
AcDbCircle
 10
4.31153932735
 20
5.011168901225
 30
0.0
 40
0.0057619099
  0
CIRCLE
  5
233
330
1E
100
AcDbEntity
  8
0
  6
Continuous
 62
     4
100
AcDbCircle
 10
4.33108643115
 20
5.023433750675
 30
0.0
 40
0.007322488125
  0
CIRCLE
  5
234
330
1E
100
AcDbEntity
  8
0
  6
Continuous
 62
     4
100
AcDbCircle
 10
4.345650939875
 20
5.009635795024999
 30
0.0
 40
0.006994140625
  0
CIRCLE
  5
235
330
1E
100
AcDbEntity
  8
0
  6
Continuous
 62
     4
100
AcDbCircle
 10
4.350633534975
 20
4.979356947949999
 30
0.0
 40
0.00737247155
  0
CIRCLE
  5
236
330
1E
100
AcDbEntity
  8
0
  6
Continuous
 62
     4
100
AcDbCircle
 10
4.370563915325
 20
4.959043291049999
 30
0.0
 40
0.006909616175
  0
CIRCLE
  5
237
330
1E
100
AcDbEntity
  8
0
  6
Continuous
 62
     4
100
AcDbCircle
 10
4.403142421675
 20
4.96747537505
 30
0.0
 40
0.00459931855
  0
CIRCLE
  5
238
330
1E
100
AcDbEntity
  8
0
  6
Continuous
 62
     4
100
AcDbCircle
 10
4.433037992225
 20
4.964025886125
 30
0.0
 40
0.008085227575
  0
CIRCLE
  5
239
330
1E
100
AcDbEntity
  8
0
  6
Continuous
 62
     4
100
AcDbCircle
 10
4.34028506825
 20
5.0590784694
 30
0.0
 40
0.00499731475
  0
CIRCLE
  5
23A
330
1E
100
AcDbEntity
  8
0
  6
Continuous
 62
     4
100
AcDbCircle
 10
4.3609820017
 20
5.039914642124999
 30
0.0
 40
0.004848107425
  0
CIRCLE
  5
23B
330
1E
100
AcDbEntity
  8
0
  6
Continuous
 62
     4
100
AcDbCircle
 10
4.38512842405
 20
5.031099281574999
 30
0.0
 40
0.004908334675
  0
CIRCLE
  5
23C
330
1E
100
AcDbEntity
  8
0
  6
Continuous
 62
     4
100
AcDbCircle
 10
4.38512842405
 20
5.014618390124999
 30
0.0
 40
0.005962383775
  0
CIRCLE
  5
23D
330
1E
100
AcDbEntity
  8
0
  6
Continuous
 62
     4
100
AcDbCircle
 10
4.407358463675
 20
4.9966043925
 30
0.0
 40
0.0061920221
  0
CIRCLE
  5
23E
330
1E
100
AcDbEntity
  8
0
  6
Continuous
 62
     4
100
AcDbCircle
 10
4.408891569875001
 20
5.021900644475
 30
0.0
 40
0.004615260775
  0
CIRCLE
  5
23F
330
1E
100
AcDbEntity
  8
0
  6
Continuous
 62
     4
100
AcDbCircle
 10
4.420773142775
 20
5.114653568474999
 30
0.0
 40
0.005420348875
  0
CIRCLE
  5
240
330
1E
100
AcDbEntity
  8
0
  6
Continuous
 62
     4
100
AcDbCircle
 10
4.362898384425
 20
5.121935822824999
 30
0.0
 40
0.004615260775
  0
CIRCLE
  5
241
330
1E
100
AcDbEntity
  8
0
  6
Continuous
 62
     4
100
AcDbCircle
 10
4.392027401875
 20
5.124235482099999
 30
0.0
 40
0.006909616175
  0
CIRCLE
  5
242
330
1E
100
AcDbEntity
  8
0
  6
Continuous
 62
     4
100
AcDbCircle
 10
4.4269055675
 20
5.148381904449999
 30
0.0
 40
0.0034494889
  0
CIRCLE
  5
243
330
1E
100
AcDbEntity
  8
0
  6
Continuous
 62
     4
100
AcDbCircle
 10
4.449518883675001
 20
5.095489741199999
 30
0.0
 40
0.009356972925
  0
CIRCLE
  5
244
330
1E
100
AcDbEntity
  8
0
  6
Continuous
 62
     4
100
AcDbCircle
 10
4.465616498575
 20
5.067510553374999
 30
0.0
 40
0.006909616175
  0
CIRCLE
  5
245
330
1E
100
AcDbEntity
  8
0
  6
Continuous
 62
     4
100
AcDbCircle
 10
4.474048582575
 20
5.027266516124999
 30
0.0
 40
0.006515701275
  0
CIRCLE
  5
246
330
1E
100
AcDbEntity
  8
0
  6
Continuous
 62
     4
100
AcDbCircle
 10
4.490529474025001
 20
5.005036476499999
 30
0.0
 40
0.007636731075
  0
CIRCLE
  5
247
330
1E
100
AcDbEntity
  8
0
  6
Continuous
 62
     4
100
AcDbCircle
 10
4.51429261985
 20
4.991621797399999
 30
0.0
 40
0.006239290125
  0
CIRCLE
  5
248
330
1E
100
AcDbEntity
  8
0
  6
Continuous
 62
     4
100
AcDbCircle
 10
4.508160195125
 20
5.152597946449999
 30
0.0
 40
0.006560637675
  0
CIRCLE
  5
249
330
1E
100
AcDbEntity
  8
0
  6
Continuous
 62
     4
100
AcDbCircle
 10
4.520425044575
 20
5.12116926975
 30
0.0
 40
0.006515701275
  0
CIRCLE
  5
24A
330
1E
100
AcDbEntity
  8
0
  6
Continuous
 62
     4
100
AcDbCircle
 10
4.520808321125
 20
5.087440933749999
 30
0.0
 40
0.00383276545
  0
CIRCLE
  5
24B
330
1E
100
AcDbEntity
  8
0
  6
Continuous
 62
     4
100
AcDbCircle
 10
4.519275214925
 20
5.051412938474999
 30
0.0
 40
0.007036022075
  0
CIRCLE
  5
24C
330
1E
100
AcDbEntity
  8
0
  6
Continuous
 62
     4
100
AcDbCircle
 10
4.487079985125
 20
5.082458338649999
 30
0.0
 40
0.006132424725
  0
CIRCLE
  5
24D
330
1E
100
AcDbEntity
  8
0
  6
Continuous
 62
     4
100
AcDbCircle
 10
4.495128792575
 20
5.044513960674999
 30
0.0
 40
0.0051135469
  0
CIRCLE
  5
24E
330
1E
100
AcDbEntity
  8
0
  6
Continuous
 62
     4
100
AcDbCircle
 10
4.5131427902
 20
5.030716005024999
 30
0.0
 40
0.0044697342
  0
CIRCLE
  5
24F
330
1E
100
AcDbEntity
  8
0
  6
Continuous
 62
     4
100
AcDbCircle
 10
4.546871126200001
 20
4.844826880524999
 30
0.0
 40
0.006941433475
  0
CIRCLE
  5
250
330
1E
100
AcDbEntity
  8
0
  6
Continuous
 62
     4
100
AcDbCircle
 10
4.573317207825
 20
4.839844285425
 30
0.0
 40
0.0051135469
  0
CIRCLE
  5
251
330
1E
100
AcDbEntity
  8
0
  6
Continuous
 62
     4
100
AcDbCircle
 10
4.599380012925
 20
4.8413773916
 30
0.0
 40
0.005379542675
  0
CIRCLE
  5
252
330
1E
100
AcDbEntity
  8
0
  6
Continuous
 62
     4
100
AcDbCircle
 10
4.549554062025
 20
4.89656921415
 30
0.0
 40
0.007636731075
  0
CIRCLE
  5
253
330
1E
100
AcDbEntity
  8
0
  6
Continuous
 62
     4
100
AcDbCircle
 10
4.57255065475
 20
4.877405386875
 30
0.0
 40
0.00614439045
  0
CIRCLE
  5
254
330
1E
100
AcDbEntity
  8
0
  6
Continuous
 62
     4
100
AcDbCircle
 10
4.595930524025
 20
4.876255557249999
 30
0.0
 40
0.004615260775
  0
CIRCLE
  5
255
330
1E
100
AcDbEntity
  8
0
  6
Continuous
 62
     4
100
AcDbCircle
 10
4.628125753825
 20
4.857858283049999
 30
0.0
 40
0.006909616175
  0
CIRCLE
  5
256
330
1E
100
AcDbEntity
  8
0
  6
Continuous
 62
     4
100
AcDbCircle
 10
4.531923340925
 20
5.163712966274999
 30
0.0
 40
0.0072923336
  0
CIRCLE
  5
257
330
1E
100
AcDbEntity
  8
0
  6
Continuous
 62
     4
100
AcDbCircle
 10
4.55913597565
 20
5.163712966274999
 30
0.0
 40
0.006941433475
  0
CIRCLE
  5
258
330
1E
100
AcDbEntity
  8
0
  6
Continuous
 62
     4
100
AcDbCircle
 10
4.57600014365
 20
5.134583948825
 30
0.0
 40
0.00776075855
  0
CIRCLE
  5
259
330
1E
100
AcDbEntity
  8
0
  6
Continuous
 62
     4
100
AcDbCircle
 10
4.595547247475
 20
5.145315692099999
 30
0.0
 40
0.00595005205
  0
CIRCLE
  5
25A
330
1E
100
AcDbEntity
  8
0
  6
Continuous
 62
     4
100
AcDbCircle
 10
4.6304254131
 20
5.157580541549999
 30
0.0
 40
0.0112790154
  0
CIRCLE
  5
25B
330
1E
100
AcDbEntity
  8
0
  6
Continuous
 62
     4
100
AcDbCircle
 10
4.662237366375
 20
5.160263477374999
 30
0.0
 40
0.008003049225
  0
CIRCLE
  5
25C
330
1E
100
AcDbEntity
  8
0
  6
Continuous
 62
     4
100
AcDbCircle
 10
4.6894500011
 20
5.155664158825
 30
0.0
 40
0.00997255815
  0
CIRCLE
  5
25D
330
1E
100
AcDbEntity
  8
0
  6
Continuous
 62
     4
100
AcDbCircle
 10
4.5545366571
 20
5.104305101749999
 30
0.0
 40
0.007703763225
  0
CIRCLE
  5
25E
330
1E
100
AcDbEntity
  8
0
  6
Continuous
 62
     4
100
AcDbCircle
 10
4.556836316375
 20
5.073259701575
 30
0.0
 40
0.007713291675
  0
CIRCLE
  5
25F
330
1E
100
AcDbEntity
  8
0
  6
Continuous
 62
     4
100
AcDbCircle
 10
4.554153380575
 20
5.026499963024999
 30
0.0
 40
0.0072011125
  0
CIRCLE
  5
260
330
1E
100
AcDbEntity
  8
0
  6
Continuous
 62
     4
100
AcDbCircle
 10
4.5434216373
 20
4.982423160299999
 30
0.0
 40
0.0072923336
  0
CIRCLE
  5
261
330
1E
100
AcDbEntity
  8
0
  6
Continuous
 62
     4
100
AcDbCircle
 10
4.543804913849999
 20
4.949078100874999
 30
0.0
 40
0.006526964375
  0
CIRCLE
  5
262
330
1E
100
AcDbEntity
  8
0
  6
Continuous
 62
     4
100
AcDbCircle
 10
4.5637352942
 20
4.927231337774999
 30
0.0
 40
0.0081214844
  0
CIRCLE
  5
263
330
1E
100
AcDbEntity
  8
0
  6
Continuous
 62
     4
100
AcDbCircle
 10
4.59286431165
 20
4.936046698324999
 30
0.0
 40
0.00767510685
  0
CIRCLE
  5
264
330
1E
100
AcDbEntity
  8
0
  6
Continuous
 62
     4
100
AcDbCircle
 10
4.61317796855
 20
4.908834063599999
 30
0.0
 40
0.0070672703
  0
CIRCLE
  5
265
330
1E
100
AcDbEntity
  8
0
  6
Continuous
 62
     4
100
AcDbCircle
 10
4.5771499733
 20
5.018067879024999
 30
0.0
 40
0.0057619099
  0
CIRCLE
  5
266
330
1E
100
AcDbEntity
  8
0
  6
Continuous
 62
     4
100
AcDbCircle
 10
4.5756168671
 20
4.988555585024999
 30
0.0
 40
0.00614439045
  0
CIRCLE
  5
267
330
1E
100
AcDbEntity
  8
0
  6
Continuous
 62
     4
100
AcDbCircle
 10
4.590181375825
 20
4.972841246674999
 30
0.0
 40
0.00499731475
  0
CIRCLE
  5
268
330
1E
100
AcDbEntity
  8
0
  6
Continuous
 62
     4
100
AcDbCircle
 10
4.6143277982
 20
4.9670920985
 30
0.0
 40
0.006941433475
  0
CIRCLE
  5
269
330
1E
100
AcDbEntity
  8
0
  6
Continuous
 62
     4
100
AcDbCircle
 10
4.6093452031
 20
5.052946044649999
 30
0.0
 40
0.007751288425
  0
CIRCLE
  5
26A
330
1E
100
AcDbEntity
  8
0
  6
Continuous
 62
     4
100
AcDbCircle
 10
4.623909711825
 20
5.018451155574999
 30
0.0
 40
0.00499731475
  0
CIRCLE
  5
26B
330
1E
100
AcDbEntity
  8
0
  6
Continuous
 62
     4
100
AcDbCircle
 10
4.636174561275
 20
4.991621797399999
 30
0.0
 40
0.006560637675
  0
CIRCLE
  5
26C
330
1E
100
AcDbEntity
  8
0
  6
Continuous
 62
     4
100
AcDbCircle
 10
4.641540432925
 20
4.93374703905
 30
0.0
 40
0.006526964375
  0
CIRCLE
  5
26D
330
1E
100
AcDbEntity
  8
0
  6
Continuous
 62
     4
100
AcDbCircle
 10
4.65112234655
 20
4.887370577049999
 30
0.0
 40
0.006526964375
  0
CIRCLE
  5
26E
330
1E
100
AcDbEntity
  8
0
  6
Continuous
 62
     4
100
AcDbCircle
 10
4.6626206429
 20
4.861307771974999
 30
0.0
 40
0.00737247155
  0
CIRCLE
  5
26F
330
1E
100
AcDbEntity
  8
0
  6
Continuous
 62
     4
100
AcDbCircle
 10
4.6641537491
 20
4.836394796525
 30
0.0
 40
0.005379542675
  0
CIRCLE
  5
270
330
1E
100
AcDbEntity
  8
0
  6
Continuous
 62
     4
100
AcDbCircle
 10
4.633874902
 20
4.835628243424999
 30
0.0
 40
0.0066936371
  0
CIRCLE
  5
271
330
1E
100
AcDbEntity
  8
0
  6
Continuous
 62
     4
100
AcDbCircle
 10
4.7040145098
 20
4.836011519975
 30
0.0
 40
0.005487685
  0
CIRCLE
  5
272
330
1E
100
AcDbEntity
  8
0
  6
Continuous
 62
     4
100
AcDbCircle
 10
4.731610421075
 20
4.840994115074999
 30
0.0
 40
0.00499731475
  0
CIRCLE
  5
273
330
1E
100
AcDbEntity
  8
0
  6
Continuous
 62
     4
100
AcDbCircle
 10
4.7503909718
 20
4.8666736436
 30
0.0
 40
0.007036022075
  0
CIRCLE
  5
274
330
1E
100
AcDbEntity
  8
0
  6
Continuous
 62
     4
100
AcDbCircle
 10
4.75843977925
 20
4.848276369425
 30
0.0
 40
0.006132424725
  0
CIRCLE
  5
275
330
1E
100
AcDbEntity
  8
0
  6
Continuous
 62
     4
100
AcDbCircle
 10
4.677568428175
 20
5.036081876674999
 30
0.0
 40
0.0057619099
  0
CIRCLE
  5
276
330
1E
100
AcDbEntity
  8
0
  6
Continuous
 62
     4
100
AcDbCircle
 10
4.6810179171
 20
4.988938861574999
 30
0.0
 40
0.0070672703
  0
CIRCLE
  5
277
330
1E
100
AcDbEntity
  8
0
  6
Continuous
 62
     4
100
AcDbCircle
 10
4.682551023275
 20
4.940646016875
 30
0.0
 40
0.00595005205
  0
CIRCLE
  5
278
330
1E
100
AcDbEntity
  8
0
  6
Continuous
 62
     4
100
AcDbCircle
 10
4.68830017145
 20
4.909600616699999
 30
0.0
 40
0.007713291675
  0
CIRCLE
  5
279
330
1E
100
AcDbEntity
  8
0
  6
Continuous
 62
     4
100
AcDbCircle
 10
4.694049319625
 20
4.88468764125
 30
0.0
 40
0.00353363515
  0
CIRCLE
  5
27A
330
1E
100
AcDbEntity
  8
0
  6
Continuous
 62
     4
100
AcDbCircle
 10
4.715129529625
 20
4.879705046149999
 30
0.0
 40
0.00727216115
  0
CIRCLE
  5
27B
330
1E
100
AcDbEntity
  8
0
  6
Continuous
 62
     4
100
AcDbCircle
 10
4.740042505075
 20
4.910750446325
 30
0.0
 40
0.0083708861
  0
CIRCLE
  5
27C
330
1E
100
AcDbEntity
  8
0
  6
Continuous
 62
     4
100
AcDbCircle
 10
4.756523396525
 20
4.959426567599999
 30
0.0
 40
0.005487685
  0
CIRCLE
  5
27D
330
1E
100
AcDbEntity
  8
0
  6
Continuous
 62
     4
100
AcDbCircle
 10
4.7250947198
 20
4.980890054125
 30
0.0
 40
0.009021258475
  0
CIRCLE
  5
27E
330
1E
100
AcDbEntity
  8
0
  6
Continuous
 62
     4
100
AcDbCircle
 10
4.720495401275
 20
4.941412569949999
 30
0.0
 40
0.00614439045
  0
CIRCLE
  5
27F
330
1E
100
AcDbEntity
  8
0
  6
Continuous
 62
     4
100
AcDbCircle
 10
4.7047810629
 20
5.045280513749999
 30
0.0
 40
0.006515701275
  0
CIRCLE
  5
280
330
1E
100
AcDbEntity
  8
0
  6
Continuous
 62
     4
100
AcDbCircle
 10
4.736209739625
 20
5.034165493949999
 30
0.0
 40
0.010355562
  0
CIRCLE
  5
281
330
1E
100
AcDbEntity
  8
0
  6
Continuous
 62
     4
100
AcDbCircle
 10
4.59286431165
 20
5.0997057832
 30
0.0
 40
0.0058000266
  0
CIRCLE
  5
282
330
1E
100
AcDbEntity
  8
0
  6
Continuous
 62
     4
100
AcDbCircle
 10
4.585965333825
 20
5.072493148474999
 30
0.0
 40
0.006560637675
  0
CIRCLE
  5
283
330
1E
100
AcDbEntity
  8
0
  6
Continuous
 62
     4
100
AcDbCircle
 10
4.628509030375
 20
5.074792807749999
 30
0.0
 40
0.00459931855
  0
CIRCLE
  5
284
330
1E
100
AcDbEntity
  8
0
  6
Continuous
 62
     4
100
AcDbCircle
 10
4.644223368725
 20
5.040681195199999
 30
0.0
 40
0.0081935167
  0
CIRCLE
  5
285
330
1E
100
AcDbEntity
  8
0
  6
Continuous
 62
     4
100
AcDbCircle
 10
4.619310393275
 20
5.115036845024999
 30
0.0
 40
0.008466855625
  0
CIRCLE
  5
286
330
1E
100
AcDbEntity
  8
0
  6
Continuous
 62
     4
100
AcDbCircle
 10
4.64767285765
 20
5.123468929024999
 30
0.0
 40
0.0049825951
  0
CIRCLE
  5
287
330
1E
100
AcDbEntity
  8
0
  6
Continuous
 62
     4
100
AcDbCircle
 10
4.65610494165
 20
5.106604761025
 30
0.0
 40
0.004615260775
  0
CIRCLE
  5
288
330
1E
100
AcDbEntity
  8
0
  6
Continuous
 62
     4
100
AcDbCircle
 10
4.677951704725
 20
5.123852205549999
 30
0.0
 40
0.005041215875
  0
CIRCLE
  5
289
330
1E
100
AcDbEntity
  8
0
  6
Continuous
 62
     4
100
AcDbCircle
 10
4.71704591235
 20
5.123085652474999
 30
0.0
 40
0.005365871625
  0
CIRCLE
  5
28A
330
1E
100
AcDbEntity
  8
0
  6
Continuous
 62
     4
100
AcDbCircle
 10
4.722411784
 20
5.166395902099999
 30
0.0
 40
0.0061801486
  0
CIRCLE
  5
28B
330
1E
100
AcDbEntity
  8
0
  6
Continuous
 62
     4
100
AcDbCircle
 10
4.74310871745
 20
5.147232074825
 30
0.0
 40
0.004662760425
  0
CIRCLE
  5
28C
330
1E
100
AcDbEntity
  8
0
  6
Continuous
 62
     4
100
AcDbCircle
 10
4.67565204545
 20
5.085524551024999
 30
0.0
 40
0.0072923336
  0
CIRCLE
  5
28D
330
1E
100
AcDbEntity
  8
0
  6
Continuous
 62
     4
100
AcDbCircle
 10
4.70593089255
 20
5.084757997924999
 30
0.0
 40
0.006909616175
  0
CIRCLE
  5
28E
330
1E
100
AcDbEntity
  8
0
  6
Continuous
 62
     4
100
AcDbCircle
 10
4.7342933569
 20
5.0786255732
 30
0.0
 40
0.00728225435
  0
CIRCLE
  5
28F
330
1E
100
AcDbEntity
  8
0
  6
Continuous
 62
     4
100
AcDbCircle
 10
4.75575684345
 20
5.116569951199999
 30
0.0
 40
0.011504682525
  0
CIRCLE
  5
290
330
1E
100
AcDbEntity
  8
0
  6
Continuous
 62
     4
100
AcDbCircle
 10
4.76265582125
 20
5.083991444849999
 30
0.0
 40
0.006132424725
  0
CIRCLE
  5
291
330
1E
100
AcDbEntity
  8
0
  6
Continuous
 62
     4
100
AcDbCircle
 10
4.765722033625
 20
5.056778810124999
 30
0.0
 40
0.0058000266
  0
CIRCLE
  5
292
330
1E
100
AcDbEntity
  8
0
  6
Continuous
 62
     4
100
AcDbCircle
 10
4.761889268175
 20
5.0092525185
 30
0.0
 40
0.005420348875
  0
CIRCLE
  5
293
330
1E
100
AcDbEntity
  8
0
  6
Continuous
 62
     4
100
AcDbCircle
 10
4.7082305518
 20
5.011935454299999
 30
0.0
 40
0.00767510685
  0
CIRCLE
  5
294
330
1E
100
AcDbEntity
  8
0
  6
Continuous
 62
     4
100
AcDbCircle
 10
4.69174966035
 20
4.974757629399999
 30
0.0
 40
0.008440790325
  0
CIRCLE
  5
295
330
1E
100
AcDbEntity
  8
0
  6
Continuous
 62
     4
100
AcDbCircle
 10
4.64192370945
 20
4.972457970124999
 30
0.0
 40
0.00474086905
  0
CIRCLE
  5
296
330
1E
100
AcDbEntity
  8
0
  6
Continuous
 62
     4
100
AcDbCircle
 10
4.603979331475001
 20
5.00886924195
 30
0.0
 40
0.005420348875
  0
CIRCLE
  5
297
330
1E
100
AcDbEntity
  8
0
  6
Continuous
 62
     4
100
AcDbCircle
 10
4.7756872238
 20
4.9256982316
 30
0.0
 40
0.005749148175
  0
CIRCLE
  5
298
330
1E
100
AcDbEntity
  8
0
  6
Continuous
 62
     4
100
AcDbCircle
 10
4.7756872238
 20
4.888520406699999
 30
0.0
 40
0.00586300375
  0
CIRCLE
  5
299
330
1E
100
AcDbEntity
  8
0
  6
Continuous
 62
     4
100
AcDbCircle
 10
4.7841193078
 20
4.853258964524999
 30
0.0
 40
0.0070672703
  0
CIRCLE
  5
29A
330
1E
100
AcDbEntity
  8
0
  6
Continuous
 62
     4
100
AcDbCircle
 10
4.79983364615
 20
4.835244966874999
 30
0.0
 40
0.00728225435
  0
CIRCLE
  5
29B
330
1E
100
AcDbEntity
  8
0
  6
Continuous
 62
     4
100
AcDbCircle
 10
4.828196110525
 20
4.8413773916
 30
0.0
 40
0.008085227575
  0
CIRCLE
  5
29C
330
1E
100
AcDbEntity
  8
0
  6
Continuous
 62
     4
100
AcDbCircle
 10
4.849276320525
 20
4.838311179249999
 30
0.0
 40
0.0030900743
  0
CIRCLE
  5
29D
330
1E
100
AcDbEntity
  8
0
  6
Continuous
 62
     4
100
AcDbCircle
 10
4.8872206985
 20
4.972074693574999
 30
0.0
 40
0.010348466725
  0
CIRCLE
  5
29E
330
1E
100
AcDbEntity
  8
0
  6
Continuous
 62
     4
100
AcDbCircle
 10
4.922482140675
 20
4.9544439725
 30
0.0
 40
0.008484188
  0
CIRCLE
  5
29F
330
1E
100
AcDbEntity
  8
0
  6
Continuous
 62
     4
100
AcDbCircle
 10
4.926314906125
 20
4.929147720499999
 30
0.0
 40
0.006898977825
  0
CIRCLE
  5
2A0
330
1E
100
AcDbEntity
  8
0
  6
Continuous
 62
     4
100
AcDbCircle
 10
4.828196110525
 20
4.932597209399999
 30
0.0
 40
0.006060134275
  0
CIRCLE
  5
2A1
330
1E
100
AcDbEntity
  8
0
  6
Continuous
 62
     4
100
AcDbCircle
 10
4.85387563905
 20
4.901168532699999
 30
0.0
 40
0.007975468275
  0
CIRCLE
  5
2A2
330
1E
100
AcDbEntity
  8
0
  6
Continuous
 62
     4
100
AcDbCircle
 10
4.8879872516
 20
4.881238152324999
 30
0.0
 40
0.0085703241
  0
CIRCLE
  5
2A3
330
1E
100
AcDbEntity
  8
0
  6
Continuous
 62
     4
100
AcDbCircle
 10
4.9259316296
 20
4.8624576016
 30
0.0
 40
0.008510120375
  0
CIRCLE
  5
2A4
330
1E
100
AcDbEntity
  8
0
  6
Continuous
 62
     4
100
AcDbCircle
 10
4.893736399775
 20
4.836394796525
 30
0.0
 40
0.006526964375
  0
CIRCLE
  5
2A5
330
1E
100
AcDbEntity
  8
0
  6
Continuous
 62
     4
100
AcDbCircle
 10
4.931680777775
 20
4.89580266105
 30
0.0
 40
0.00614439045
  0
CIRCLE
  5
2A6
330
1E
100
AcDbEntity
  8
0
  6
Continuous
 62
     4
100
AcDbCircle
 10
4.7967674338
 20
5.105838207925
 30
0.0
 40
0.0079014484
  0
CIRCLE
  5
2A7
330
1E
100
AcDbEntity
  8
0
  6
Continuous
 62
     4
100
AcDbCircle
 10
4.79715071035
 20
5.0506463854
 30
0.0
 40
0.00767510685
  0
CIRCLE
  5
2A8
330
1E
100
AcDbEntity
  8
0
  6
Continuous
 62
     4
100
AcDbCircle
 10
4.794467774525
 20
5.006186306124999
 30
0.0
 40
0.006909616175
  0
CIRCLE
  5
2A9
330
1E
100
AcDbEntity
  8
0
  6
Continuous
 62
     4
100
AcDbCircle
 10
4.791784838699999
 20
4.963642609575
 30
0.0
 40
0.006909616175
  0
CIRCLE
  5
2AA
330
1E
100
AcDbEntity
  8
0
  6
Continuous
 62
     4
100
AcDbCircle
 10
4.799067093075001
 20
4.921482189599999
 30
0.0
 40
0.00595005205
  0
CIRCLE
  5
2AB
330
1E
100
AcDbEntity
  8
0
  6
Continuous
 62
     4
100
AcDbCircle
 10
4.806732623975
 20
4.878171939975
 30
0.0
 40
0.004216042
  0
CIRCLE
  5
2AC
330
1E
100
AcDbEntity
  8
0
  6
Continuous
 62
     4
100
AcDbCircle
 10
4.832412152525
 20
4.873189344874999
 30
0.0
 40
0.0061801486
  0
CIRCLE
  5
2AD
330
1E
100
AcDbEntity
  8
0
  6
Continuous
 62
     4
100
AcDbCircle
 10
4.860391340325
 20
4.867440196699999
 30
0.0
 40
0.006909616175
  0
CIRCLE
  5
2AE
330
1E
100
AcDbEntity
  8
0
  6
Continuous
 62
     4
100
AcDbCircle
 10
4.881471550325
 20
4.928764443949999
 30
0.0
 40
0.006060134275
  0
CIRCLE
  5
2AF
330
1E
100
AcDbEntity
  8
0
  6
Continuous
 62
     4
100
AcDbCircle
 10
4.8998688245
 20
4.908450787049999
 30
0.0
 40
0.0072923336
  0
CIRCLE
  5
2B0
330
1E
100
AcDbEntity
  8
0
  6
Continuous
 62
     4
100
AcDbCircle
 10
4.8205305796
 20
5.00733613575
 30
0.0
 40
0.009262296225
  0
CIRCLE
  5
2B1
330
1E
100
AcDbEntity
  8
0
  6
Continuous
 62
     4
100
AcDbCircle
 10
4.82168040925
 20
4.973607799774999
 30
0.0
 40
0.006239290125
  0
CIRCLE
  5
2B2
330
1E
100
AcDbEntity
  8
0
  6
Continuous
 62
     4
100
AcDbCircle
 10
4.85042615015
 20
4.96670882195
 30
0.0
 40
0.007703763225
  0
CIRCLE
  5
2B3
330
1E
100
AcDbEntity
  8
0
  6
Continuous
 62
     4
100
AcDbCircle
 10
4.914433333225
 20
4.992771627025
 30
0.0
 40
0.008405910875
  0
CIRCLE
  5
2B4
330
1E
100
AcDbEntity
  8
0
  6
Continuous
 62
     4
100
AcDbCircle
 10
4.868823424325
 20
5.01730132595
 30
0.0
 40
0.006616379025
  0
CIRCLE
  5
2B5
330
1E
100
AcDbEntity
  8
0
  6
Continuous
 62
     4
100
AcDbCircle
 10
4.90370158995
 20
5.032249111199999
 30
0.0
 40
0.00923052155
  0
CIRCLE
  5
2B6
330
1E
100
AcDbEntity
  8
0
  6
Continuous
 62
     4
100
AcDbCircle
 10
4.8381613007
 20
5.086291104099999
 30
0.0
 40
0.008057927925
  0
CIRCLE
  5
2B7
330
1E
100
AcDbEntity
  8
0
  6
Continuous
 62
     4
100
AcDbCircle
 10
4.831262322875
 20
5.041447748299999
 30
0.0
 40
0.010320036825
  0
CIRCLE
  5
2B8
330
1E
100
AcDbEntity
  8
0
  6
Continuous
 62
     4
100
AcDbCircle
 10
4.878022061425
 20
5.06214468175
 30
0.0
 40
0.006909616175
  0
CIRCLE
  5
2B9
330
1E
100
AcDbEntity
  8
0
  6
Continuous
 62
     4
100
AcDbCircle
 10
4.902935036875
 20
5.081691785574999
 30
0.0
 40
0.006898977825
  0
CIRCLE
  5
2BA
330
1E
100
AcDbEntity
  8
0
  6
Continuous
 62
     4
100
AcDbCircle
 10
4.919415928325
 20
5.06137812865
 30
0.0
 40
0.006321158725
  0
CIRCLE
  5
2BB
330
1E
100
AcDbEntity
  8
0
  6
Continuous
 62
     4
100
AcDbCircle
 10
4.82512989815
 20
5.110054249924999
 30
0.0
 40
0.008057927925
  0
CIRCLE
  5
2BC
330
1E
100
AcDbEntity
  8
0
  6
Continuous
 62
     4
100
AcDbCircle
 10
4.8661404885
 20
5.117336504275
 30
0.0
 40
0.006132424725
  0
CIRCLE
  5
2BD
330
1E
100
AcDbEntity
  8
0
  6
Continuous
 62
     4
100
AcDbCircle
 10
4.8872206985
 20
5.117719780825
 30
0.0
 40
0.006526964375
  0
CIRCLE
  5
2BE
330
1E
100
AcDbEntity
  8
0
  6
Continuous
 62
     4
100
AcDbCircle
 10
4.906767802325
 20
5.117336504275
 30
0.0
 40
0.00728225435
  0
CIRCLE
  5
2BF
330
1E
100
AcDbEntity
  8
0
  6
Continuous
 62
     4
100
AcDbCircle
 10
4.8051995178
 20
5.0793921263
 30
0.0
 40
0.00499731475
  0
CIRCLE
  5
2C0
330
1E
100
AcDbEntity
  8
0
  6
Continuous
 62
     4
100
AcDbCircle
 10
4.863840829225
 20
5.088974039924999
 30
0.0
 40
0.00474086905
  0
CIRCLE
  5
2C1
330
1E
100
AcDbEntity
  8
0
  6
Continuous
 62
     4
100
AcDbCircle
 10
4.765338757075
 20
5.16103003045
 30
0.0
 40
0.006560637675
  0
CIRCLE
  5
2C2
330
1E
100
AcDbEntity
  8
0
  6
Continuous
 62
     4
100
AcDbCircle
 10
4.777603606525
 20
5.142632756274999
 30
0.0
 40
0.005420348875
  0
CIRCLE
  5
2C3
330
1E
100
AcDbEntity
  8
0
  6
Continuous
 62
     4
100
AcDbCircle
 10
4.801750028875
 20
5.1418662032
 30
0.0
 40
0.0057619099
  0
CIRCLE
  5
2C4
330
1E
100
AcDbEntity
  8
0
  6
Continuous
 62
     4
100
AcDbCircle
 10
4.82589645125
 20
5.144165862474999
 30
0.0
 40
0.00614439045
  0
CIRCLE
  5
2C5
330
1E
100
AcDbEntity
  8
0
  6
Continuous
 62
     4
100
AcDbCircle
 10
4.806732623975
 20
5.164479519374999
 30
0.0
 40
0.003908669175
  0
CIRCLE
  5
2C6
330
1E
100
AcDbEntity
  8
0
  6
Continuous
 62
     4
100
AcDbCircle
 10
4.78871862635
 20
5.160263477374999
 30
0.0
 40
0.006132424725
  0
CIRCLE
  5
2C7
330
1E
100
AcDbEntity
  8
0
  6
Continuous
 62
     4
100
AcDbCircle
 10
4.8339452587
 20
5.16103003045
 30
0.0
 40
0.0057619099
  0
CIRCLE
  5
2C8
330
1E
100
AcDbEntity
  8
0
  6
Continuous
 62
     4
100
AcDbCircle
 10
4.84965959705
 20
5.142249479724999
 30
0.0
 40
0.0038518816
  0
CIRCLE
  5
2C9
330
1E
100
AcDbEntity
  8
0
  6
Continuous
 62
     4
100
AcDbCircle
 10
4.86307427615
 20
5.159113647725
 30
0.0
 40
0.0072923336
  0
CIRCLE
  5
2CA
330
1E
100
AcDbEntity
  8
0
  6
Continuous
 62
     4
100
AcDbCircle
 10
4.8787886145
 20
5.145698968649999
 30
0.0
 40
0.0061801486
  0
CIRCLE
  5
2CB
330
1E
100
AcDbEntity
  8
0
  6
Continuous
 62
     4
100
AcDbCircle
 10
4.897952441775
 20
5.14148292665
 30
0.0
 40
0.00499731475
  0
TEXT
  5
47F
330
1E
100
AcDbEntity
  8
0
  6
Continuous
 62
     7
100
AcDbText
 10
4.735122300375
 20
4.5988361998
 30
0.0
 40
0.025
  1
.407
 41
1.129411764705883
 72
     5
 11
4.815122300375
 21
4.5988361998
 31
0.0
100
AcDbText
  0
LINE
  5
480
330
1E
100
AcDbEntity
  8
0
  6
Continuous
 62
     7
100
AcDbLine
 10
4.969669824374999
 20
4.7936372763
 30
0.0
 11
4.969669824374999
 21
4.5800861998
 31
0.0
  0
LINE
  5
481
330
1E
100
AcDbEntity
  8
0
  6
Continuous
 62
     7
100
AcDbLine
 10
4.562669824374999
 20
4.7936372763
 30
0.0
 11
4.562669824374999
 21
4.5800861998
 31
0.0
  0
LINE
  5
482
330
1E
100
AcDbEntity
  8
0
  6
Continuous
 62
     7
100
AcDbLine
 10
4.969669824374999
 20
4.6113361998
 30
0.0
 11
4.827622300375
 21
4.6113361998
 31
0.0
  0
LINE
  5
483
330
1E
100
AcDbEntity
  8
0
  6
Continuous
 62
     7
100
AcDbLine
 10
4.562669824374999
 20
4.6113361998
 30
0.0
 11
4.722622300375
 21
4.6113361998
 31
0.0
  0
LWPOLYLINE
  5
484
330
1E
100
AcDbEntity
  8
0
  6
Continuous
 62
     7
100
AcDbPolyline
 90
        4
 70
     0
 43
0.0
 10
4.922794824374999
 20
4.6035236998
 10
4.969669824374999
 20
4.6113361998
 10
4.922794824374999
 20
4.6191486998
 10
4.922794824374999
 20
4.6035236998
  0
LWPOLYLINE
  5
485
330
1E
100
AcDbEntity
  8
0
  6
Continuous
 62
     7
100
AcDbPolyline
 90
        4
 70
     0
 43
0.0
 10
4.609544824374999
 20
4.6191486998
 10
4.562669824374999
 20
4.6113361998
 10
4.609544824374999
 20
4.6035236998
 10
4.609544824374999
 20
4.6191486998
  0
TEXT
  5
486
330
1E
100
AcDbEntity
  8
0
  6
Continuous
 62
     7
100
AcDbText
 10
3.93591710095
 20
5.728701681775
 30
0.0
 40
0.025
  1
1.750
 41
1.142857142857149
 72
     5
 11
4.03591710095
 21
5.728701681775
 31
0.0
100
AcDbText
  0
LINE
  5
487
330
1E
100
AcDbEntity
  8
0
  6
Continuous
 62
     7
100
AcDbLine
 10
4.969669824374999
 20
5.137427717999999
 30
0.0
 11
4.969669824374999
 21
5.772451681775
 31
0.0
  0
LINE
  5
488
330
1E
100
AcDbEntity
  8
0
  6
Continuous
 62
     7
100
AcDbLine
 10
3.219669824375
 20
5.137427717999999
 30
0.0
 11
3.219669824375
 21
5.772451681775
 31
0.0
  0
LINE
  5
489
330
1E
100
AcDbEntity
  8
0
  6
Continuous
 62
     7
100
AcDbLine
 10
4.969669824374999
 20
5.741201681774999
 30
0.0
 11
4.04841710095
 21
5.741201681774999
 31
0.0
  0
LINE
  5
48A
330
1E
100
AcDbEntity
  8
0
  6
Continuous
 62
     7
100
AcDbLine
 10
3.219669824375
 20
5.741201681774999
 30
0.0
 11
3.92341710095
 21
5.741201681774999
 31
0.0
  0
LWPOLYLINE
  5
48B
330
1E
100
AcDbEntity
  8
0
  6
Continuous
 62
     7
100
AcDbPolyline
 90
        4
 70
     0
 43
0.0
 10
4.922794824374999
 20
5.733389181775
 10
4.969669824374999
 20
5.741201681775
 10
4.922794824374999
 20
5.749014181775
 10
4.922794824374999
 20
5.733389181775
  0
LWPOLYLINE
  5
48C
330
1E
100
AcDbEntity
  8
0
  6
Continuous
 62
     7
100
AcDbPolyline
 90
        4
 70
     0
 43
0.0
 10
3.266544824375
 20
5.749014181775
 10
3.219669824375
 20
5.741201681775
 10
3.266544824375
 20
5.733389181775
 10
3.266544824375
 20
5.749014181775
  0
TEXT
  5
48D
330
1E
100
AcDbEntity
  8
0
  6
Continuous
 62
     7
100
AcDbText
 10
3.516310195575
 20
4.884894615949999
 30
0.0
 40
0.025
  1
11.0%%d
 41
1.364705882470588
 72
     5
 11
3.61297686225
 21
4.884894615949999
 31
0.0
100
AcDbText
  0
LINE
  5
48E
330
1E
100
AcDbEntity
  8
0
  6
Continuous
 62
     7
100
AcDbLine
 10
4.458952472
 20
4.8092622763
 30
0.0
 11
3.5295097507
 21
4.8092622763
 31
0.0
  0
ARC
  5
490
330
1E
100
AcDbEntity
  8
0
  6
Continuous
 62
     7
100
AcDbCircle
 10
4.562669824374999
 20
4.8092622763
 30
0.0
 40
1.001910073675
100
AcDbArc
 50
176.3872859508
 51
180.0
  0
ARC
  5
491
330
1E
100
AcDbEntity
  8
0
  6
Continuous
 62
     7
100
AcDbCircle
 10
4.562669824374999
 20
4.8092622763
 30
0.0
 40
1.001910073675
100
AcDbArc
 50
169.0
 51
173.5165242425999
  0
SOLID
  5
492
330
1E
100
AcDbEntity
  8
0
  6
Continuous
 62
     7
100
AcDbTrace
 10
3.56966655155
 20
4.855941711599999
 30
0.0
 11
3.554045826525
 21
4.856307191049999
 31
0.0
 12
3.5607597507
 22
4.8092622763
 32
0.0
 13
3.5607597507
 23
4.8092622763
 33
0.0
  0
SOLID
  5
493
330
1E
100
AcDbEntity
  8
0
  6
Continuous
 62
     7
100
AcDbTrace
 10
3.5636004973
 20
4.955536240875
 30
0.0
 11
3.57900396235
 21
4.952914430599999
 31
0.0
 12
3.5791676607
 22
5.000435730899999
 32
0.0
 13
3.5791676607
 23
5.000435730899999
 33
0.0
  0
TEXT
  5
494
330
1E
100
AcDbEntity
  8
0
  6
Continuous
 62
     7
100
AcDbText
 10
3.11512832265
 20
4.996306841174999
 30
0.0
 40
0.025
  1
.375
 41
1.066666666666667
 72
     5
 11
3.19512832265
 21
4.996306841174999
 31
0.0
100
AcDbText
  0
LINE
  5
495
330
1E
100
AcDbEntity
  8
0
  6
Continuous
 62
     7
100
AcDbLine
 10
3.239440276875
 20
5.1842622763
 30
0.0
 11
3.12387832265
 21
5.1842622763
 31
0.0
  0
LINE
  5
496
330
1E
100
AcDbEntity
  8
0
  6
Continuous
 62
     7
100
AcDbLine
 10
4.495086166675
 20
4.8092622763
 30
0.0
 11
3.12387832265
 21
4.8092622763
 31
0.0
  0
LINE
  5
497
330
1E
100
AcDbEntity
  8
0
  6
Continuous
 62
     7
100
AcDbLine
 10
3.15512832265
 20
5.1842622763
 30
0.0
 11
3.15512832265
 21
5.033806841175
 31
0.0
  0
LINE
  5
498
330
1E
100
AcDbEntity
  8
0
  6
Continuous
 62
     7
100
AcDbLine
 10
3.15512832265
 20
4.8092622763
 30
0.0
 11
3.15512832265
 21
4.983806841174999
 31
0.0
  0
LWPOLYLINE
  5
499
330
1E
100
AcDbEntity
  8
0
  6
Continuous
 62
     7
100
AcDbPolyline
 90
        4
 70
     0
 43
0.0
 10
3.16294082265
 20
5.1373872763
 10
3.15512832265
 20
5.1842622763
 10
3.14731582265
 20
5.1373872763
 10
3.16294082265
 20
5.1373872763
  0
LWPOLYLINE
  5
49A
330
1E
100
AcDbEntity
  8
0
  6
Continuous
 62
     7
100
AcDbPolyline
 90
        4
 70
     0
 43
0.0
 10
3.14731582265
 20
4.8561372763
 10
3.15512832265
 20
4.8092622763
 10
3.16294082265
 20
4.8561372763
 10
3.14731582265
 20
4.8561372763
  0
ENDSEC
  0
SECTION
  2
OBJECTS
  0
DICTIONARY
  5
C
330
0
100
AcDbDictionary
281
     1
  3
ACAD_GROUP
350
D
  3
ACAD_LAYOUT
350
19
  3
ACAD_MLINESTYLE
350
16
  3
ACAD_PLOTSETTINGS
350
18
  3
ACAD_PLOTSTYLENAME
350
E
  3
AcDbVariableDictionary
350
4A0
  3
ASE_INDEX_DICTIONARY
350
49C
  0
DICTIONARY
  5
D
102
{ACAD_REACTORS
330
C
102
}
330
C
100
AcDbDictionary
281
     1
  0
DICTIONARY
  5
19
102
{ACAD_REACTORS
330
C
102
}
330
C
100
AcDbDictionary
281
     1
  3
Layout1
350
1D
  3
Model
350
21
  0
DICTIONARY
  5
16
102
{ACAD_REACTORS
330
C
102
}
330
C
100
AcDbDictionary
281
     1
  3
Standard
350
17
  0
DICTIONARY
  5
18
102
{ACAD_REACTORS
330
C
102
}
330
C
100
AcDbDictionary
281
     1
  0
ACDBDICTIONARYWDFLT
  5
E
102
{ACAD_REACTORS
330
C
102
}
330
C
100
AcDbDictionary
281
     1
  3
Normal
350
F
100
AcDbDictionaryWithDefault
340
F
  0
DICTIONARY
  5
4A0
102
{ACAD_REACTORS
330
C
102
}
330
C
100
AcDbDictionary
281
     1
  3
DIMASSOC
350
4A1
  0
DICTIONARY
  5
49C
102
{ACAD_REACTORS
330
C
102
}
330
C
100
AcDbDictionary
281
     1
  3
ASEBlockHierarchyIndexRecord
350
49E
1001
DCO15
1040
1526985309.967999
  0
LAYOUT
  5
1D
102
{ACAD_REACTORS
330
19
102
}
330
19
100
AcDbPlotSettings
  1

  2
\\SSI\Engineering - Xerox DC220.SSI
  4

  6

 40
0.0
 41
0.0
 42
0.0
 43
0.0
 44
0.0
 45
0.0
 46
0.0
 47
0.0
 48
0.0
 49
0.0
140
0.0
141
0.0
142
1.0
143
1.0
 70
   688
 72
     0
 73
     0
 74
     5
  7

 75
    16
147
1.0
148
0.0
149
0.0
100
AcDbLayout
  1
Layout1
 70
     1
 71
     1
 10
0.0
 20
0.0
 11
12.0
 21
9.0
 12
0.0
 22
0.0
 32
0.0
 14
1.000000000000000E+20
 24
1.000000000000000E+20
 34
1.000000000000000E+20
 15
-1.000000000000000E+20
 25
-1.000000000000000E+20
 35
-1.000000000000000E+20
146
0.0
 13
0.0
 23
0.0
 33
0.0
 16
1.0
 26
0.0
 36
0.0
 17
0.0
 27
1.0
 37
0.0
 76
     0
330
1A
  0
LAYOUT
  5
21
102
{ACAD_REACTORS
330
19
102
}
330
19
100
AcDbPlotSettings
  1

  2
Acrobat PDFWriter
  4
Letter
  6

 40
7.143749713897705
 41
7.143756389617919
 42
7.14373779296875
 43
7.14373779296875
 44
215.8999938964843
 45
279.3999938964843
 46
0.0
 47
0.0
 48
2.980444677608858
 49
4.495326878498609
140
5.205073063880455
141
5.858541753476991
142
1.0
143
0.213138049214118
 70
 11952
 72
     0
 73
     1
 74
     4
  7

 75
     0
147
4.691794842296798
148
-75.70329481126499
149
-114.1813027138646
100
AcDbLayout
  1
Model
 70
     1
 71
     0
 10
0.0
 20
0.0
 11
12.0
 21
9.0
 12
0.0
 22
0.0
 32
0.0
 14
0.0
 24
0.0
 34
0.0
 15
0.0
 25
0.0
 35
0.0
146
0.0
 13
0.0
 23
0.0
 33
0.0
 16
1.0
 26
0.0
 36
0.0
 17
0.0
 27
1.0
 37
0.0
 76
     0
330
1E
  0
MLINESTYLE
  5
17
102
{ACAD_REACTORS
330
16
102
}
330
16
100
AcDbMlineStyle
  2
STANDARD
 70
     0
  3

 62
   256
 51
90.0
 52
90.0
 71
     2
 49
0.5
 62
   256
  6
BYLAYER
 49
-0.5
 62
   256
  6
BYLAYER
  0
ACDBPLACEHOLDER
  5
F
102
{ACAD_REACTORS
330
E
102
}
330
E
  0
DICTIONARYVAR
  5
4A1
102
{ACAD_REACTORS
330
4A0
102
}
330
4A0
100
DictionaryVariables
280
     0
  1
1
  0
XRECORD
  5
49E
102
{ACAD_REACTORS
330
49C
102
}
330
49C
100
AcDbXrecord
280
     1
  0
ENDSEC
  0
EOF
