  0
SECTION
  2
HEADER
  9
$ACADVER
  1
AC1009
  9
$INSBASE
 10
0.0
 20
0.0
 30
0.0
  9
$EXTMIN
 10
-1.011374098447511
 20
-0.3929070886124433
 30
-0.0000000349181948
  9
$EXTMAX
 10
-0.1513971566463805
 20
-0.0176185782112146
 30
0.0000000814935746
  9
$LIMMIN
 10
0.0
 20
0.0
  9
$LIMMAX
 10
1.1999999999999991
 20
1.0
  9
$ORTHOMODE
 70
     0
  9
$REGENMODE
 70
     1
  9
$FILLMODE
 70
     1
  9
$QTEXTMODE
 70
     0
  9
$MIRRTEXT
 70
     1
  9
$DRAGMODE
 70
     2
  9
$LTSCALE
 40
1.0
  9
$OSMODE
 70
    19
  9
$ATTMODE
 70
     1
  9
$TEXTSIZE
 40
0.125
  9
$TRACEWID
 40
0.05
  9
$TEXTSTYLE
  7
STANDARD
  9
$CLAYER
  8
PART
  9
$CELTYPE
  6
BYLAYER
  9
$CECOLOR
 62
     1
  9
$DIMSCALE
 40
0.0
  9
$DIMASZ
 40
0.125
  9
$DIMEXO
 40
0.05
  9
$DIMDLI
 40
0.02
  9
$DIMRND
 40
0.0
  9
$DIMDLE
 40
0.0
  9
$DIMEXE
 40
0.05
  9
$DIMTP
 40
0.005
  9
$DIMTM
 40
0.005
  9
$DIMTXT
 40
0.125
  9
$DIMCEN
 40
0.02
  9
$DIMTSZ
 40
0.0
  9
$DIMTOL
 70
     0
  9
$DIMLIM
 70
     0
  9
$DIMTIH
 70
     1
  9
$DIMTOH
 70
     1
  9
$DIMSE1
 70
     0
  9
$DIMSE2
 70
     0
  9
$DIMTAD
 70
     0
  9
$DIMZIN
 70
     4
  9
$DIMBLK
  1

  9
$DIMASO
 70
     1
  9
$DIMSHO
 70
     1
  9
$DIMPOST
  1

  9
$DIMAPOST
  1

  9
$DIMALT
 70
     0
  9
$DIMALTD
 70
     1
  9
$DIMALTF
 40
25.399999999999999
  9
$DIMLFAC
 40
1.0
  9
$DIMTOFL
 70
     0
  9
$DIMTVP
 40
0.0
  9
$DIMTIX
 70
     0
  9
$DIMSOXD
 70
     0
  9
$DIMSAH
 70
     0
  9
$DIMBLK1
  1

  9
$DIMBLK2
  1

  9
$DIMSTYLE
  2
SCOTTG
  9
$DIMCLRD
 70
   256
  9
$DIMCLRE
 70
   256
  9
$DIMCLRT
 70
   256
  9
$DIMTFAC
 40
1.0
  9
$DIMGAP
 40
0.02
  9
$LUNITS
 70
     2
  9
$LUPREC
 70
     5
  9
$SKETCHINC
 40
0.1
  9
$FILLETRAD
 40
0.01
  9
$AUNITS
 70
     0
  9
$AUPREC
 70
     0
  9
$MENU
  1
.
  9
$ELEVATION
 40
0.0
  9
$PELEVATION
 40
0.0
  9
$THICKNESS
 40
0.0
  9
$LIMCHECK
 70
     0
  9
$BLIPMODE
 70
     0
  9
$CHAMFERA
 40
0.0
  9
$CHAMFERB
 40
0.0
  9
$SKPOLY
 70
     0
  9
$TDCREATE
 40
2450919.3750775461
  9
$TDUPDATE
 40
2455820.5246711811
  9
$TDINDWG
 40
2.4069790509
  9
$TDUSRTIMER
 40
2.4069790625
  9
$USRTIMER
 70
     1
  9
$ANGBASE
 50
0.0
  9
$ANGDIR
 70
     0
  9
$PDMODE
 70
     0
  9
$PDSIZE
 40
0.0
  9
$PLINEWID
 40
0.0
  9
$COORDS
 70
     0
  9
$SPLFRAME
 70
     0
  9
$SPLINETYPE
 70
     6
  9
$SPLINESEGS
 70
     8
  9
$ATTDIA
 70
     0
  9
$ATTREQ
 70
     1
  9
$HANDLING
 70
     1
  9
$HANDSEED
  5
1A346
  9
$SURFTAB1
 70
     6
  9
$SURFTAB2
 70
     6
  9
$SURFTYPE
 70
     6
  9
$SURFU
 70
     6
  9
$SURFV
 70
     6
  9
$UCSNAME
  2

  9
$UCSORG
 10
0.0
 20
0.0
 30
0.0
  9
$UCSXDIR
 10
1.0
 20
0.0
 30
0.0
  9
$UCSYDIR
 10
0.0
 20
1.0
 30
0.0
  9
$PUCSNAME
  2

  9
$PUCSORG
 10
0.0
 20
0.0
 30
0.0
  9
$PUCSXDIR
 10
1.0
 20
0.0
 30
0.0
  9
$PUCSYDIR
 10
0.0
 20
1.0
 30
0.0
  9
$USERI1
 70
     0
  9
$USERI2
 70
     0
  9
$USERI3
 70
     0
  9
$USERI4
 70
     0
  9
$USERI5
 70
     0
  9
$USERR1
 40
0.0
  9
$USERR2
 40
0.0
  9
$USERR3
 40
0.0
  9
$USERR4
 40
0.0
  9
$USERR5
 40
0.0
  9
$WORLDVIEW
 70
     1
  9
$SHADEDGE
 70
     3
  9
$SHADEDIF
 70
    70
  9
$TILEMODE
 70
     1
  9
$MAXACTVP
 70
    48
  9
$PLIMCHECK
 70
     0
  9
$PEXTMIN
 10
-0.0002593796237598
 20
-0.0003357869613225
 30
-0.0015258207003583
  9
$PEXTMAX
 10
8.5002594192049692
 20
11.000335718974769
 30
0.0000000349246037
  9
$PLIMMIN
 10
0.0000001811605737
 20
-0.0000001192092895
  9
$PLIMMAX
 10
8.4999999408646811
 20
10.999999640494821
  9
$UNITMODE
 70
     0
  9
$VISRETAIN
 70
     1
  9
$PLINEGEN
 70
     0
  9
$PSLTSCALE
 70
     1
  0
ENDSEC
  0
SECTION
  2
TABLES
  0
TABLE
  2
VPORT
 70
     1
  0
VPORT
  2
*ACTIVE
 70
     0
 10
0.0
 20
0.0
 11
1.0
 21
1.0
 12
-20.303372673542299
 22
-0.8444406821248872
 13
0.0
 23
0.0
 14
0.5
 24
0.5
 15
0.5
 25
0.5
 16
0.0
 26
0.0
 36
5.6148375865943736
 17
19.721987045995348
 27
0.6391778487130584
 37
0.0
 40
0.4172018496711067
 41
2.067833698030634
 42
50.0
 43
0.0
 44
0.0
 50
0.0
 51
0.0
 71
     0
 72
 20000
 73
     1
 74
     0
 75
     0
 76
     0
 77
     0
 78
     0
  0
ENDTAB
  0
TABLE
  2
LTYPE
 70
     1
  0
LTYPE
  2
CONTINUOUS
 70
     0
  3
Solid line
 72
    65
 73
     0
 40
0.0
  0
ENDTAB
  0
TABLE
  2
LAYER
 70
     6
  0
LAYER
  2
0
 70
     0
 62
     7
  6
CONTINUOUS
  0
LAYER
  2
DEFPOINTS
 70
     0
 62
     7
  6
CONTINUOUS
  0
LAYER
  2
HATCH
 70
     0
 62
     7
  6
CONTINUOUS
  0
LAYER
  2
PART
 70
     0
 62
     7
  6
CONTINUOUS
  0
ENDTAB
  0
TABLE
  2
STYLE
 70
     3
  0
STYLE
  2
STANDARD
 70
     0
 40
0.0
 41
1.0
 50
0.0
 71
     0
 42
0.125
  3
txt
  4

  0
STYLE
  2
ROMANS
 70
     0
 40
0.0
 41
1.0
 50
0.0
 71
     0
 42
0.1
  3
SIMPLEX.shx
  4

  0
ENDTAB
  0
TABLE
  2
VIEW
 70
     0
  0
ENDTAB
  0
TABLE
  2
UCS
 70
     0
  0
ENDTAB
  0
TABLE
  2
APPID
 70
    16
  0
APPID
  2
ACAD
 70
     0
  0
APPID
  2
ADP_SK
 70
     0
  0
APPID
  2
ADP_SOL
 70
     0
  0
APPID
  2
ACIS_LNK
 70
     0
  0
APPID
  2
AME_SOL
 70
     0
  0
APPID
  2
ACAD_MLEADERVER
 70
     0
  0
APPID
  2
ACAD_EXEMPT_FROM_CAD_STANDARDS
 70
     0
  0
APPID
  2
ACAD_PSEXT
 70
     0
  0
APPID
  2
ACDBDYNAMICBLOCKGUID
 70
     0
  0
APPID
  2
ACDBBLOCKREPETAG
 70
     0
  0
APPID
  2
ACDBDYNAMICBLOCKTRUENAME
 70
     0
  0
APPID
  2
ACAD_DSTYLE_DIMJAG
 70
     0
  0
APPID
  2
ACAD_DSTYLE_DIMTALN
 70
     0
  0
APPID
  2
ACAECLAYERSTANDARD
 70
     0
  0
APPID
  2
ACAUTHENVIRON
 70
     0
  0
APPID
  2
ACADANNOPO
 70
     0
  0
ENDTAB
  0
TABLE
  2
DIMSTYLE
 70
     2
  0
DIMSTYLE
  2
SCOTTG
 70
     0
  3

  4

  5

  6

  7

 40
0.15
 41
0.125
 42
0.1
 43
0.25
 44
0.1
 45
0.0
 46
0.0
 47
0.01
 48
0.01
140
0.125
141
0.06
142
0.0
143
25.399999999999999
144
1.0
145
0.0
146
1.0
147
0.09
 71
     1
 72
     0
 73
     1
 74
     1
 75
     0
 76
     0
 77
     0
 78
     4
170
     0
171
     1
172
     0
173
     0
174
     1
175
     0
176
   256
177
   256
178
   256
  0
ENDTAB
  0
ENDSEC
  0
SECTION
  2
BLOCKS
  0
BLOCK
  8
0
  2
$MODEL_SPACE
 70
     0
 10
0.0
 20
0.0
 30
0.0
  3
$MODEL_SPACE
  1

  0
ENDBLK
  5
1A
  8
0
  0
BLOCK
 67
     1
  8
0
  2
$PAPER_SPACE
 70
     0
 10
0.0
 20
0.0
 30
0.0
  3
$PAPER_SPACE
  1

  0
ENDBLK
  5
B932
 67
     1
  8
0
  0
BLOCK
  8
0
 62
     1
  2
*U24
 70
     1
 10
0.0
 20
0.0
 30
0.0
  3
*U24
  1

  0
TEXT
  5
1A1DF
  8
PART
 10
-0.3733034910232481
 20
0.7141972627033814
 30
0.0
 40
0.0378374821074757
  1
.400
  7
ROMANS
  0
ENDBLK
  5
1A1E1
  8
0
 62
     1
  0
BLOCK
  8
0
 62
     1
  2
*U25
 70
     1
 10
0.0
 20
0.0
 30
0.0
  3
*U25
  1

  0
TEXT
  5
1A1E3
  8
PART
 10
-0.2841244632638552
 20
0.8031443739727691
 30
0.0
 40
0.0378374821074757
  1
.561
  7
ROMANS
  0
ENDBLK
  5
1A1E5
  8
0
 62
     1
  0
BLOCK
  8
0
 62
     1
  2
*U26
 70
     1
 10
0.0
 20
0.0
 30
0.0
  3
*U26
  1

  0
TEXT
  5
1A1E7
  8
PART
 10
-0.7225985692659322
 20
0.3060812574018382
 30
0.0
 40
0.0378374821074757
  1
.650
  7
ROMANS
  0
ENDBLK
  5
1A1E9
  8
0
 62
     1
  0
BLOCK
  8
0
 62
     1
  2
*U27
 70
     1
 10
0.0
 20
0.0
 30
0.0
  3
*U27
  1

  0
TEXT
  5
1A1EB
  8
PART
 10
0.1457500447553917
 20
-0.4352694319903586
 30
0.0
 40
0.0378374821394327
  1
.018
  7
ROMANS
  0
ENDBLK
  5
1A1ED
  8
0
 62
     1
  0
BLOCK
  8
0
 62
     1
  2
*U28
 70
     1
 10
0.0
 20
0.0
 30
0.0
  3
*U28
  1

  0
TEXT
  5
1A1EF
  8
PART
 10
-0.0855716434774586
 20
-0.5545369172463596
 30
0.0
 40
0.0378374821394327
  1
.155
  7
ROMANS
  0
ENDBLK
  5
1A1F1
  8
0
 62
     1
  0
BLOCK
  8
0
 62
     1
  2
*U29
 70
     1
 10
0.0
 20
0.0
 30
0.0
  3
*U29
  1

  0
TEXT
  5
1A1F3
  8
PART
 10
0.1468273350806249
 20
-0.4926613062714235
 30
0.0
 40
0.0378374821394327
  1
.040
  7
ROMANS
  0
ENDBLK
  5
1A1F5
  8
0
 62
     1
  0
BLOCK
  8
0
 62
     1
  2
*U30
 70
     1
 10
0.0
 20
0.0
 30
0.0
  3
*U30
  1

  0
TEXT
  5
1A1F7
  8
PART
 10
-0.7225985693146287
 20
-0.1939187410697232
 30
0.0
 40
0.0378374821394327
  1
.350
  7
ROMANS
  0
ENDBLK
  5
1A1F9
  8
0
 62
     1
  0
BLOCK
  8
0
 62
     1
  2
*U31
 70
     1
 10
0.0
 20
0.0
 30
0.0
  3
*U31
  1

  0
TEXT
  5
1A1FB
  8
PART
 10
-0.3754939488229078
 20
-0.229541701938869
 30
0.0
 40
0.0378374821394327
  1
.030
  7
ROMANS
  0
ENDBLK
  5
1A1FD
  8
0
 62
     1
  0
BLOCK
  8
0
 62
     1
  2
*U32
 70
     1
 10
0.0
 20
0.0
 30
0.0
  3
*U32
  1

  0
TEXT
  5
1A1FF
  8
PART
 10
-0.2079462264281474
 20
0.3460745370676188
 30
0.0
 40
0.0378374821074757
  1
.135
  7
ROMANS
  0
ENDBLK
  5
1A201
  8
0
 62
     1
  0
BLOCK
  8
0
 62
     1
  2
*X33
 70
     1
 10
0.0
 20
0.0
 30
0.0
  3
*X33
  1

  0
LINE
  5
1A223
  8
0
 62
     0
 10
0.8243845579917281
 20
0.3316567956356327
 30
0.0
 11
0.8389978448702316
 21
0.3462700825141365
 31
0.0
  0
LINE
  5
1A224
  8
0
 62
     0
 10
0.7346998941470196
 20
0.2419721317909245
 30
0.0
 11
0.7518398988675857
 21
0.2591121365114901
 31
0.0
  0
LINE
  5
1A225
  8
0
 62
     0
 10
0.7867545588911296
 20
0.3382209703591932
 30
0.0
 11
0.8052429612693181
 21
0.3567093727373818
 31
0.0
  0
LINE
  5
1A226
  8
0
 62
     0
 10
0.6905057203228604
 20
0.241972131790924
 30
0.0
 11
0.7205057203228616
 21
0.2719721317909252
 31
0.0
  0
LINE
  5
1A227
  8
0
 62
     0
 10
0.7491245597905301
 20
0.3447851450827528
 30
0.0
 11
0.7715657483457306
 21
0.3672263336379538
 31
0.0
  0
LINE
  5
1A228
  8
0
 62
     0
 10
0.6463115464987013
 20
0.2419721317909245
 30
0.0
 11
0.6763115464987024
 21
0.2719721317909252
 31
0.0
  0
LINE
  5
1A229
  8
0
 62
     0
 10
0.6021173726745426
 20
0.2419721317909245
 30
0.0
 11
0.663870017131722
 21
0.3037247762481039
 31
0.0
  0
LINE
  5
1A22A
  8
0
 62
     0
 10
0.705140361037663
 20
0.3449951201540453
 30
0.0
 11
0.7344551733655745
 21
0.3743099324819568
 31
0.0
  0
LINE
  5
1A22B
  8
0
 62
     0
 10
0.4421572271003363
 20
0.0820119862167186
 30
0.0
 11
0.4698564228440456
 21
0.1097111819604279
 31
0.0
  0
LINE
  5
1A22C
  8
0
 62
     0
 10
0.5648564228440467
 20
0.2489053557845882
 30
0.0
 11
0.5879231988503834
 21
0.2719721317909247
 31
0.0
  0
LINE
  5
1A22D
  8
0
 62
     0
 10
0.6338700171317222
 20
0.3179189500722637
 30
0.0
 11
0.6909978805359583
 21
0.3750468134764997
 31
0.0
  0
LINE
  5
1A22E
  8
0
 62
     0
 10
0.439856422844045
 20
0.1239053557845864
 30
0.0
 11
0.4698564228440465
 21
0.153905355784588
 31
0.0
  0
LINE
  5
1A22F
  8
0
 62
     0
 10
0.6167520133894464
 20
0.3449951201541475
 30
0.0
 11
0.6467942308069237
 21
0.3750373375716247
 31
0.0
  0
LINE
  5
1A230
  8
0
 62
     0
 10
0.439856422844045
 20
0.168099529608746
 30
0.0
 11
0.4698564228440461
 21
0.1980995296087467
 31
0.0
  0
LINE
  5
1A231
  8
0
 62
     0
 10
0.5725578395652869
 20
0.3449951201541466
 30
0.0
 11
0.6025905810778897
 21
0.3750278616667488
 31
0.0
  0
LINE
  5
1A232
  8
0
 62
     0
 10
0.439856422844045
 20
0.2122937034329047
 30
0.0
 11
0.4698564228440461
 21
0.2422937034329058
 31
0.0
  0
LINE
  5
1A233
  8
0
 62
     0
 10
0.5283636657411268
 20
0.3449951201541461
 30
0.0
 11
0.5583869313488546
 21
0.3750183857618738
 31
0.0
  0
LINE
  5
1A234
  8
0
 62
     0
 10
0.439856422844045
 20
0.2564878772570642
 30
0.0
 11
0.4698564228440461
 21
0.2864878772570654
 31
0.0
  0
LINE
  5
1A235
  8
0
 62
     0
 10
0.4841694919169677
 20
0.3449951201541457
 30
0.0
 11
0.5141832816198209
 21
0.3750089098569984
 31
0.0
  0
LINE
  5
1A236
  8
0
 62
     0
 10
0.439856422844045
 20
0.3006820510812229
 30
0.0
 11
0.4698564228440461
 21
0.3306820510812241
 31
0.0
  0
LINE
  5
1A237
  8
0
 62
     0
 10
0.439856422844045
 20
0.3448762249053825
 30
0.0
 11
0.4699796318907859
 21
0.3749994339521234
 31
0.0
  0
ENDBLK
  5
1A239
  8
0
 62
     1
  0
BLOCK
  8
0
 62
     1
  2
*X34
 70
     1
 10
0.0
 20
0.0
 30
0.0
  3
*X34
  1

  0
LINE
  5
1A23B
  8
0
 62
     0
 10
0.4399374690465335
 20
0.2797701140031972
 30
0.0
 11
0.4395910786982763
 21
0.2810628603821445
 31
0.0
  0
LINE
  5
1A23C
  8
0
 62
     0
 10
0.4399374690465339
 20
0.2314738226887432
 30
0.0
 11
0.428606656957427
 21
0.2737609890963055
 31
0.0
  0
LINE
  5
1A23D
  8
0
 62
     0
 10
0.4133753231860162
 20
0.282308809283796
 30
0.0
 11
0.4093213453041278
 21
0.2974384607117644
 31
0.0
  0
LINE
  5
1A23E
  8
0
 62
     0
 10
0.4399374690465337
 20
0.1831775313742891
 30
0.0
 11
0.4398904567077811
 21
0.1833529838110968
 31
0.0
  0
LINE
  5
1A23F
  8
0
 62
     0
 10
0.3931429265235125
 20
0.309520850272694
 30
0.0
 11
0.3904223950249701
 21
0.3196740120488455
 31
0.0
  0
LINE
  5
1A240
  8
0
 62
     0
 10
0.4399374690465339
 20
0.1348812400598351
 30
0.0
 11
0.4359747077130578
 21
0.1496704666946371
 31
0.0
  0
LINE
  5
1A241
  8
0
 62
     0
 10
0.3756410460933242
 20
0.3265424659516993
 30
0.0
 11
0.3734242791461819
 21
0.3348155528269734
 31
0.0
  0
LINE
  5
1A242
  8
0
 62
     0
 10
0.4366937666974167
 20
0.0986906107169192
 30
0.0
 11
0.4293284424860201
 21
0.1261783748880685
 31
0.0
  0
LINE
  5
1A243
  8
0
 62
     0
 10
0.3594010864092187
 20
0.3388545292911962
 30
0.0
 11
0.357463427773814
 21
0.3460859697662517
 31
0.0
  0
LINE
  5
1A244
  8
0
 62
     0
 10
0.4236456000530109
 20
0.0990907402650123
 30
0.0
 11
0.4214202565128984
 21
0.1073958354210074
 31
0.0
  0
LINE
  5
1A245
  8
0
 62
     0
 10
0.3439611558475257
 20
0.3481808432983167
 30
0.0
 11
0.3422035449535952
 21
0.3547403364544026
 31
0.0
  0
LINE
  5
1A246
  8
0
 62
     0
 10
0.414469652311295
 20
0.0850395521302385
 30
0.0
 11
0.4127120414173645
 21
0.0915990452863245
 31
0.0
  0
LINE
  5
1A247
  8
0
 62
     0
 10
0.3291032169085828
 20
0.3553351349997555
 30
0.0
 11
0.3274715379448982
 21
0.3614246437938675
 31
0.0
  0
LINE
  5
1A248
  8
0
 62
     0
 10
0.4050535136627658
 20
0.0718847686632112
 30
0.0
 11
0.4034218346990813
 21
0.0779742774573231
 31
0.0
  0
LINE
  5
1A249
  8
0
 62
     0
 10
0.3147039765594528
 20
0.3607775402586499
 30
0.0
 11
0.3131646747566468
 21
0.3665222927949046
 31
0.0
  0
LINE
  5
1A24A
  8
0
 62
     0
 10
0.3952122311937902
 20
0.0603166435346099
 30
0.0
 11
0.3936729293909842
 21
0.0660613960708645
 31
0.0
  0
LINE
  5
1A24B
  8
0
 62
     0
 10
0.3006861290681069
 20
0.3647965679946514
 30
0.0
 11
0.2992165190236715
 21
0.3702812273477978
 31
0.0
  0
LINE
  5
1A24C
  8
0
 62
     0
 10
0.3850122412695385
 20
0.0500872328541551
 30
0.0
 11
0.3835426312251031
 21
0.0555718922073005
 31
0.0
  0
LINE
  5
1A24D
  8
0
 62
     0
 10
0.2869979727349288
 20
0.3675851715775655
 30
0.0
 11
0.2855816853436241
 21
0.3728708280800337
 31
0.0
  0
LINE
  5
1A24E
  8
0
 62
     0
 10
0.3744989292923597
 20
0.0410271559943558
 30
0.0
 11
0.3730826419010551
 21
0.046312812496824
 31
0.0
  0
LINE
  5
1A24F
  8
0
 62
     0
 10
0.2736035067256475
 20
0.3692777079500038
 30
0.0
 11
0.2722280872145018
 21
0.374410843447321
 31
0.0
  0
LINE
  5
1A250
  8
0
 62
     0
 10
0.3637043817642551
 20
0.0330166644995043
 30
0.0
 11
0.3623289622531094
 21
0.0381497999968223
 31
0.0
  0
LINE
  5
1A251
  8
0
 62
     0
 10
0.2604771076339467
 20
0.3699698049662023
 30
0.0
 11
0.2591326317897515
 21
0.3749874571262879
 31
0.0
  0
LINE
  5
1A252
  8
0
 62
     0
 10
0.3526516915317783
 20
0.0259695746929749
 30
0.0
 11
0.3513072156875832
 21
0.0309872268530604
 31
0.0
  0
LINE
  5
1A253
  8
0
 62
     0
 10
0.2476004610347406
 20
0.3697298129910962
 30
0.0
 11
0.246278677595585
 21
0.3746627759426282
 31
0.0
  0
LINE
  5
1A254
  8
0
 62
     0
 10
0.3413575000687183
 20
0.0198237797490721
 30
0.0
 11
0.3400357166295627
 21
0.0247567427006041
 31
0.0
  0
LINE
  5
1A255
  8
0
 62
     0
 10
0.2349607115507475
 20
0.3686057089458483
 30
0.0
 11
0.2336544737201902
 21
0.3734806548962561
 31
0.0
  0
LINE
  5
1A256
  8
0
 62
     0
 10
0.3298335582868865
 20
0.0145354246678817
 30
0.0
 11
0.3285273204563293
 21
0.0194103706182896
 31
0.0
  0
LINE
  5
1A257
  8
0
 62
     0
 10
0.2225493266555458
 20
0.3666293366525792
 30
0.0
 11
0.2212521881395479
 21
0.3714703234987375
 31
0.0
  0
LINE
  5
1A258
  8
0
 62
     0
 10
0.3180876982103018
 20
0.0100752799378361
 30
0.0
 11
0.3167905596943039
 21
0.0149162667839944
 31
0.0
  0
LINE
  5
1A259
  8
0
 62
     0
 10
0.2103614136843415
 20
0.3638189557848888
 30
0.0
 11
0.2090673179503155
 21
0.3686485868141318
 31
0.0
  0
LINE
  5
1A25A
  8
0
 62
     0
 10
0.3061244227423077
 20
0.0064265404948793
 30
0.0
 11
0.3048303270082817
 21
0.0112561715241224
 31
0.0
  0
LINE
  5
1A25B
  8
0
 62
     0
 10
0.1983953531315787
 20
0.3601806104197918
 30
0.0
 11
0.1970983707288245
 21
0.3650210146433936
 31
0.0
  0
LINE
  5
1A25C
  8
0
 62
     0
 10
0.2939452243065721
 20
0.003583636538055
 30
0.0
 11
0.2926482419038179
 21
0.0084240407616569
 31
0.0
  0
LINE
  5
1A25D
  8
0
 62
     0
 10
0.1866526812106797
 20
0.355708567330745
 30
0.0
 11
0.1853467621660207
 21
0.3605823235559846
 31
0.0
  0
LINE
  5
1A25E
  8
0
 62
     0
 10
0.2815486872121489
 20
0.0015518514978998
 30
0.0
 11
0.2802427681674899
 21
0.0064256077231395
 31
0.0
  0
LINE
  5
1A25F
  8
0
 62
     0
 10
0.175138201206726
 20
0.3503849004137836
 30
0.0
 11
0.1738169131302523
 21
0.3553160146466183
 31
0.0
  0
LINE
  5
1A260
  8
0
 62
     0
 10
0.2689303905906908
 20
0.0003476842797037
 30
0.0
 11
0.2676091025142171
 21
0.0052787985125384
 31
0.0
  0
LINE
  5
1A261
  8
0
 62
     0
 10
0.1638603430181951
 20
0.3441781488594842
 30
0.0
 11
0.1625165621239593
 21
0.3491932074310133
 31
0.0
  0
LINE
  5
1A262
  8
0
 62
     0
 10
0.2560825959397572
 20
0.0000000153677462
 30
0.0
 11
0.2547388150455214
 21
0.0050150739392754
 31
0.0
  0
LINE
  5
1A263
  8
0
 62
     0
 10
0.1528318364833723
 20
0.3370408042645954
 30
0.0
 11
0.1514573468269214
 21
0.3421704694969474
 31
0.0
  0
LINE
  5
1A264
  8
0
 62
     0
 10
0.2429936655795681
 20
0.0005522771742497
 30
0.0
 11
0.2416191759231172
 21
0.0056819424066017
 31
0.0
  0
LINE
  5
1A265
  8
0
 62
     0
 10
0.1420708330743778
 20
0.3289051244129304
 30
0.0
 11
0.1406557636557746
 21
0.334186235379395
 31
0.0
  0
LINE
  5
1A266
  8
0
 62
     0
 10
0.2296471030934883
 20
0.0020660351642379
 30
0.0
 11
0.2282320336748851
 21
0.0073471461307024
 31
0.0
  0
LINE
  5
1A267
  8
0
 62
     0
 10
0.1316027321256861
 20
0.3196763176977537
 30
0.0
 11
0.1301347092060741
 21
0.3251550538204215
 31
0.0
  0
LINE
  5
1A268
  8
0
 62
     0
 10
0.2160200118859619
 20
0.0046267405956488
 30
0.0
 11
0.2145519889663499
 21
0.0101054767183166
 31
0.0
  0
LINE
  5
1A269
  8
0
 62
     0
 10
0.1214632073897131
 20
0.3092212478625544
 30
0.0
 11
0.1199259891959621
 21
0.3149582242639521
 31
0.0
  0
LINE
  5
1A26A
  8
0
 62
     0
 10
0.2020805862388473
 20
0.0083530940245558
 30
0.0
 11
0.2005433680450963
 21
0.0140900704259535
 31
0.0
  0
LINE
  5
1A26B
  8
0
 62
     0
 10
0.1117034500023939
 20
0.2973488669871207
 30
0.0
 11
0.1100745617198757
 21
0.3034279608173325
 31
0.0
  0
LINE
  5
1A26C
  8
0
 62
     0
 10
0.1877838680577071
 20
0.0134128813436112
 30
0.0
 11
0.1861549797751889
 21
0.019491975173823
 31
0.0
  0
LINE
  5
1A26D
  8
0
 62
     0
 10
0.1023999006624503
 20
0.2837738945000607
 30
0.0
 11
0.0999089086162015
 21
0.2930704033779117
 31
0.0
  0
LINE
  5
1A26E
  8
0
 62
     0
 10
0.1730641210747137
 20
0.0200514336442481
 30
0.0
 11
0.1713103834579055
 21
0.0265964715333205
 31
0.0
  0
LINE
  5
1A26F
  8
0
 62
     0
 10
0.0936742176146723
 20
0.2680422956506581
 30
0.0
 11
0.0875427367286452
 21
0.2909252938429478
 31
0.0
  0
LINE
  5
1A270
  8
0
 62
     0
 10
0.1578198754904891
 20
0.0286474413731783
 30
0.0
 11
0.1558879208484569
 21
0.0358575942551607
 31
0.0
  0
LINE
  5
1A271
  8
0
 62
     0
 10
0.0857408093421832
 20
0.249353887086321
 30
0.0
 11
0.083431893927965
 21
0.2579708767225615
 31
0.0
  0
LINE
  5
1A272
  8
0
 62
     0
 10
0.0786060161600921
 20
0.2759812977433809
 30
0.0
 11
0.0724785297588406
 21
0.2988493883155385
 31
0.0
  0
LINE
  5
1A273
  8
0
 62
     0
 10
0.1418806445480794
 20
0.0398371697693714
 30
0.0
 11
0.1396731834637195
 21
0.0480755266919344
 31
0.0
  0
LINE
  5
1A274
  8
0
 62
     0
 10
0.0790509695150168
 20
0.2260244179013497
 30
0.0
 11
0.0763490350365019
 21
0.2361081746538893
 31
0.0
  0
LINE
  5
1A275
  8
0
 62
     0
 10
0.0625760740160799
 20
0.2875095649527699
 30
0.0
 11
0.0558758234472918
 21
0.3125152404989295
 31
0.0
  0
LINE
  5
1A276
  8
0
 62
     0
 10
0.1249168121121738
 20
0.0548507629968027
 30
0.0
 11
0.1222148776336589
 21
0.0649345197493423
 31
0.0
  0
LINE
  5
1A277
  8
0
 62
     0
 10
0.0750143792985891
 20
0.1927928863639403
 30
0.0
 11
0.0710266173374659
 21
0.2076754166113428
 31
0.0
  0
LINE
  5
1A278
  8
0
 62
     0
 10
0.0459498866124386
 20
0.3012630497648683
 30
0.0
 11
0.0376800089269538
 21
0.3321266534594782
 31
0.0
  0
LINE
  5
1A279
  8
0
 62
     0
 10
0.1060910841539833
 20
0.0768130449117868
 30
0.0
 11
0.10210332219286
 21
0.0916955751591893
 31
0.0
  0
LINE
  5
1A27A
  8
0
 62
     0
 10
0.0278827235696344
 20
0.3203943288747908
 30
0.0
 11
0.0147688502981505
 21
0.3693359702079881
 31
0.0
  0
LINE
  5
1A27B
  8
0
 62
     0
 10
0.0785139756370501
 20
0.1314359237083682
 30
0.0
 11
0.0744555801971725
 21
0.146582061687198
 31
0.0
  0
LINE
  5
1A27C
  8
0
 62
     0
 10
0.0062934637363963
 20
0.3526702521557876
 30
0.0
 11
0.0012308767902536
 21
0.3715640838565273
 31
0.0
  0
ENDBLK
  5
1A27E
  8
0
 62
     1
  0
BLOCK
  8
0
 62
     1
  2
*X35
 70
     1
 10
0.0
 20
0.0
 30
0.0
  3
*X35
  1

  0
LINE
  5
1A2AB
  8
0
 62
     0
 10
-0.1868851214855236
 20
-0.0611340324868301
 30
0.0
 11
-0.1722718346070202
 21
-0.0465207456083263
 31
0.0
  0
LINE
  5
1A2AC
  8
0
 62
     0
 10
-0.2765697853302318
 20
-0.1508186963315379
 30
0.0
 11
-0.2594297806096661
 21
-0.1336786916109727
 31
0.0
  0
LINE
  5
1A2AD
  8
0
 62
     0
 10
-0.2245151205861222
 20
-0.0545698577632696
 30
0.0
 11
-0.2060267182079336
 21
-0.036081455385081
 31
0.0
  0
LINE
  5
1A2AE
  8
0
 62
     0
 10
-0.3207639591543905
 20
-0.1508186963315379
 30
0.0
 11
-0.2907639591543902
 21
-0.1208186963315376
 31
0.0
  0
LINE
  5
1A2AF
  8
0
 62
     0
 10
-0.2621451196867213
 20
-0.0480056830397091
 30
0.0
 11
-0.2397039311315212
 21
-0.025564494484509
 31
0.0
  0
LINE
  5
1A2B0
  8
0
 62
     0
 10
-0.3649581329785501
 20
-0.1508186963315379
 30
0.0
 11
-0.3349581329785494
 21
-0.1208186963315376
 31
0.0
  0
LINE
  5
1A2B1
  8
0
 62
     0
 10
-0.4091523068027092
 20
-0.1508186963315383
 30
0.0
 11
-0.3473996623455298
 21
-0.0890660518743589
 31
0.0
  0
LINE
  5
1A2B2
  8
0
 62
     0
 10
-0.3061293184395888
 20
-0.0477957079684175
 30
0.0
 11
-0.2768145061116773
 21
-0.018480895640506
 31
0.0
  0
LINE
  5
1A2B3
  8
0
 62
     0
 10
-0.5691124523769156
 20
-0.3107788419057442
 30
0.0
 11
-0.5414132566332062
 21
-0.2830796461620348
 31
0.0
  0
LINE
  5
1A2B4
  8
0
 62
     0
 10
-0.4464132566332051
 20
-0.1438854723378746
 30
0.0
 11
-0.4233464806268686
 21
-0.1208186963315381
 31
0.0
  0
LINE
  5
1A2B5
  8
0
 62
     0
 10
-0.3773996623455296
 20
-0.0748718780501991
 30
0.0
 11
-0.3202717989412935
 21
-0.0177440146459631
 31
0.0
  0
LINE
  5
1A2B6
  8
0
 62
     0
 10
-0.5714132566332069
 20
-0.2688854723378764
 30
0.0
 11
-0.5414132566332058
 21
-0.2388854723378753
 31
0.0
  0
LINE
  5
1A2B7
  8
0
 62
     0
 10
-0.3945176660878054
 20
-0.0477957079683153
 30
0.0
 11
-0.3644754486703281
 21
-0.0177534905508381
 31
0.0
  0
LINE
  5
1A2B8
  8
0
 62
     0
 10
-0.5714132566332069
 20
-0.2246912985137168
 30
0.0
 11
-0.5414132566332058
 21
-0.1946912985137161
 31
0.0
  0
LINE
  5
1A2B9
  8
0
 62
     0
 10
-0.438711839911965
 20
-0.0477957079683162
 30
0.0
 11
-0.4086790983993623
 21
-0.017762966455714
 31
0.0
  0
LINE
  5
1A2BA
  8
0
 62
     0
 10
-0.5714132566332069
 20
-0.1804971246895581
 30
0.0
 11
-0.5414132566332058
 21
-0.150497124689557
 31
0.0
  0
LINE
  5
1A2BB
  8
0
 62
     0
 10
-0.4829060137361246
 20
-0.0477957079683162
 30
0.0
 11
-0.4528827481283968
 21
-0.0177724423605885
 31
0.0
  0
LINE
  5
1A2BC
  8
0
 62
     0
 10
-0.5714132566332069
 20
-0.1363029508653986
 30
0.0
 11
-0.5414132566332058
 21
-0.1063029508653974
 31
0.0
  0
LINE
  5
1A2BD
  8
0
 62
     0
 10
-0.5271001875602841
 20
-0.0477957079683171
 30
0.0
 11
-0.497086397857431
 21
-0.0177819182654644
 31
0.0
  0
LINE
  5
1A2BE
  8
0
 62
     0
 10
-0.5714132566332069
 20
-0.0921087770412399
 30
0.0
 11
-0.5414132566332058
 21
-0.0621087770412388
 31
0.0
  0
LINE
  5
1A2BF
  8
0
 62
     0
 10
-0.5714132566332069
 20
-0.0479146032170803
 30
0.0
 11
-0.5412900475864655
 21
-0.0177913941703389
 31
0.0
  0
ENDBLK
  5
1A2C1
  8
0
 62
     1
  0
BLOCK
  8
0
 62
     1
  2
*X36
 70
     1
 10
0.0
 20
0.0
 30
0.0
  3
*X36
  1

  0
LINE
  5
1A2C3
  8
0
 62
     0
 10
-0.5713322104307183
 20
-0.1130207141192665
 30
0.0
 11
-0.5716786007789756
 21
-0.1117279677403182
 31
0.0
  0
LINE
  5
1A2C4
  8
0
 62
     0
 10
-0.5713322104307177
 20
-0.1613170054337205
 30
0.0
 11
-0.5826630225198249
 21
-0.1190298390261573
 31
0.0
  0
LINE
  5
1A2C5
  8
0
 62
     0
 10
-0.5978943562912356
 20
-0.1104820188386668
 30
0.0
 11
-0.601948334173124
 21
-0.0953523674106984
 31
0.0
  0
LINE
  5
1A2C6
  8
0
 62
     0
 10
-0.5713322104307177
 20
-0.2096132967481745
 30
0.0
 11
-0.5713792227694708
 21
-0.209437844311366
 31
0.0
  0
LINE
  5
1A2C7
  8
0
 62
     0
 10
-0.6181267529537394
 20
-0.0832699778497688
 30
0.0
 11
-0.6208472844522817
 21
-0.0731168160736173
 31
0.0
  0
LINE
  5
1A2C8
  8
0
 62
     0
 10
-0.571332210430718
 20
-0.2579095880626276
 30
0.0
 11
-0.575294971764194
 21
-0.2431203614278257
 31
0.0
  0
LINE
  5
1A2C9
  8
0
 62
     0
 10
-0.6356286333839276
 20
-0.0662483621707635
 30
0.0
 11
-0.6378454003310699
 21
-0.0579752752954894
 31
0.0
  0
LINE
  5
1A2CA
  8
0
 62
     0
 10
-0.5745759127798351
 20
-0.2941002174055436
 30
0.0
 11
-0.5819412369912318
 21
-0.2666124532343943
 31
0.0
  0
LINE
  5
1A2CB
  8
0
 62
     0
 10
-0.6518685930680331
 20
-0.0539362988312666
 30
0.0
 11
-0.6538062517034378
 21
-0.0467048583562111
 31
0.0
  0
LINE
  5
1A2CC
  8
0
 62
     0
 10
-0.5876240794242409
 20
-0.2937000878574505
 30
0.0
 11
-0.5898494229643534
 21
-0.2853949927014554
 31
0.0
  0
LINE
  5
1A2CD
  8
0
 62
     0
 10
-0.6673085236297262
 20
-0.0446099848241461
 30
0.0
 11
-0.6690661345236566
 21
-0.0380504916680602
 31
0.0
  0
LINE
  5
1A2CE
  8
0
 62
     0
 10
-0.5968000271659568
 20
-0.3077512759922243
 30
0.0
 11
-0.5985576380598874
 21
-0.3011917828361383
 31
0.0
  0
LINE
  5
1A2CF
  8
0
 62
     0
 10
-0.6821664625686691
 20
-0.0374556931227073
 30
0.0
 11
-0.6837981415323535
 21
-0.0313661843285953
 31
0.0
  0
LINE
  5
1A2D0
  8
0
 62
     0
 10
-0.606216165814486
 20
-0.3209060594592517
 30
0.0
 11
-0.6078478447781706
 21
-0.3148165506651397
 31
0.0
  0
LINE
  5
1A2D1
  8
0
 62
     0
 10
-0.696565702917799
 20
-0.0320132878638129
 30
0.0
 11
-0.6981050047206051
 21
-0.0262685353275583
 31
0.0
  0
LINE
  5
1A2D2
  8
0
 62
     0
 10
-0.6160574482834617
 20
-0.3324741845878529
 30
0.0
 11
-0.6175967500862676
 21
-0.3267294320515983
 31
0.0
  0
LINE
  5
1A2D3
  8
0
 62
     0
 10
-0.7105835504091449
 20
-0.0279942601278114
 30
0.0
 11
-0.7120531604535803
 21
-0.022509600774665
 31
0.0
  0
LINE
  5
1A2D4
  8
0
 62
     0
 10
-0.6262574382077134
 20
-0.3427035952683077
 30
0.0
 11
-0.6277270482521486
 21
-0.3372189359151623
 31
0.0
  0
LINE
  5
1A2D5
  8
0
 62
     0
 10
-0.7242717067423231
 20
-0.0252056565448973
 30
0.0
 11
-0.7256879941336277
 21
-0.0199200000424291
 31
0.0
  0
LINE
  5
1A2D6
  8
0
 62
     0
 10
-0.6367707501848922
 20
-0.351763672128107
 30
0.0
 11
-0.6381870375761967
 21
-0.3464780156256388
 31
0.0
  0
LINE
  5
1A2D7
  8
0
 62
     0
 10
-0.7376661727516043
 20
-0.023513120172459
 30
0.0
 11
-0.7390415922627501
 21
-0.0183799846751418
 31
0.0
  0
LINE
  5
1A2D8
  8
0
 62
     0
 10
-0.6475652977129967
 20
-0.3597741636229585
 30
0.0
 11
-0.6489407172241424
 21
-0.3546410281256405
 31
0.0
  0
LINE
  5
1A2D9
  8
0
 62
     0
 10
-0.7507925718433051
 20
-0.0228210231562605
 30
0.0
 11
-0.7521370476875003
 21
-0.0178033709961749
 31
0.0
  0
LINE
  5
1A2DA
  8
0
 62
     0
 10
-0.6586179879454736
 20
-0.3668212534294879
 30
0.0
 11
-0.6599624637896686
 21
-0.3618036012694024
 31
0.0
  0
LINE
  5
1A2DB
  8
0
 62
     0
 10
-0.7636692184425112
 20
-0.0230610151313666
 30
0.0
 11
-0.7649910018816668
 21
-0.0181280521798346
 31
0.0
  0
LINE
  5
1A2DC
  8
0
 62
     0
 10
-0.6699121794085335
 20
-0.3729670483733907
 30
0.0
 11
-0.6712339628476891
 21
-0.3680340854218587
 31
0.0
  0
LINE
  5
1A2DD
  8
0
 62
     0
 10
-0.7763089679265044
 20
-0.0241851191766145
 30
0.0
 11
-0.7776152057570616
 21
-0.0193101732262067
 31
0.0
  0
LINE
  5
1A2DE
  8
0
 62
     0
 10
-0.6814361211903652
 20
-0.3782554034545811
 30
0.0
 11
-0.6827423590209225
 21
-0.3733804575041733
 31
0.0
  0
LINE
  5
1A2DF
  8
0
 62
     0
 10
-0.7887203528217059
 20
-0.0261614914698836
 30
0.0
 11
-0.7900174913377038
 21
-0.0213205046237253
 31
0.0
  0
LINE
  5
1A2E0
  8
0
 62
     0
 10
-0.69318198126695
 20
-0.3827155481846267
 30
0.0
 11
-0.6944791197829479
 21
-0.3778745613384684
 31
0.0
  0
LINE
  5
1A2E1
  8
0
 62
     0
 10
-0.8009082657929102
 20
-0.028971872337574
 30
0.0
 11
-0.8022023615269361
 21
-0.024142241308331
 31
0.0
  0
LINE
  5
1A2E2
  8
0
 62
     0
 10
-0.7051452567349442
 20
-0.3863642876275834
 30
0.0
 11
-0.7064393524689701
 21
-0.3815346565983404
 31
0.0
  0
LINE
  5
1A2E3
  8
0
 62
     0
 10
-0.812874326345673
 20
-0.032610217702671
 30
0.0
 11
-0.8141713087484273
 21
-0.0277698134790692
 31
0.0
  0
LINE
  5
1A2E4
  8
0
 62
     0
 10
-0.7173244551706797
 20
-0.3892071915844077
 30
0.0
 11
-0.718621437573434
 21
-0.3843667873608059
 31
0.0
  0
LINE
  5
1A2E5
  8
0
 62
     0
 10
-0.8246169982665721
 20
-0.0370822607917178
 30
0.0
 11
-0.8259229173112309
 21
-0.0322085045664782
 31
0.0
  0
LINE
  5
1A2E6
  8
0
 62
     0
 10
-0.7297209922651029
 20
-0.391238976624563
 30
0.0
 11
-0.7310269113097619
 21
-0.3863652203993233
 31
0.0
  0
LINE
  5
1A2E7
  8
0
 62
     0
 10
-0.8361314782705257
 20
-0.0424059277086792
 30
0.0
 11
-0.8374527663469994
 21
-0.0374748134758445
 31
0.0
  0
LINE
  5
1A2E8
  8
0
 62
     0
 10
-0.7423392888865611
 20
-0.3924431438427591
 30
0.0
 11
-0.7436605769630348
 21
-0.3875120296099244
 31
0.0
  0
LINE
  5
1A2E9
  8
0
 62
     0
 10
-0.8474093364590567
 20
-0.0486126792629786
 30
0.0
 11
-0.8487531173532925
 21
-0.0435976206914495
 31
0.0
  0
LINE
  5
1A2EA
  8
0
 62
     0
 10
-0.7551870835374946
 20
-0.3927908127547166
 30
0.0
 11
-0.7565308644317305
 21
-0.3877757541831874
 31
0.0
  0
LINE
  5
1A2EB
  8
0
 62
     0
 10
-0.8584378429938794
 20
-0.0557500238578674
 30
0.0
 11
-0.8598123326503303
 21
-0.0506203586255154
 31
0.0
  0
LINE
  5
1A2EC
  8
0
 62
     0
 10
-0.7682760138976837
 20
-0.3922385509482131
 30
0.0
 11
-0.7696505035541346
 21
-0.3871088857158611
 31
0.0
  0
LINE
  5
1A2ED
  8
0
 62
     0
 10
-0.8691988464028739
 20
-0.0638857037095324
 30
0.0
 11
-0.8706139158214771
 21
-0.0586045927430679
 31
0.0
  0
LINE
  5
1A2EE
  8
0
 62
     0
 10
-0.7816225763837635
 20
-0.3907247929582249
 30
0.0
 11
-0.7830376458023667
 21
-0.3854436819917604
 31
0.0
  0
LINE
  5
1A2EF
  8
0
 62
     0
 10
-0.8796669473515656
 20
-0.0731145104247091
 30
0.0
 11
-0.8811349702711776
 21
-0.0676357743020413
 31
0.0
  0
LINE
  5
1A2F0
  8
0
 62
     0
 10
-0.7952496675912899
 20
-0.388164087526814
 30
0.0
 11
-0.7967176905109019
 21
-0.3826853514041462
 31
0.0
  0
LINE
  5
1A2F1
  8
0
 62
     0
 10
-0.8898064720875387
 20
-0.0835695802599084
 30
0.0
 11
-0.8913436902812897
 21
-0.0778326038585107
 31
0.0
  0
LINE
  5
1A2F2
  8
0
 62
     0
 10
-0.8091890932384044
 20
-0.384437734097907
 30
0.0
 11
-0.8107263114321555
 21
-0.3787007576965093
 31
0.0
  0
LINE
  5
1A2F3
  8
0
 62
     0
 10
-0.8995662294748578
 20
-0.0954419611353421
 30
0.0
 11
-0.9011951177573759
 21
-0.0893628673051303
 31
0.0
  0
LINE
  5
1A2F4
  8
0
 62
     0
 10
-0.8234858114195446
 20
-0.3793779467788516
 30
0.0
 11
-0.8251146997020628
 21
-0.3732988529486398
 31
0.0
  0
LINE
  5
1A2F5
  8
0
 62
     0
 10
-0.9088697788148014
 20
-0.1090169336224021
 30
0.0
 11
-0.9113607708610501
 21
-0.0997204247445511
 31
0.0
  0
LINE
  5
1A2F6
  8
0
 62
     0
 10
-0.838205558402538
 20
-0.3727393944782147
 30
0.0
 11
-0.8399592960193462
 21
-0.3661943565891423
 31
0.0
  0
LINE
  5
1A2F7
  8
0
 62
     0
 10
-0.9175954618625795
 20
-0.1247485324718047
 30
0.0
 11
-0.9237269427486065
 21
-0.1018655342795149
 31
0.0
  0
LINE
  5
1A2F8
  8
0
 62
     0
 10
-0.8534498039867626
 20
-0.3641433867492845
 30
0.0
 11
-0.8553817586287948
 21
-0.3569332338673021
 31
0.0
  0
LINE
  5
1A2F9
  8
0
 62
     0
 10
-0.9255288701350686
 20
-0.1434369410361418
 30
0.0
 11
-0.9278377855492866
 21
-0.1348199513999013
 31
0.0
  0
LINE
  5
1A2FA
  8
0
 62
     0
 10
-0.9326636633171596
 20
-0.1168095303790819
 30
0.0
 11
-0.9387911497184112
 21
-0.0939414398069243
 31
0.0
  0
LINE
  5
1A2FB
  8
0
 62
     0
 10
-0.8693890349291724
 20
-0.3529536583530914
 30
0.0
 11
-0.8715964960135323
 21
-0.3447153014305284
 31
0.0
  0
LINE
  5
1A2FC
  8
0
 62
     0
 10
-0.932218709962235
 20
-0.166766410221113
 30
0.0
 11
-0.9349206444407499
 21
-0.1566826534685735
 31
0.0
  0
LINE
  5
1A2FD
  8
0
 62
     0
 10
-0.9486936054611717
 20
-0.1052812631696929
 30
0.0
 11
-0.9553938560299599
 21
-0.0802755876235333
 31
0.0
  0
LINE
  5
1A2FE
  8
0
 62
     0
 10
-0.886352867365078
 20
-0.3379400651256601
 30
0.0
 11
-0.8890548018435929
 21
-0.3278563083731205
 31
0.0
  0
LINE
  5
1A2FF
  8
0
 62
     0
 10
-0.9362553001786627
 20
-0.1999979417585225
 30
0.0
 11
-0.9402430621397858
 21
-0.18511541151112
 31
0.0
  0
LINE
  5
1A300
  8
0
 62
     0
 10
-0.9653197928648131
 20
-0.0915277783575945
 30
0.0
 11
-0.973589670550298
 21
-0.0606641746629846
 31
0.0
  0
LINE
  5
1A301
  8
0
 62
     0
 10
-0.9051785953232684
 20
-0.315977783210676
 30
0.0
 11
-0.9091663572843916
 21
-0.3010952529632735
 31
0.0
  0
LINE
  5
1A302
  8
0
 62
     0
 10
-0.9833869559076173
 20
-0.072396499247672
 30
0.0
 11
-0.9965008291791013
 21
-0.0234548579144747
 31
0.0
  0
LINE
  5
1A303
  8
0
 62
     0
 10
-0.9327557038402016
 20
-0.2613549044140946
 30
0.0
 11
-0.9368140992800793
 21
-0.2462087664352648
 31
0.0
  0
LINE
  5
1A304
  8
0
 62
     0
 10
-1.0049762157408551
 20
-0.0401205759666752
 30
0.0
 11
-1.010038802686998
 21
-0.0212267442659355
 31
0.0
  0
ENDBLK
  5
1A306
  8
0
 62
     1
  0
BLOCK
  8
0
 62
     1
  2
*U37
 70
     1
 10
0.0
 20
0.0
 30
0.0
  3
*U37
  1

  0
TEXT
  5
1A313
  8
PART
 10
-1.1087146559461929
 20
-0.1677775469381495
 30
0.0
 40
0.0303525277888677
  1
.015
  7
ROMANS
  0
ENDBLK
  5
1A315
  8
0
 62
     1
  0
BLOCK
  8
0
 62
     1
  2
*U38
 70
     1
 10
0.0
 20
0.0
 30
0.0
  3
*U38
  1

  0
TEXT
  5
1A317
  8
PART
 10
-0.8920438202294537
 20
0.0142701147166222
 30
0.0
 40
0.0303525277888677
  1
.131
  7
ROMANS
  0
ENDBLK
  5
1A319
  8
0
 62
     1
  0
BLOCK
  8
0
 62
     1
  2
*U39
 70
     1
 10
0.0
 20
0.0
 30
0.0
  3
*U39
  1

  0
TEXT
  5
1A31B
  8
PART
 10
-0.4130514150229507
 20
-0.2267000158037073
 30
0.0
 40
0.0303525277888677
  1
.030
  7
ROMANS
  0
ENDBLK
  5
1A31D
  8
0
 62
     1
  0
BLOCK
  8
0
 62
     1
  2
*U40
 70
     1
 10
0.0
 20
0.0
 30
0.0
  3
*U40
  1

  0
TEXT
  5
1A31F
  8
PART
 10
-0.8831520751536947
 20
-0.4702239905246825
 30
0.0
 40
0.0303525277888677
  1
.375
  7
ROMANS
  0
ENDBLK
  5
1A321
  8
0
 62
     1
  0
BLOCK
  8
0
 62
     1
  2
*U41
 70
     1
 10
0.0
 20
0.0
 30
0.0
  3
*U41
  1

  0
TEXT
  5
1A323
  8
PART
 10
-0.787624204448332
 20
-0.5164130066693006
 30
0.0
 40
0.0303525277888677
  1
.400
  7
ROMANS
  0
ENDBLK
  5
1A325
  8
0
 62
     1
  0
BLOCK
  8
0
 62
     1
  2
*U42
 70
     1
 10
0.0
 20
0.0
 30
0.0
  3
*U42
  1

  0
TEXT
  5
1A327
  8
PART
 10
-0.3962822726055325
 20
-0.5164130066693006
 30
0.0
 40
0.0303525277888677
  1
.187
  7
ROMANS
  0
ENDBLK
  5
1A329
  8
0
 62
     1
  0
BLOCK
  8
0
 62
     1
  2
*U43
 70
     1
 10
0.0
 20
0.0
 30
0.0
  3
*U43
  1

  0
TEXT
  5
1A32B
  8
PART
 10
-0.3808517966092509
 20
-0.4702239905246824
 30
0.0
 40
0.0303525277888677
  1
.095
  7
ROMANS
  0
ENDBLK
  5
1A32D
  8
0
 62
     1
  0
BLOCK
  8
0
 62
     1
  2
*U44
 70
     1
 10
0.0
 20
0.0
 30
0.0
  3
*U44
  1

  0
TEXT
  5
1A32F
  8
PART
 10
-0.5038587705450306
 20
-0.0978984325250102
 30
0.0
 40
0.0303525277888677
  1
.164
  7
ROMANS
  0
ENDBLK
  5
1A331
  8
0
 62
     1
  0
BLOCK
  8
0
 62
     1
  2
*U45
 70
     1
 10
0.0
 20
0.0
 30
0.0
  3
*U45
  1

  0
TEXT
  5
1A333
  8
PART
 10
-0.627624204448333
 20
0.0911081505380135
 30
0.0
 40
0.0303525277888677
  1
.860
  7
ROMANS
  0
ENDBLK
  5
1A335
  8
0
 62
     1
  0
BLOCK
  8
0
 62
     1
  2
*U46
 70
     1
 10
0.0
 20
0.0
 30
0.0
  3
*U46
  1

  0
TEXT
  5
1A337
  8
PART
 10
-0.4076647275495766
 20
0.0432428501528169
 30
0.0
 40
0.0303525277888677
  1
.420
  7
ROMANS
  0
ENDBLK
  5
1A339
  8
0
 62
     1
  0
BLOCK
  8
0
 62
     1
  2
*U47
 70
     1
 10
0.0
 20
0.0
 30
0.0
  3
*U47
  1

  0
TEXT
  5
1A33B
  8
PART
 10
-0.1031047011471236
 20
-0.0978984325250102
 30
0.0
 40
0.0303525277888677
  1
.073
  7
ROMANS
  0
ENDBLK
  5
1A33D
  8
0
 62
     1
  0
BLOCK
  8
0
 62
     1
  2
*U48
 70
     1
 10
0.0
 20
0.0
 30
0.0
  3
*U48
  1

  0
TEXT
  5
1A33F
  8
PART
 10
-0.2410724665325736
 20
-0.1967000158037071
 30
0.0
 40
0.0303525277888677
  1
.055
  7
ROMANS
  0
ENDBLK
  5
1A341
  8
0
 62
     1
  0
BLOCK
  8
0
 62
     1
  2
*U49
 70
     1
 10
0.0
 20
0.0
 30
0.0
  3
*U49
  1

  0
TEXT
  5
1A343
  8
PART
 10
-0.5406005784413983
 20
-0.271983466044359
 30
0.0
 40
0.0303525277888677
  1
.272
  7
ROMANS
  0
ENDBLK
  5
1A345
  8
0
 62
     1
  0
ENDSEC
  0
SECTION
  2
ENTITIES
  0
POLYLINE
  5
19F7F
  8
PART
 66
     1
 10
0.0
 20
0.0
 30
0.0
 70
     1
  0
VERTEX
  5
1A28A
  8
PART
 10
-0.2992512655222796
 20
-0.0177456662460374
 30
0.0
 42
-0.0901660660664664
  0
VERTEX
  5
1A28B
  8
PART
 10
-0.2308648146801779
 20
-0.0283998380898669
 30
0.0
  0
VERTEX
  5
1A28C
  8
PART
 10
-0.1570191214958925
 20
-0.0512379148553455
 30
0.0
 42
-1.0
  0
VERTEX
  5
1A28D
  8
PART
 10
-0.1607350220032675
 20
-0.065695654228598
 30
0.0
  0
VERTEX
  5
1A28E
  8
PART
 10
-0.2655142698321633
 20
-0.0474179686960159
 30
0.0
 42
-0.2431127605573792
  0
VERTEX
  5
1A28F
  8
PART
 10
-0.2722894014802026
 20
-0.0384692891121776
 30
0.0
 42
0.8701502313474914
  0
VERTEX
  5
1A290
  8
PART
 10
-0.29200902599516
 20
-0.0403392581875577
 30
0.0
 42
-0.4997168112235518
  0
VERTEX
  5
1A291
  8
PART
 10
-0.2988926425086031
 20
-0.0477957079684373
 30
0.0
  0
VERTEX
  5
1A292
  8
PART
 10
-0.3423996623455281
 20
-0.0477957079683173
 30
0.0
 42
0.4142135623730951
  0
VERTEX
  5
1A293
  8
PART
 10
-0.3473996623455289
 20
-0.0527957079683172
 30
0.0
  0
VERTEX
  5
1A294
  8
PART
 10
-0.3473996623455307
 20
-0.1158186963315371
 30
0.0
 42
0.4142135623731211
  0
VERTEX
  5
1A295
  8
PART
 10
-0.3423996623455316
 20
-0.120818696331537
 30
0.0
  0
VERTEX
  5
1A296
  8
PART
 10
-0.2644297806096656
 20
-0.1208186963315379
 30
0.0
 42
-0.4142135623730951
  0
VERTEX
  5
1A297
  8
PART
 10
-0.2594297806096666
 20
-0.1258186963315377
 30
0.0
  0
VERTEX
  5
1A298
  8
PART
 10
-0.2594297806096666
 20
-0.1458186963315382
 30
0.0
 42
-0.4142135623730951
  0
VERTEX
  5
1A299
  8
PART
 10
-0.2644297806096656
 20
-0.1508186963315381
 30
0.0
  0
VERTEX
  5
1A29A
  8
PART
 10
-0.4414132566332061
 20
-0.1508186963315372
 30
0.0
 42
-0.4142135623730951
  0
VERTEX
  5
1A29B
  8
PART
 10
-0.4464132566332051
 20
-0.1458186963315373
 30
0.0
  0
VERTEX
  5
1A29C
  8
PART
 10
-0.4464132566332051
 20
-0.1258186963315377
 30
0.0
 42
-0.4142135623730951
  0
VERTEX
  5
1A29D
  8
PART
 10
-0.4414132566332061
 20
-0.1208186963315379
 30
0.0
  0
VERTEX
  5
1A29E
  8
PART
 10
-0.3823996623455326
 20
-0.120818696331537
 30
0.0
 42
0.4142135623730951
  0
VERTEX
  5
1A29F
  8
PART
 10
-0.3773996623455318
 20
-0.1158186963315371
 30
0.0
  0
VERTEX
  5
1A2A0
  8
PART
 10
-0.37739966234553
 20
-0.0527957079683155
 30
0.0
 42
0.4142135623730951
  0
VERTEX
  5
1A2A1
  8
PART
 10
-0.382399662345529
 20
-0.0477957079683156
 30
0.0
  0
VERTEX
  5
1A2A2
  8
PART
 10
-0.531413256633206
 20
-0.0477957079683165
 30
0.0
 42
0.4142135623730951
  0
VERTEX
  5
1A2A3
  8
PART
 10
-0.5414132566332058
 20
-0.0577957079683162
 30
0.0
  0
VERTEX
  5
1A2A4
  8
PART
 10
-0.5414132566332058
 20
-0.3027957079683137
 30
0.0
 42
-0.9999999999999996
  0
VERTEX
  5
1A2A5
  8
PART
 10
-0.5714132566332069
 20
-0.3027957079683119
 30
0.0
  0
VERTEX
  5
1A2A6
  8
PART
 10
-0.5714132566332069
 20
-0.0277957079683142
 30
0.0
 42
-0.4142135623730951
  0
VERTEX
  5
1A2A7
  8
PART
 10
-0.5614132566332071
 20
-0.0177957079683144
 30
0.0
  0
VERTEX
  5
1A2A8
  8
PART
 10
-0.2992512655222779
 20
-0.0177395084892014
 30
0.0
  0
SEQEND
  5
1A2A9
  8
PART
  0
INSERT
  5
19F80
  8
HATCH
  6
CONTINUOUS
  2
*X35
 10
0.0
 20
0.0
 30
0.0
1001
ACAD
1000
HATCH
1002
{
1070
    19
1000
ANSI31
1040
0.25
1040
0.0
1000
R14_HATCH_DATA
1000
19F80
1011
1.0
1021
0.0
1031
0.0
1021
0.0
1031
0.0
1011
0.0
1021
0.0
1031
0.0
1021
1.0
1031
0.0
1011
0.0
1021
0.0
1031
0.0
1021
0.0
1031
1.0
1040
0.0
1010
0.0
1020
0.0
1030
1.0
1000
ANSI31
1070
     0
1070
     0
1071
        1
1071
        1
1071
       31
1070
     2
1040
-0.2943582933609487
1040
-0.2111437124057021
1040
0.1934599323760539
1040
4.687094368170647
1040
5.0467859821129881
1070
     0
1070
     1
1040
-0.2308648146801779
1040
-0.0283998380898669
1040
-0.1570191214958925
1040
-0.0512379148553455
1070
     2
1040
-0.1588770717495791
1040
-0.0584667845419718
1040
0.0074638151163733
1040
4.9639619163390201
1040
8.1055545699288132
1070
     0
1070
     1
1040
-0.1607350220032675
1040
-0.065695654228598
1040
-0.2655142698321633
1040
-0.0474179686960159
1070
     2
1040
-0.2602435298686014
1040
-0.0363883420586742
1040
0.0122242939887193
1040
2.016584626211297
1040
2.9705291268674121
1070
     0
1070
     2
1040
-0.2820187475810947
1040
-0.040780095129304
1040
0.0099999999999874
1040
0.2331881988565241
1040
3.0974946684103419
1070
     1
1070
     2
1040
-0.2982496435949553
1040
-0.0414836890770827
1040
0.0063446851842915
1040
6.101816285999333
1040
7.9555004152710724
1070
     0
1070
     1
1040
-0.2988926425086031
1040
-0.0477957079684373
1040
-0.3423996623455281
1040
-0.0477957079683173
1070
     2
1040
-0.3423996623455281
1040
-0.0527957079683172
1040
0.0049999999999999
1040
1.5707963267948959
1040
3.1415926535897931
1070
     1
1070
     1
1040
-0.3473996623455289
1040
-0.0527957079683172
1040
-0.3473996623455307
1040
-0.1158186963315371
1070
     2
1040
-0.3423996623455316
1040
-0.115818696331538
1040
0.004999999999999
1040
3.141592653589615
1040
4.7123889803846888
1070
     1
1070
     1
1040
-0.3423996623455316
1040
-0.120818696331537
1040
-0.2644297806096656
1040
-0.1208186963315379
1070
     2
1040
-0.2644297806096656
1040
-0.1258186963315377
1040
0.0049999999999999
1040
4.7123889803846888
1040
6.2831853071795862
1070
     0
1070
     1
1040
-0.2594297806096666
1040
-0.1258186963315377
1040
-0.2594297806096666
1040
-0.1458186963315382
1070
     2
1040
-0.2644297806096656
1040
-0.1458186963315382
1040
0.0049999999999999
1040
6.2831853071795862
1040
7.8539816339744819
1070
     0
1070
     1
1040
-0.2644297806096656
1040
-0.1508186963315381
1040
-0.4414132566332043
1040
-0.1508186963315372
1070
     2
1040
-0.4414132566332061
1040
-0.1458186963315373
1040
0.0049999999999999
1040
1.5707963267948959
1040
3.1415926535897931
1070
     0
1070
     1
1040
-0.4464132566332051
1040
-0.1458186963315373
1040
-0.4464132566332051
1040
-0.1258186963315377
1070
     2
1040
-0.4414132566332061
1040
-0.1258186963315377
1040
0.0049999999999999
1040
3.1415926535897931
1040
4.7123889803846888
1070
     0
1070
     1
1040
-0.4414132566332061
1040
-0.1208186963315379
1040
-0.3823996623455326
1040
-0.120818696331537
1070
     2
1040
-0.3823996623455326
1040
-0.1158186963315371
1040
0.0049999999999999
1040
4.7123889803846888
1040
6.2831853071795862
1070
     1
1070
     1
1040
-0.3773996623455318
1040
-0.1158186963315371
1040
-0.3773996623455282
1040
-0.0527957079683155
1070
     2
1040
-0.382399662345529
1040
-0.0527957079683155
1040
0.0049999999999999
1040
0.0
1040
1.5707963267948959
1070
     1
1070
     1
1040
-0.382399662345529
1040
-0.0477957079683156
1040
-0.531413256633206
1040
-0.0477957079683165
1070
     2
1040
-0.531413256633206
1040
-0.0577957079683162
1040
0.0099999999999998
1040
1.5707963267948959
1040
3.1415926535897931
1070
     1
1070
     1
1040
-0.5414132566332058
1040
-0.0577957079683162
1040
-0.5414132566332058
1040
-0.3027957079683137
1070
     2
1040
-0.5564132566332063
1040
-0.3027957079683128
1040
0.0150000000000001
1040
0.0000000000000595
1040
3.1415926535898522
1070
     0
1070
     1
1040
-0.5714132566332069
1040
-0.3027957079683119
1040
-0.5714132566332069
1040
-0.0277957079683142
1070
     2
1040
-0.5614132566332071
1040
-0.0277957079683142
1040
0.0099999999999998
1040
3.1415926535897931
1040
4.7123889803846888
1070
     0
1070
     1
1040
-0.5614132566332071
1040
-0.0177957079683144
1040
-0.2992512655222779
1040
-0.0177395084892014
1070
     1
1040
-0.2992512655222779
1040
-0.0177395084892014
1040
-0.2992512655222796
1040
-0.0177456662460374
1071
        0
1070
     0
1070
     1
1040
0.0
1040
0.25
1070
     0
1070
     1
1040
0.7853981633974483
1040
-1.3464687248317231
1040
-5.8169117135455881
1040
-0.0220970869120796
1040
0.0220970869120796
1070
     0
1071
        1
1040
-3.0638009660848731
1040
-5.7778017320422048
1040
0.0
1002
}
  0
CIRCLE
  5
19F81
  8
HATCH
 10
-0.8770583644454212
 20
-0.2302639643167754
 30
0.0
 40
0.0031636513783511
  0
CIRCLE
  5
19F82
  8
HATCH
 10
-0.8753248787885823
 20
-0.1661970012193066
 30
0.0
 40
0.0055363899121161
  0
CIRCLE
  5
19F83
  8
HATCH
 10
-0.876560442474032
 20
-0.1994413521521288
 30
0.0
 40
0.0031636513783511
  0
CIRCLE
  5
19F84
  8
HATCH
 10
-0.8765005094695226
 20
-0.3131555783685591
 30
0.0
 40
0.0055363899121161
  0
CIRCLE
  5
19F85
  8
PART
 10
-0.7538322104307192
 20
-0.2052957079683126
 30
0.0
 40
0.1825
  0
INSERT
  5
19F86
  8
HATCH
  6
CONTINUOUS
  2
*X36
 10
0.0
 20
0.0
 30
0.0
1001
ACAD
1000
HATCH
1002
{
1070
    19
1000
ANSI31
1040
0.1
1040
1.047197551196597
1000
R14_HATCH_DATA
1000
19F86
1011
1.0
1021
0.0
1031
0.0
1021
0.0
1031
0.0
1011
0.0
1021
0.0
1031
0.0
1021
1.0
1031
0.0
1011
0.0
1021
0.0
1031
0.0
1021
0.0
1031
1.0
1040
0.0
1010
0.0
1020
0.0
1030
1.0
1000
ANSI31
1070
     0
1070
     0
1071
        2
1071
       16
1071
        1
1070
     2
1040
-0.7538322104307192
1040
-0.2052957079683126
1040
0.1825
1040
0.0
1040
6.2831853071795862
1070
     1
1071
        0
1071
       33
1071
       10
1070
     2
1040
-0.8329041959210261
1040
0.051619382585334
1040
0.1950000000000002
1040
3.5698620633186011
1040
4.1511106957372528
1070
     1
1070
     2
1040
-0.8329041959210279
1040
0.0516193825853348
1040
0.1799999999999998
1040
3.553036770207683
1040
4.1308828282309866
1070
     1
1070
     2
1040
-1.003628595727482
1040
-0.0254993226715497
1040
0.0077036147032375
1040
0.7288503671793809
1040
3.6670552856130878
1070
     1
1070
     2
1040
-0.9207895006798665
1040
-0.0820824244609655
1040
0.02
1040
4.1308828282309822
1040
5.6474131781980219
1070
     1
1070
     2
1040
-0.9473419872426269
1040
-0.1303943309568989
1040
0.02
1040
5.9138769675720306
1040
7.2927033493270361
1070
     1
1070
     2
1040
-0.7538322104307192
1040
-0.2052957079683126
1040
0.1875
1040
2.7722843139822579
1040
5.7745660474962861
1070
     1
1070
     2
1040
-0.7538322104307192
1040
-0.2052957079683126
1040
0.1875
1040
0.5086192596833054
1040
2.505820524608231
1070
     1
1070
     2
1040
-0.5813322104307197
1040
-0.1091187876599562
1040
0.01
1040
3.6502119132731359
1040
6.2831853071795862
1070
     1
1070
     1
1040
-0.5713322104307183
1040
-0.1091187876599562
1040
-0.5713322104307183
1040
-0.3027957079683119
1070
     2
1040
-0.5813322104307197
1040
-0.3014726282766682
1040
0.01
1040
0.0000000000000888
1040
2.6329733939064548
1070
     1
1071
        0
1070
     0
1070
     1
1040
1.047197551196597
1040
0.1
1070
     0
1070
     1
1040
1.832595714594045
1040
-1.3464687248317231
1040
-5.8169117135455881
1040
-0.0120740728286134
1040
-0.0032352380637815
1070
     0
1071
        1
1040
-1.263919919882379
1040
-6.7534017320422031
1040
0.0
1002
}
  0
POLYLINE
  5
19F87
  8
PART
 66
     1
 10
0.0
 20
0.0
 30
0.0
 70
     1
  0
VERTEX
  5
1A307
  8
PART
 10
-0.9978821570234882
 20
-0.0203686188487617
 30
0.0
 42
0.1454749034339861
  0
VERTEX
  5
1A308
  8
PART
 10
-0.9317751637747218
 20
-0.098795150341753
 30
0.0
 42
0.3984072782639541
  0
VERTEX
  5
1A309
  8
PART
 10
-0.9046972317401902
 20
-0.0939584035942039
 30
0.0
 42
-0.5453943349498183
  0
VERTEX
  5
1A30A
  8
PART
 10
-0.5900663876459085
 20
-0.1139885051439238
 30
0.0
 42
0.7732939912539015
  0
VERTEX
  5
1A30B
  8
PART
 10
-0.5713322104307183
 20
-0.1091187876599562
 30
0.0
  0
VERTEX
  5
1A30C
  8
PART
 10
-0.5713322104307183
 20
-0.3014726282766673
 30
0.0
 42
0.7732939912538682
  0
VERTEX
  5
1A30D
  8
PART
 10
-0.5900663876459085
 20
-0.2966029107927006
 30
0.0
 42
-0.9326625230954292
  0
VERTEX
  5
1A30E
  8
PART
 10
-0.9286904424896711
 20
-0.1376137407893248
 30
0.0
 42
0.3590412791704769
  0
VERTEX
  5
1A30F
  8
PART
 10
-0.9366966113057326
 20
-0.1134628227204126
 30
0.0
 42
-0.1463436568741015
  0
VERTEX
  5
1A310
  8
PART
 10
-1.010292930961423
 20
-0.0293635580921199
 30
0.0
 42
-0.9031473122425364
  0
SEQEND
  5
1A311
  8
PART
  0
CIRCLE
  5
19F88
  8
HATCH
 10
-0.9116337608695381
 20
-0.2290768507192566
 30
0.0
 40
0.0094852676429298
  0
CIRCLE
  5
19F89
  8
HATCH
 10
-0.9028015575398526
 20
-0.2565409474815474
 30
0.0
 40
0.0055363899121161
  0
CIRCLE
  5
19F8A
  8
HATCH
 10
-0.891220474681571
 20
-0.2899115144954212
 30
0.0
 40
0.0031636513783511
  0
CIRCLE
  5
19F8B
  8
HATCH
 10
-0.8932436470835334
 20
-0.1089469177650553
 30
0.0
 40
0.0031636513783511
  0
CIRCLE
  5
19F8C
  8
HATCH
 10
-0.9210100125799414
 20
-0.1706080378711838
 30
0.0
 40
0.0055363899121161
  0
CIRCLE
  5
19F8D
  8
HATCH
 10
-0.9246026261587907
 20
-0.2019566586906361
 30
0.0
 40
0.0031636513783511
  0
CIRCLE
  5
19F8E
  8
HATCH
 10
-0.9013362723063274
 20
-0.1807261647449809
 30
0.0
 40
0.0031636513783511
  0
CIRCLE
  5
19F8F
  8
HATCH
 10
-0.904552689655194
 20
-0.1340451439645107
 30
0.0
 40
0.0094852676429298
  0
CIRCLE
  5
19F90
  8
HATCH
 10
-0.7088906842049206
 20
-0.237753823170691
 30
0.0
 40
0.0094852676429298
  0
CIRCLE
  5
19F91
  8
HATCH
 10
-0.7356173618436941
 20
-0.2302074753073995
 30
0.0
 40
0.0071182156012917
  0
CIRCLE
  5
19F92
  8
HATCH
 10
-0.7743720375150432
 20
-0.23099790680767
 30
0.0
 40
0.0055363899121161
  0
CIRCLE
  5
19F93
  8
HATCH
 10
-0.7194336059991749
 20
-0.3665695060958363
 30
0.0
 40
0.0094852676429298
  0
CIRCLE
  5
19F94
  8
HATCH
 10
-0.7783772596323715
 20
-0.3626933779403536
 30
0.0
 40
0.0055363899121161
  0
CIRCLE
  5
19F95
  8
HATCH
 10
-0.7480298667581025
 20
-0.3728031285472084
 30
0.0
 40
0.0055363899121161
  0
CIRCLE
  5
19F96
  8
HATCH
 10
-0.799516842882909
 20
-0.2459266434051084
 30
0.0
 40
0.0063235192319269
  0
CIRCLE
  5
19F97
  8
HATCH
 10
-0.7996204410828655
 20
-0.327309221364257
 30
0.0
 40
0.0055363899121161
  0
CIRCLE
  5
19F98
  8
HATCH
 10
-0.7963532094090448
 20
-0.2712207091278536
 30
0.0
 40
0.0071182156012917
  0
CIRCLE
  5
19F99
  8
HATCH
 10
-0.830362408012867
 20
-0.2451362119048379
 30
0.0
 40
0.0094852676429298
  0
CIRCLE
  5
19F9A
  8
HATCH
 10
-0.8592209456701898
 20
-0.2482282990208666
 30
0.0
 40
0.0031636513783511
  0
CIRCLE
  5
19F9B
  8
HATCH
 10
-0.8101206049965199
 20
-0.2936733167610963
 30
0.0
 40
0.0094852676429298
  0
CIRCLE
  5
19F9C
  8
HATCH
 10
-0.8155336834343565
 20
-0.3534268361973474
 30
0.0
 40
0.0094852676429298
  0
CIRCLE
  5
19F9D
  8
HATCH
 10
-0.8468926625096067
 20
-0.3301743960572672
 30
0.0
 40
0.0094852676429298
  0
CIRCLE
  5
19F9E
  8
HATCH
 10
-0.8593036406304221
 20
-0.2808043607188366
 30
0.0
 40
0.0055363899121161
  0
CIRCLE
  5
19F9F
  8
HATCH
 10
-0.8335604475359836
 20
-0.301032257834225
 30
0.0
 40
0.0031636513783511
  0
CIRCLE
  5
19FA0
  8
HATCH
 10
-0.8351078850803936
 20
-0.272011140628124
 30
0.0
 40
0.0055363899121161
  0
CIRCLE
  5
19FA1
  8
HATCH
 10
-0.7610160552551833
 20
-0.2855231020478743
 30
0.0
 40
0.0031636513783511
  0
CIRCLE
  5
19FA2
  8
HATCH
 10
-0.7380796185711063
 20
-0.2950083808957629
 30
0.0
 40
0.0071182156012917
  0
CIRCLE
  5
19FA3
  8
HATCH
 10
-0.7571340781818777
 20
-0.3424738570919075
 30
0.0
 40
0.0055363899121161
  0
CIRCLE
  5
19FA4
  8
HATCH
 10
-0.7412432520449706
 20
-0.2697143151730177
 30
0.0
 40
0.0063235192319269
  0
CIRCLE
  5
19FA5
  8
HATCH
 10
-0.7768342942424554
 20
-0.2957988123960333
 30
0.0
 40
0.0055363899121161
  0
CIRCLE
  5
19FA6
  8
HATCH
 10
-0.7720888171749288
 20
-0.2689238836727472
 30
0.0
 40
0.0094852676429298
  0
CIRCLE
  5
19FA7
  8
HATCH
 10
-0.7586999315156078
 20
-0.3230462261145159
 30
0.0
 40
0.0094852676429298
  0
CIRCLE
  5
19FA8
  8
HATCH
 10
-0.6448718085515246
 20
-0.2549793852232358
 30
0.0
 40
0.0094852676429298
  0
CIRCLE
  5
19FA9
  8
HATCH
 10
-0.6496172856190512
 20
-0.2818543139465219
 30
0.0
 40
0.0055363899121161
  0
CIRCLE
  5
19FAA
  8
HATCH
 10
-0.6413602926656205
 20
-0.3303505365575734
 30
0.0
 40
0.0031636513783511
  0
CIRCLE
  5
19FAB
  8
HATCH
 10
-0.6780451190749625
 20
-0.2385442546709615
 30
0.0
 40
0.0063235192319269
  0
CIRCLE
  5
19FAC
  8
HATCH
 10
-0.6978179222851751
 20
-0.2543530415458182
 30
0.0
 40
0.0031636513783511
  0
CIRCLE
  5
19FAD
  8
HATCH
 10
-0.6772243763915711
 20
-0.2943222484690107
 30
0.0
 40
0.0063235192319269
  0
CIRCLE
  5
19FAE
  8
HATCH
 10
-0.7080699415215292
 20
-0.2935318169687402
 30
0.0
 40
0.0094852676429298
  0
CIRCLE
  5
19FAF
  8
HATCH
 10
-0.6969971796017838
 20
-0.3101310353438673
 30
0.0
 40
0.0031636513783511
  0
CIRCLE
  5
19FB0
  8
HATCH
 10
-0.712815418589056
 20
-0.3204067456920263
 30
0.0
 40
0.0055363899121161
  0
CIRCLE
  5
19FB1
  8
HATCH
 10
-0.6899161083874326
 20
-0.3576468690865002
 30
0.0
 40
0.0031636513783511
  0
CIRCLE
  5
19FB2
  8
HATCH
 10
-0.6656382005265265
 20
-0.3192298128535096
 30
0.0
 40
0.0031636513783511
  0
CIRCLE
  5
19FB3
  8
HATCH
 10
-0.6600224145457148
 20
-0.3485397153099157
 30
0.0
 40
0.0055363899121161
  0
CIRCLE
  5
19FB4
  8
HATCH
 10
-0.7136361612724472
 20
-0.2646287518939772
 30
0.0
 40
0.0055363899121161
  0
CIRCLE
  5
19FB5
  8
HATCH
 10
-0.6748814856010981
 20
-0.2638383203937067
 30
0.0
 40
0.0071182156012917
  0
CIRCLE
  5
19FB6
  8
HATCH
 10
-0.6140262434215665
 20
-0.2557698167235063
 30
0.0
 40
0.0063235192319269
  0
CIRCLE
  5
19FB7
  8
HATCH
 10
-0.5917928585502886
 20
-0.2525054313596431
 30
0.0
 40
0.0031636513783511
  0
CIRCLE
  5
19FB8
  8
HATCH
 10
-0.6337990466317791
 20
-0.2715786035983629
 30
0.0
 40
0.0031636513783511
  0
CIRCLE
  5
19FB9
  8
HATCH
 10
-0.6283914273763749
 20
-0.309954875208821
 30
0.0
 40
0.0094852676429298
  0
CIRCLE
  5
19FBA
  8
HATCH
 10
-0.5998855159656138
 20
-0.2798017638885699
 30
0.0
 40
0.0031636513783511
  0
CIRCLE
  5
19FBB
  8
HATCH
 10
-0.7195678317516663
 20
-0.1133459388584039
 30
0.0
 40
0.0071182156012917
  0
CIRCLE
  5
19FBC
  8
HATCH
 10
-0.72740935774479
 20
-0.035355073825335
 30
0.0
 40
0.0094852676429298
  0
CIRCLE
  5
19FBD
  8
HATCH
 10
-0.741853409192057
 20
-0.0994473587109049
 30
0.0
 40
0.0094852676429298
  0
CIRCLE
  5
19FBE
  8
HATCH
 10
-0.7971292781919354
 20
-0.0976824949981488
 30
0.0
 40
0.0031636513783511
  0
CIRCLE
  5
19FBF
  8
HATCH
 10
-0.8129475171792073
 20
-0.1079582053463077
 30
0.0
 40
0.0055363899121161
  0
CIRCLE
  5
19FC0
  8
HATCH
 10
-0.8554028690298771
 20
-0.1026040816573459
 30
0.0
 40
0.0031636513783511
  0
CIRCLE
  5
19FC1
  8
HATCH
 10
-0.8324664323458002
 20
-0.1120893605052344
 30
0.0
 40
0.0071182156012917
  0
CIRCLE
  5
19FC2
  8
HATCH
 10
-0.8467109715711522
 20
-0.1281554458815524
 30
0.0
 40
0.0031636513783511
  0
CIRCLE
  5
19FC3
  8
HATCH
 10
-0.8061575910954346
 20
-0.1542807678149838
 30
0.0
 40
0.0031636513783511
  0
CIRCLE
  5
19FC4
  8
HATCH
 10
-0.8183942113732989
 20
-0.1958904977943401
 30
0.0
 40
0.0063235192319269
  0
CIRCLE
  5
19FC5
  8
HATCH
 10
-0.8492397765032571
 20
-0.1951000662940696
 30
0.0
 40
0.0094852676429298
  0
CIRCLE
  5
19FC6
  8
HATCH
 10
-0.8539852535707836
 20
-0.2219749950173557
 30
0.0
 40
0.0055363899121161
  0
CIRCLE
  5
19FC7
  8
HATCH
 10
-0.8152305778994347
 20
-0.2211845635170853
 30
0.0
 40
0.0071182156012917
  0
CIRCLE
  5
19FC8
  8
HATCH
 10
-0.8595066398013102
 20
-0.1559212908711476
 30
0.0
 40
0.0031636513783511
  0
CIRCLE
  5
19FC9
  8
HATCH
 10
-0.8365702031172332
 20
-0.1654065697190361
 30
0.0
 40
0.0071182156012917
  0
CIRCLE
  5
19FCA
  8
HATCH
 10
-0.81723035301518
 20
-0.1376815494398567
 30
0.0
 40
0.0094852676429298
  0
CIRCLE
  5
19FCB
  8
HATCH
 10
-0.7538075367976697
 20
-0.1205914879627883
 30
0.0
 40
0.0063235192319269
  0
CIRCLE
  5
19FCC
  8
HATCH
 10
-0.7283561264844886
 20
-0.1362432502939821
 30
0.0
 40
0.0031636513783511
  0
CIRCLE
  5
19FCD
  8
HATCH
 10
-0.7387809953175584
 20
-0.2049134095846543
 30
0.0
 40
0.0063235192319269
  0
CIRCLE
  5
19FCE
  8
HATCH
 10
-0.7585537985277711
 20
-0.220722196459511
 30
0.0
 40
0.0031636513783511
  0
CIRCLE
  5
19FCF
  8
HATCH
 10
-0.754450027756338
 20
-0.1690455277925789
 30
0.0
 40
0.0031636513783511
  0
CIRCLE
  5
19FD0
  8
HATCH
 10
-0.731513591072261
 20
-0.1785308066404674
 30
0.0
 40
0.0071182156012917
  0
CIRCLE
  5
19FD1
  8
HATCH
 10
-0.7828823794840681
 20
-0.1180589889951065
 30
0.0
 40
0.0063235192319269
  0
CIRCLE
  5
19FD2
  8
HATCH
 10
-0.7849597804232058
 20
-0.1987239329338226
 30
0.0
 40
0.0055363899121161
  0
CIRCLE
  5
19FD3
  8
HATCH
 10
-0.7809406582518541
 20
-0.1706034750652108
 30
0.0
 40
0.0071182156012917
  0
CIRCLE
  5
19FD4
  8
HATCH
 10
-0.7655227896760835
 20
-0.1524463094174517
 30
0.0
 40
0.0094852676429298
  0
CIRCLE
  5
19FD5
  8
HATCH
 10
-0.8014569475482957
 20
-0.0587423387543253
 30
0.0
 40
0.0055363899121161
  0
CIRCLE
  5
19FD6
  8
HATCH
 10
-0.8082020401116807
 20
-0.0810832766230216
 30
0.0
 40
0.0094852676429298
  0
CIRCLE
  5
19FD7
  8
HATCH
 10
-0.8356300658196644
 20
-0.0867952947824893
 30
0.0
 40
0.0063235192319269
  0
CIRCLE
  5
19FD8
  8
HATCH
 10
-0.8307073798714874
 20
-0.0521561463777338
 30
0.0
 40
0.0094852676429298
  0
CIRCLE
  5
19FD9
  8
HATCH
 10
-0.8628962542092715
 20
-0.0695188688001156
 30
0.0
 40
0.0031636513783511
  0
CIRCLE
  5
19FDA
  8
HATCH
 10
-0.7322896311779062
 20
-0.0689732365710423
 30
0.0
 40
0.0031636513783511
  0
CIRCLE
  5
19FDB
  8
HATCH
 10
-0.7856387085610237
 20
-0.0484666284061663
 30
0.0
 40
0.0031636513783511
  0
CIRCLE
  5
19FDC
  8
HATCH
 10
-0.7702682667436102
 20
-0.0882952496665526
 30
0.0
 40
0.0055363899121161
  0
ARC
  5
19FDD
  8
HATCH
 10
-0.7682889734912131
 20
-0.0316308072172678
 30
0.0
 40
0.0063235192319269
 50
171.40254075745671
 51
38.676082874478141
  0
CIRCLE
  5
19FDE
  8
HATCH
 10
-0.760167710128453
 20
-0.0597445140043458
 30
0.0
 40
0.0094852676429298
  0
CIRCLE
  5
19FDF
  8
HATCH
 10
-0.6338437492095217
 20
-0.1038867277337061
 30
0.0
 40
0.0071182156012917
  0
CIRCLE
  5
19FE0
  8
HATCH
 10
-0.6991611146683106
 20
-0.0883650797547204
 30
0.0
 40
0.0094852676429298
  0
CIRCLE
  5
19FE1
  8
HATCH
 10
-0.6567801858935987
 20
-0.0944014488858176
 30
0.0
 40
0.0031636513783511
  0
CIRCLE
  5
19FE2
  8
HATCH
 10
-0.6473340652789333
 20
-0.1302991607057062
 30
0.0
 40
0.0094852676429298
  0
CIRCLE
  5
19FE3
  8
HATCH
 10
-0.6725984248808709
 20
-0.1046771592339766
 30
0.0
 40
0.0055363899121161
  0
CIRCLE
  5
19FE4
  8
HATCH
 10
-0.6836366308964977
 20
-0.1265989605199145
 30
0.0
 40
0.0094852676429298
  0
CIRCLE
  5
19FE5
  8
HATCH
 10
-0.6520795423464599
 20
-0.1571740894289924
 30
0.0
 40
0.0055363899121161
  0
CIRCLE
  5
19FE6
  8
HATCH
 10
-0.6994594363291961
 20
-0.147718640608917
 30
0.0
 40
0.0031636513783511
  0
CIRCLE
  5
19FE7
  8
HATCH
 10
-0.7152776753164681
 20
-0.157994350957076
 30
0.0
 40
0.0055363899121161
  0
CIRCLE
  5
19FE8
  8
HATCH
 10
-0.676522999645119
 20
-0.1572039194568056
 30
0.0
 40
0.0071182156012917
  0
CIRCLE
  5
19FE9
  8
HATCH
 10
-0.6941170864859672
 20
-0.1885379565787086
 30
0.0
 40
0.0094852676429298
  0
CIRCLE
  5
19FEA
  8
HATCH
 10
-0.6988625635534939
 20
-0.2154128853019948
 30
0.0
 40
0.0055363899121161
  0
CIRCLE
  5
19FEB
  8
HATCH
 10
-0.663271521356009
 20
-0.1893283880789791
 30
0.0
 40
0.0063235192319269
  0
CIRCLE
  5
19FEC
  8
HATCH
 10
-0.6601078878821447
 20
-0.2146224538017243
 30
0.0
 40
0.0071182156012917
  0
CIRCLE
  5
19FED
  8
HATCH
 10
-0.6069380351834504
 20
-0.1112392689493411
 30
0.0
 40
0.0055363899121161
  0
CIRCLE
  5
19FEE
  8
HATCH
 10
-0.6164885001489751
 20
-0.1310895922059767
 30
0.0
 40
0.0063235192319269
  0
CIRCLE
  5
19FEF
  8
HATCH
 10
-0.5967903889752009
 20
-0.1983512998692933
 30
0.0
 40
0.0063235192319269
  0
CIRCLE
  5
19FF0
  8
HATCH
 10
-0.6276359541051592
 20
-0.1975608683690229
 30
0.0
 40
0.0094852676429298
  0
CIRCLE
  5
19FF1
  8
HATCH
 10
-0.6165631921854136
 20
-0.21416008674415
 30
0.0
 40
0.0031636513783511
  0
CIRCLE
  5
19FF2
  8
HATCH
 10
-0.6323814311726858
 20
-0.224435797092309
 30
0.0
 40
0.0055363899121161
  0
CIRCLE
  5
19FF3
  8
HATCH
 10
-0.5936267555013366
 20
-0.2236453655920385
 30
0.0
 40
0.0071182156012917
  0
CIRCLE
  5
19FF4
  8
HATCH
 10
-0.6362613033591879
 20
-0.1468983790808334
 30
0.0
 40
0.0031636513783511
  0
CIRCLE
  5
19FF5
  8
HATCH
 10
-0.6133248666751108
 20
-0.1563836579287219
 30
0.0
 40
0.0071182156012917
  0
CIRCLE
  5
19FF6
  8
HATCH
 10
-0.5771669411606162
 20
-0.1795847257176255
 30
0.0
 40
0.0031636513783511
  0
CIRCLE
  5
19FF7
  8
HATCH
 10
-0.5929851801478883
 20
-0.1768604360657846
 30
0.0
 40
0.0055363899121161
  0
CIRCLE
  5
19FF8
  8
HATCH
 10
-0.7125168279676934
 20
-0.0531644496961856
 30
0.0
 40
0.0063235192319269
  0
CIRCLE
  5
19FF9
  8
HATCH
 10
-0.6840889945117823
 20
-0.0488991654359274
 30
0.0
 40
0.0055363899121161
  0
CIRCLE
  5
19FFA
  8
HATCH
 10
-0.6678529478133443
 20
-0.0778022305106905
 30
0.0
 40
0.0094852676429298
  0
CIRCLE
  5
19FFB
  8
HATCH
 10
-0.637007382683386
 20
-0.0785926620109609
 30
0.0
 40
0.0063235192319269
  0
VIEWPORT
  5
B94C
 67
     1
  8
0
 10
4.2500000197906047
 20
5.499999966006726
 30
0.0
 40
22.896723563831479
 41
11.072807056794691
 68
     1
 69
     1
1001
ACAD
1000
MVIEW
1002
{
1070
    16
1010
0.0
1020
0.0
1030
0.0
1010
0.0
1020
0.0
1030
1.0
1040
0.0
1040
11.072807056794691
1040
4.2500000197906047
1040
5.499999966006726
1040
50.0
1040
0.0
1040
0.0
1070
     0
1070
   500
1070
     1
1070
     1
1070
     0
1070
     0
1070
     0
1070
     0
1040
0.0
1040
0.0
1040
0.0
1040
0.5
1040
0.5
1040
0.5
1040
0.5
1070
     0
1002
{
1002
}
1002
}
  0
ENDSEC
  0
EOF
