  0
SECTION
  2
HEADER
  9
$ACADVER
  1
AC1009
  9
$INSBASE
 10
0.0
 20
0.0
 30
0.0
  9
$EXTMIN
 10
0.9378393808517495
 20
-0.1975930727157293
 30
-0.0015258207003583
  9
$EXTMAX
 10
1.2380482823062651
 20
0.3522446602114879
 30
0.0000000349246037
  9
$LIMMIN
 10
0.0
 20
0.0
  9
$LIMMAX
 10
1.1999999999999991
 20
1.0
  9
$ORTHOMODE
 70
     0
  9
$REGENMODE
 70
     1
  9
$FILLMODE
 70
     1
  9
$QTEXTMODE
 70
     0
  9
$MIRRTEXT
 70
     1
  9
$DRAGMODE
 70
     2
  9
$LTSCALE
 40
1.0
  9
$OSMODE
 70
    49
  9
$ATTMODE
 70
     1
  9
$TEXTSIZE
 40
0.125
  9
$TRACEWID
 40
0.05
  9
$TEXTSTYLE
  7
STANDARD
  9
$CLAYER
  8
DIM
  9
$CELTYPE
  6
BYLAYER
  9
$CECOLOR
 62
     1
  9
$DIMSCALE
 40
0.0
  9
$DIMASZ
 40
0.125
  9
$DIMEXO
 40
0.05
  9
$DIMDLI
 40
0.02
  9
$DIMRND
 40
0.0
  9
$DIMDLE
 40
0.0
  9
$DIMEXE
 40
0.05
  9
$DIMTP
 40
0.005
  9
$DIMTM
 40
0.005
  9
$DIMTXT
 40
0.125
  9
$DIMCEN
 40
0.02
  9
$DIMTSZ
 40
0.0
  9
$DIMTOL
 70
     0
  9
$DIMLIM
 70
     0
  9
$DIMTIH
 70
     1
  9
$DIMTOH
 70
     1
  9
$DIMSE1
 70
     0
  9
$DIMSE2
 70
     0
  9
$DIMTAD
 70
     0
  9
$DIMZIN
 70
     4
  9
$DIMBLK
  1

  9
$DIMASO
 70
     1
  9
$DIMSHO
 70
     1
  9
$DIMPOST
  1

  9
$DIMAPOST
  1

  9
$DIMALT
 70
     0
  9
$DIMALTD
 70
     1
  9
$DIMALTF
 40
25.399999999999999
  9
$DIMLFAC
 40
1.0
  9
$DIMTOFL
 70
     0
  9
$DIMTVP
 40
0.0
  9
$DIMTIX
 70
     0
  9
$DIMSOXD
 70
     0
  9
$DIMSAH
 70
     0
  9
$DIMBLK1
  1

  9
$DIMBLK2
  1

  9
$DIMSTYLE
  2
SCOTTG
  9
$DIMCLRD
 70
   256
  9
$DIMCLRE
 70
   256
  9
$DIMCLRT
 70
   256
  9
$DIMTFAC
 40
1.0
  9
$DIMGAP
 40
0.02
  9
$LUNITS
 70
     2
  9
$LUPREC
 70
     5
  9
$SKETCHINC
 40
0.1
  9
$FILLETRAD
 40
0.01
  9
$AUNITS
 70
     0
  9
$AUPREC
 70
     0
  9
$MENU
  1
.
  9
$ELEVATION
 40
0.0
  9
$PELEVATION
 40
0.0
  9
$THICKNESS
 40
0.0
  9
$LIMCHECK
 70
     0
  9
$BLIPMODE
 70
     0
  9
$CHAMFERA
 40
0.0
  9
$CHAMFERB
 40
0.0
  9
$SKPOLY
 70
     0
  9
$TDCREATE
 40
2450919.3750775461
  9
$TDUPDATE
 40
2455805.5920821298
  9
$TDINDWG
 40
2.4232923495000001
  9
$TDUSRTIMER
 40
2.4232923495000001
  9
$USRTIMER
 70
     1
  9
$ANGBASE
 50
0.0
  9
$ANGDIR
 70
     0
  9
$PDMODE
 70
     0
  9
$PDSIZE
 40
0.0
  9
$PLINEWID
 40
0.0
  9
$COORDS
 70
     1
  9
$SPLFRAME
 70
     0
  9
$SPLINETYPE
 70
     6
  9
$SPLINESEGS
 70
     8
  9
$ATTDIA
 70
     0
  9
$ATTREQ
 70
     1
  9
$HANDLING
 70
     1
  9
$HANDSEED
  5
19F5B
  9
$SURFTAB1
 70
     6
  9
$SURFTAB2
 70
     6
  9
$SURFTYPE
 70
     6
  9
$SURFU
 70
     6
  9
$SURFV
 70
     6
  9
$UCSNAME
  2

  9
$UCSORG
 10
0.0
 20
0.0
 30
0.0
  9
$UCSXDIR
 10
1.0
 20
0.0
 30
0.0
  9
$UCSYDIR
 10
0.0
 20
1.0
 30
0.0
  9
$PUCSNAME
  2

  9
$PUCSORG
 10
0.0
 20
0.0
 30
0.0
  9
$PUCSXDIR
 10
1.0
 20
0.0
 30
0.0
  9
$PUCSYDIR
 10
0.0
 20
1.0
 30
0.0
  9
$USERI1
 70
     0
  9
$USERI2
 70
     0
  9
$USERI3
 70
     0
  9
$USERI4
 70
     0
  9
$USERI5
 70
     0
  9
$USERR1
 40
0.0
  9
$USERR2
 40
0.0
  9
$USERR3
 40
0.0
  9
$USERR4
 40
0.0
  9
$USERR5
 40
0.0
  9
$WORLDVIEW
 70
     1
  9
$SHADEDGE
 70
     3
  9
$SHADEDIF
 70
    70
  9
$TILEMODE
 70
     1
  9
$MAXACTVP
 70
    48
  9
$PLIMCHECK
 70
     0
  9
$PEXTMIN
 10
-0.0002593796237598
 20
-0.0003357869613225
 30
-0.0015258207003583
  9
$PEXTMAX
 10
8.5002594192049692
 20
11.000335718974769
 30
0.0000000349246037
  9
$PLIMMIN
 10
0.0000001811605737
 20
-0.0000001192092895
  9
$PLIMMAX
 10
8.4999999408646811
 20
10.999999640494821
  9
$UNITMODE
 70
     0
  9
$VISRETAIN
 70
     1
  9
$PLINEGEN
 70
     0
  9
$PSLTSCALE
 70
     1
  0
ENDSEC
  0
SECTION
  2
TABLES
  0
TABLE
  2
VPORT
 70
     1
  0
VPORT
  2
*ACTIVE
 70
     0
 10
0.0
 20
0.0
 11
1.0
 21
1.0
 12
-18.634043214416341
 22
-0.5618520549651791
 13
0.0
 23
0.0
 14
0.5
 24
0.5
 15
0.5
 25
0.5
 16
0.0
 26
0.0
 36
5.6148375865943736
 17
19.721987045995348
 27
0.6391778487130584
 37
0.0
 40
0.5534432262578876
 41
2.067833698030634
 42
50.0
 43
0.0
 44
0.0
 50
0.0
 51
0.0
 71
     0
 72
 20000
 73
     1
 74
     0
 75
     0
 76
     0
 77
     0
 78
     0
  0
ENDTAB
  0
TABLE
  2
LTYPE
 70
     1
  0
LTYPE
  2
CONTINUOUS
 70
     0
  3
Solid line
 72
    65
 73
     0
 40
0.0
  0
ENDTAB
  0
TABLE
  2
LAYER
 70
     6
  0
LAYER
  2
0
 70
     0
 62
     7
  6
CONTINUOUS
  0
LAYER
  2
DEFPOINTS
 70
     0
 62
     7
  6
CONTINUOUS
  0
LAYER
  2
HATCH
 70
     0
 62
     7
  6
CONTINUOUS
  0
LAYER
  2
PART
 70
     0
 62
     7
  6
CONTINUOUS
  0
LAYER
  2
DIM
 70
     0
 62
     7
  6
CONTINUOUS
  0
ENDTAB
  0
TABLE
  2
STYLE
 70
     4
  0
STYLE
  2
STANDARD
 70
     0
 40
0.0
 41
1.0
 50
0.0
 71
     0
 42
0.125
  3
txt
  4

  0
STYLE
  2
ROMANS
 70
     0
 40
0.0
 41
1.0
 50
0.0
 71
     0
 42
0.1
  3
SIMPLEX.shx
  4

  0
ENDTAB
  0
TABLE
  2
VIEW
 70
     0
  0
ENDTAB
  0
TABLE
  2
UCS
 70
     0
  0
ENDTAB
  0
TABLE
  2
APPID
 70
    16
  0
APPID
  2
ACAD
 70
     0
  0
APPID
  2
ADP_SK
 70
     0
  0
APPID
  2
ADP_SOL
 70
     0
  0
APPID
  2
ACIS_LNK
 70
     0
  0
APPID
  2
AME_SOL
 70
     0
  0
APPID
  2
ACAD_MLEADERVER
 70
     0
  0
APPID
  2
ACAD_EXEMPT_FROM_CAD_STANDARDS
 70
     0
  0
APPID
  2
ACAD_PSEXT
 70
     0
  0
APPID
  2
ACDBDYNAMICBLOCKGUID
 70
     0
  0
APPID
  2
ACDBBLOCKREPETAG
 70
     0
  0
APPID
  2
ACDBDYNAMICBLOCKTRUENAME
 70
     0
  0
APPID
  2
ACAD_DSTYLE_DIMJAG
 70
     0
  0
APPID
  2
ACAD_DSTYLE_DIMTALN
 70
     0
  0
APPID
  2
ACAECLAYERSTANDARD
 70
     0
  0
APPID
  2
ACAUTHENVIRON
 70
     0
  0
APPID
  2
ACADANNOPO
 70
     0
  0
ENDTAB
  0
TABLE
  2
DIMSTYLE
 70
     3
  0
DIMSTYLE
  2
SCOTTG
 70
     0
  3

  4

  5

  6

  7

 40
0.15
 41
0.125
 42
0.1
 43
0.25
 44
0.1
 45
0.0
 46
0.0
 47
0.01
 48
0.01
140
0.125
141
0.06
142
0.0
143
25.399999999999999
144
1.0
145
0.0
146
1.0
147
0.09
 71
     1
 72
     0
 73
     1
 74
     1
 75
     0
 76
     0
 77
     0
 78
     4
170
     0
171
     1
172
     0
173
     0
174
     1
175
     0
176
   256
177
   256
178
   256
  0
ENDTAB
  0
ENDSEC
  0
SECTION
  2
BLOCKS
  0
BLOCK
  8
0
  2
$MODEL_SPACE
 70
     0
 10
0.0
 20
0.0
 30
0.0
  3
$MODEL_SPACE
  1

  0
ENDBLK
  5
1A
  8
0
  0
BLOCK
 67
     1
  8
0
  2
$PAPER_SPACE
 70
     0
 10
0.0
 20
0.0
 30
0.0
  3
$PAPER_SPACE
  1

  0
ENDBLK
  5
B932
 67
     1
  8
0
  0
BLOCK
  8
0
 62
     1
  2
*U22
 70
     1
 10
0.0
 20
0.0
 30
0.0
  3
*U22
  1

  0
TEXT
  5
19E50
  8
DIM
 10
-0.3733034910232481
 20
0.7141972627033814
 30
0.0
 40
0.0378374821074757
  1
.400
  7
ROMANS
  0
ENDBLK
  5
19E52
  8
0
 62
     1
  0
BLOCK
  8
0
 62
     1
  2
*U23
 70
     1
 10
0.0
 20
0.0
 30
0.0
  3
*U23
  1

  0
TEXT
  5
19E54
  8
DIM
 10
-0.2841244632638552
 20
0.8031443739727691
 30
0.0
 40
0.0378374821074757
  1
.561
  7
ROMANS
  0
ENDBLK
  5
19E56
  8
0
 62
     1
  0
BLOCK
  8
0
 62
     1
  2
*U24
 70
     1
 10
0.0
 20
0.0
 30
0.0
  3
*U24
  1

  0
TEXT
  5
19E58
  8
DIM
 10
-0.7225985692659322
 20
0.3060812574018382
 30
0.0
 40
0.0378374821074757
  1
.650
  7
ROMANS
  0
ENDBLK
  5
19E5A
  8
0
 62
     1
  0
BLOCK
  8
0
 62
     1
  2
*U25
 70
     1
 10
0.0
 20
0.0
 30
0.0
  3
*U25
  1

  0
TEXT
  5
19E5C
  8
DIM
 10
0.1457500447553917
 20
-0.4352694319903586
 30
0.0
 40
0.0378374821394327
  1
.018
  7
ROMANS
  0
ENDBLK
  5
19E5E
  8
0
 62
     1
  0
BLOCK
  8
0
 62
     1
  2
*U26
 70
     1
 10
0.0
 20
0.0
 30
0.0
  3
*U26
  1

  0
TEXT
  5
19E60
  8
DIM
 10
-0.0855716434774586
 20
-0.5545369172463596
 30
0.0
 40
0.0378374821394327
  1
.155
  7
ROMANS
  0
ENDBLK
  5
19E62
  8
0
 62
     1
  0
BLOCK
  8
0
 62
     1
  2
*U27
 70
     1
 10
0.0
 20
0.0
 30
0.0
  3
*U27
  1

  0
TEXT
  5
19E64
  8
DIM
 10
0.1468273350806249
 20
-0.4926613062714235
 30
0.0
 40
0.0378374821394327
  1
.040
  7
ROMANS
  0
ENDBLK
  5
19E66
  8
0
 62
     1
  0
BLOCK
  8
0
 62
     1
  2
*U28
 70
     1
 10
0.0
 20
0.0
 30
0.0
  3
*U28
  1

  0
TEXT
  5
19E68
  8
DIM
 10
-0.7225985693146287
 20
-0.1939187410697232
 30
0.0
 40
0.0378374821394327
  1
.350
  7
ROMANS
  0
ENDBLK
  5
19E6A
  8
0
 62
     1
  0
BLOCK
  8
0
 62
     1
  2
*U29
 70
     1
 10
0.0
 20
0.0
 30
0.0
  3
*U29
  1

  0
TEXT
  5
19E6C
  8
DIM
 10
-0.3754939488229078
 20
-0.229541701938869
 30
0.0
 40
0.0378374821394327
  1
.030
  7
ROMANS
  0
ENDBLK
  5
19E6E
  8
0
 62
     1
  0
BLOCK
  8
0
 62
     1
  2
*U30
 70
     1
 10
0.0
 20
0.0
 30
0.0
  3
*U30
  1

  0
TEXT
  5
19E70
  8
DIM
 10
-0.2079462264281474
 20
0.3460745370676188
 30
0.0
 40
0.0378374821074757
  1
.135
  7
ROMANS
  0
ENDBLK
  5
19E72
  8
0
 62
     1
  0
BLOCK
  8
0
 62
     1
  2
*X31
 70
     1
 10
0.0
 20
0.0
 30
0.0
  3
*X31
  1

  0
LINE
  5
19E7E
  8
0
 62
     0
 10
0.1446569837137472
 20
0.0009573852515112
 30
0.0
 11
0.1649300711745383
 21
0.0212304727123023
 31
0.0
  0
LINE
  5
19E7F
  8
0
 62
     0
 10
0.1349300711745371
 20
0.0354246465364598
 30
0.0
 11
0.1649300711745383
 21
0.0654246465364605
 31
0.0
  0
LINE
  5
19E80
  8
0
 62
     0
 10
0.1349300711745376
 20
0.0796188203606199
 30
0.0
 11
0.1649300711745387
 21
0.1096188203606205
 31
0.0
  0
LINE
  5
19E81
  8
0
 62
     0
 10
0.134930071174538
 20
0.1238129941847794
 30
0.0
 11
0.1649300711745378
 21
0.1538129941847792
 31
0.0
  0
LINE
  5
19E82
  8
0
 62
     0
 10
0.1349300711745389
 20
0.1680071680089394
 30
0.0
 11
0.1649300711745387
 21
0.1980071680089393
 31
0.0
  0
LINE
  5
19E83
  8
0
 62
     0
 10
0.1349300711745385
 20
0.2122013418330986
 30
0.0
 11
0.1807130007370765
 21
0.2579842713956366
 31
0.0
  0
LINE
  5
19E84
  8
0
 62
     0
 10
0.1191269330721409
 20
0.2405923775548597
 30
0.0
 11
0.134082256437122
 21
0.2555477009198408
 31
0.0
  0
LINE
  5
19E85
  8
0
 62
     0
 10
0.0896601818776479
 20
0.2553198001845258
 30
0.0
 11
0.0984614133431552
 21
0.2641210316500335
 31
0.0
  0
ENDBLK
  5
19E87
  8
0
 62
     1
  0
BLOCK
  8
0
 62
     1
  2
*X32
 70
     1
 10
0.0
 20
0.0
 30
0.0
  3
*X32
  1

  0
LINE
  5
19E93
  8
0
 62
     0
 10
0.299165636525718
 20
0.4148034057611581
 30
0.0
 11
0.2867340380968713
 21
0.4611987627169079
 31
0.0
  0
LINE
  5
19E94
  8
0
 62
     0
 10
0.2675594243123149
 20
0.4844631042619314
 30
0.0
 11
0.2642585691645209
 21
0.4967820633819234
 31
0.0
  0
LINE
  5
19E95
  8
0
 62
     0
 10
0.2974929598008422
 20
0.372749628968581
 30
0.0
 11
0.2941921046530485
 21
0.3850685880885729
 31
0.0
  0
LINE
  5
19E96
  8
0
 62
     0
 10
0.2489551200296765
 20
0.5055990217697559
 30
0.0
 11
0.2466050101464396
 21
0.5143697512573651
 31
0.0
  0
LINE
  5
19E97
  8
0
 62
     0
 10
0.2909983731616967
 20
0.3486914649655768
 30
0.0
 11
0.2886482632784599
 21
0.3574621944531859
 31
0.0
  0
LINE
  5
19E98
  8
0
 62
     0
 10
0.2324477019332445
 20
0.5189092534929669
 30
0.0
 11
0.2304917535071236
 21
0.5262089523962353
 31
0.0
  0
LINE
  5
19E99
  8
0
 62
     0
 10
0.2829634841437858
 20
0.3303817876991424
 30
0.0
 11
0.2810075357176649
 21
0.3376814866024098
 31
0.0
  0
LINE
  5
19E9A
  8
0
 62
     0
 10
0.2170092194055777
 20
0.5282301633635324
 30
0.0
 11
0.2152764280750059
 21
0.5346970286481412
 31
0.0
  0
LINE
  5
19E9B
  8
0
 62
     0
 10
0.2741721163738173
 20
0.3148953275702357
 30
0.0
 11
0.2722978725881056
 21
0.3218901006042829
 31
0.0
  0
LINE
  5
19E9C
  8
0
 62
     0
 10
0.2022814585399129
 20
0.534898623881464
 30
0.0
 11
0.20069254865164
 21
0.5408285163131473
 31
0.0
  0
LINE
  5
19E9D
  8
0
 62
     0
 10
0.265003115000239
 20
0.3008182152366459
 30
0.0
 11
0.2628774877965434
 21
0.3087511639587888
 31
0.0
  0
LINE
  5
19E9E
  8
0
 62
     0
 10
0.1880894003166
 20
0.5395678149203889
 30
0.0
 11
0.1865995996234973
 21
0.5451278268001998
 31
0.0
  0
LINE
  5
19E9F
  8
0
 62
     0
 10
0.2553720296155568
 20
0.2884656239098602
 30
0.0
 11
0.2529214003626292
 21
0.2976114967923005
 31
0.0
  0
LINE
  5
19EA0
  8
0
 62
     0
 10
0.1743330739793636
 20
0.5426108324220005
 30
0.0
 11
0.1729137662403166
 21
0.5479077610156989
 31
0.0
  0
LINE
  5
19EA1
  8
0
 62
     0
 10
0.245358163074054
 20
0.2775415913085091
 30
0.0
 11
0.2425295810426395
 21
0.2880980031631246
 31
0.0
  0
LINE
  5
19EA2
  8
0
 62
     0
 10
0.1609503175137346
 20
0.5442596681825958
 30
0.0
 11
0.1595814818914059
 21
0.5493682322723368
 31
0.0
  0
LINE
  5
19EA3
  8
0
 62
     0
 10
0.2350147418258464
 20
0.2678474736164542
 30
0.0
 11
0.2317641918510416
 21
0.2799786912749678
 31
0.0
  0
LINE
  5
19EA4
  8
0
 62
     0
 10
0.1479007963524994
 20
0.5446648528563163
 30
0.0
 11
0.1465673464597073
 21
0.549641355605564
 31
0.0
  0
LINE
  5
19EA5
  8
0
 62
     0
 10
0.2243790476376612
 20
0.2592441333860727
 30
0.0
 11
0.2206655673550497
 21
0.2731030304736839
 31
0.0
  0
LINE
  5
19EA6
  8
0
 62
     0
 10
0.1351581816521099
 20
0.5439246470249916
 30
0.0
 11
0.1338479635272476
 21
0.5488144476359756
 31
0.0
  0
LINE
  5
19EA7
  8
0
 62
     0
 10
0.2134778730101141
 20
0.2516315796438056
 30
0.0
 11
0.2121739414400581
 21
0.2564979185128484
 31
0.0
  0
LINE
  5
19EA8
  8
0
 62
     0
 10
0.1227060242808668
 20
0.5421004396838605
 30
0.0
 11
0.1214085956462834
 21
0.5469425092673204
 31
0.0
  0
LINE
  5
19EA9
  8
0
 62
     0
 10
0.2023306779415837
 20
0.2449371866869896
 30
0.0
 11
0.2009391591319241
 21
0.2501304055843265
 31
0.0
  0
LINE
  5
19EAA
  8
0
 62
     0
 10
0.1105355437685938
 20
0.5392249999937367
 30
0.0
 11
0.1092413371356335
 21
0.5440550449034367
 31
0.0
  0
LINE
  5
19EAB
  8
0
 62
     0
 10
0.1909515092392344
 20
0.2391085311176004
 30
0.0
 11
0.1895193244577584
 21
0.2444535174878961
 31
0.0
  0
LINE
  5
19EAC
  8
0
 62
     0
 10
0.0986445584138329
 20
0.5353064701753088
 30
0.0
 11
0.0973442193935625
 21
0.5401594014660223
 31
0.0
  0
LINE
  5
19EAD
  8
0
 62
     0
 10
0.1793502009730665
 20
0.2341089116867554
 30
0.0
 11
0.1779204163671346
 21
0.2394449404799737
 31
0.0
  0
LINE
  5
19EAE
  8
0
 62
     0
 10
0.0870372310662178
 20
0.5303293142622377
 30
0.0
 11
0.0857209971847855
 21
0.5352415659823873
 31
0.0
  0
LINE
  5
19EAF
  8
0
 62
     0
 10
0.1675331264032158
 20
0.2299145430638143
 30
0.0
 11
0.1662941935762914
 21
0.2345383033210613
 31
0.0
  0
LINE
  5
19EB0
  8
0
 62
     0
 10
0.0757245581749064
 20
0.5242524929475652
 30
0.0
 11
0.0743815593734285
 21
0.529264632709185
 31
0.0
  0
LINE
  5
19EB1
  8
0
 62
     0
 10
0.0647257431028228
 20
0.5170043383051839
 30
0.0
 11
0.063343073973245
 21
0.5221645297468252
 31
0.0
  0
LINE
  5
19EB2
  8
0
 62
     0
 10
0.0540708866764499
 20
0.5084725125213048
 30
0.0
 11
0.0526322002804318
 21
0.5138417632474024
 31
0.0
  0
LINE
  5
19EB3
  8
0
 62
     0
 10
0.1283588530316393
 20
0.2312260476927701
 30
0.0
 11
0.1266460507818452
 21
0.2376183127123195
 31
0.0
  0
LINE
  5
19EB4
  8
0
 62
     0
 10
0.0438059924332956
 20
0.4984853280566242
 30
0.0
 11
0.0422891152199039
 21
0.504146390885845
 31
0.0
  0
LINE
  5
19EB5
  8
0
 62
     0
 10
0.1139136765284558
 20
0.2368398890124972
 30
0.0
 11
0.1120885467693473
 21
0.2436513660038964
 31
0.0
  0
LINE
  5
19EB6
  8
0
 62
     0
 10
0.0340026238538438
 20
0.4867757063660108
 30
0.0
 11
0.0323750378225216
 21
0.4928499401285942
 31
0.0
  0
LINE
  5
19EB7
  8
0
 62
     0
 10
0.0990228974576282
 20
0.2441167417546568
 30
0.0
 11
0.0971580356241726
 21
0.2510765008662101
 31
0.0
  0
LINE
  5
19EB8
  8
0
 62
     0
 10
0.080232652817815
 20
0.2659465981226337
 30
0.0
 11
0.0781584440093366
 21
0.2736876507813823
 31
0.0
  0
LINE
  5
19EB9
  8
0
 62
     0
 10
0.0247783174687188
 20
0.4729049951454245
 30
0.0
 11
0.0229874091600584
 21
0.4795887559450423
 31
0.0
  0
LINE
  5
19EBA
  8
0
 62
     0
 10
0.0835708817088987
 20
0.2534881582938153
 30
0.0
 11
0.0817592610325
 21
0.2602492187021781
 31
0.0
  0
LINE
  5
19EBB
  8
0
 62
     0
 10
0.0163468810569163
 20
0.4560752529006038
 30
0.0
 11
0.0142947033462719
 21
0.4637340843828888
 31
0.0
  0
LINE
  5
19EBC
  8
0
 62
     0
 10
0.0673578311474532
 20
0.2656997954203604
 30
0.0
 11
0.0624417347639124
 21
0.2840469168986397
 31
0.0
  0
LINE
  5
19EBD
  8
0
 62
     0
 10
0.0091798171951343
 20
0.4345268080594132
 30
0.0
 11
0.0066349498332996
 21
0.4440243823523043
 31
0.0
  0
LINE
  5
19EBE
  8
0
 62
     0
 10
0.0499775350866365
 20
0.2822676520554648
 30
0.0
 11
0.0454606529684683
 21
0.2991248856122679
 31
0.0
  0
LINE
  5
19EBF
  8
0
 62
     0
 10
0.0049489729774781
 20
0.4020202423241602
 30
0.0
 11
0.0009339866083471
 21
0.4170043754454538
 31
0.0
  0
LINE
  5
19EC0
  8
0
 62
     0
 10
0.0302691229579504
 20
0.3075241561417732
 30
0.0
 11
0.0255433515288972
 21
0.3251609752199576
 31
0.0
  0
ENDBLK
  5
19EC2
  8
0
 62
     1
  0
BLOCK
  8
0
 62
     1
  2
*X33
 70
     1
 10
0.0
 20
0.0
 30
0.0
  3
*X33
  1

  0
LINE
  5
19EE6
  8
0
 62
     0
 10
1.082715357913165
 20
-0.1965677446173206
 30
0.0
 11
1.102988445373956
 21
-0.1762946571565296
 31
0.0
  0
LINE
  5
19EE7
  8
0
 62
     0
 10
1.0729884453739551
 20
-0.1621004833323716
 30
0.0
 11
1.102988445373956
 21
-0.1321004833323713
 31
0.0
  0
LINE
  5
19EE8
  8
0
 62
     0
 10
1.0729884453739551
 20
-0.1179063095082116
 30
0.0
 11
1.102988445373956
 21
-0.0879063095082113
 31
0.0
  0
LINE
  5
19EE9
  8
0
 62
     0
 10
1.0729884453739551
 20
-0.0737121356840533
 30
0.0
 11
1.102988445373956
 21
-0.0437121356840522
 31
0.0
  0
LINE
  5
19EEA
  8
0
 62
     0
 10
1.0729884453739551
 20
-0.0295179618598933
 30
0.0
 11
1.102988445373956
 21
0.0004820381401074
 31
0.0
  0
LINE
  5
19EEB
  8
0
 62
     0
 10
1.0729884453739551
 20
0.0146762119642663
 30
0.0
 11
1.118771374936494
 21
0.0604591415268048
 31
0.0
  0
LINE
  5
19EEC
  8
0
 62
     0
 10
1.057185307271558
 20
0.0430672476860279
 30
0.0
 11
1.0721406306365391
 21
0.058022571051009
 31
0.0
  0
LINE
  5
19EED
  8
0
 62
     0
 10
1.027718556077065
 20
0.057794670315694
 30
0.0
 11
1.0365197875425729
 21
0.0665959017812017
 31
0.0
  0
ENDBLK
  5
19EEF
  8
0
 62
     1
  0
BLOCK
  8
0
 62
     1
  2
*X34
 70
     1
 10
0.0
 20
0.0
 30
0.0
  3
*X34
  1

  0
LINE
  5
19EFB
  8
0
 62
     0
 10
1.2372240107251351
 20
0.2172782758923271
 30
0.0
 11
1.224792412296289
 21
0.2636736328480769
 31
0.0
  0
LINE
  5
19EFC
  8
0
 62
     0
 10
1.205617798511732
 20
0.2869379743930995
 30
0.0
 11
1.202316943363938
 21
0.2992569335130914
 31
0.0
  0
LINE
  5
19EFD
  8
0
 62
     0
 10
1.23555133400026
 20
0.1752244990997491
 30
0.0
 11
1.232250478852466
 21
0.187543458219741
 31
0.0
  0
LINE
  5
19EFE
  8
0
 62
     0
 10
1.187013494229094
 20
0.308073891900924
 30
0.0
 11
1.1846633843458569
 21
0.3168446213885332
 31
0.0
  0
LINE
  5
19EFF
  8
0
 62
     0
 10
1.229056747361114
 20
0.1511663350967449
 30
0.0
 11
1.226706637477877
 21
0.1599370645843541
 31
0.0
  0
LINE
  5
19F00
  8
0
 62
     0
 10
1.170506076132662
 20
0.3213841236241359
 30
0.0
 11
1.1685501277065411
 21
0.3286838225274042
 31
0.0
  0
LINE
  5
19F01
  8
0
 62
     0
 10
1.2210218583432031
 20
0.1328566578303114
 30
0.0
 11
1.219065909917082
 21
0.1401563567335788
 31
0.0
  0
LINE
  5
19F02
  8
0
 62
     0
 10
1.155067593604995
 20
0.3307050334947004
 30
0.0
 11
1.153334802274423
 21
0.3371718987793093
 31
0.0
  0
LINE
  5
19F03
  8
0
 62
     0
 10
1.2122304905732351
 20
0.1173701977014039
 30
0.0
 11
1.2103562467875231
 21
0.124364970735451
 31
0.0
  0
LINE
  5
19F04
  8
0
 62
     0
 10
1.1403398327393299
 20
0.3373734940126321
 30
0.0
 11
1.1387509228510571
 21
0.3433033864443153
 31
0.0
  0
LINE
  5
19F05
  8
0
 62
     0
 10
1.2030614891996561
 20
0.103293085367814
 30
0.0
 11
1.2009358619959609
 21
0.1112260340899569
 31
0.0
  0
LINE
  5
19F06
  8
0
 62
     0
 10
1.1261477745160171
 20
0.342042685051557
 30
0.0
 11
1.124657973822915
 21
0.3476026969313679
 31
0.0
  0
LINE
  5
19F07
  8
0
 62
     0
 10
1.1934304038149739
 20
0.0909404940410284
 30
0.0
 11
1.190979774562047
 21
0.1000863669234686
 31
0.0
  0
LINE
  5
19F08
  8
0
 62
     0
 10
1.1123914481787811
 20
0.3450857025531686
 30
0.0
 11
1.1109721404397339
 21
0.350382631146867
 31
0.0
  0
LINE
  5
19F09
  8
0
 62
     0
 10
1.1834165372734711
 20
0.0800164614396772
 30
0.0
 11
1.1805879552420571
 21
0.0905728732942928
 31
0.0
  0
LINE
  5
19F0A
  8
0
 62
     0
 10
1.0990086917131521
 20
0.3467345383137639
 30
0.0
 11
1.0976398560908229
 21
0.3518431024035049
 31
0.0
  0
LINE
  5
19F0B
  8
0
 62
     0
 10
1.1730731160252641
 20
0.0703223437476224
 30
0.0
 11
1.1698225660504591
 21
0.0824535614061359
 31
0.0
  0
LINE
  5
19F0C
  8
0
 62
     0
 10
1.0859591705519169
 20
0.3471397229874844
 30
0.0
 11
1.084625720659125
 21
0.3521162257367321
 31
0.0
  0
LINE
  5
19F0D
  8
0
 62
     0
 10
1.162437421837079
 20
0.0617190035172408
 30
0.0
 11
1.158723941554467
 21
0.075577900604852
 31
0.0
  0
LINE
  5
19F0E
  8
0
 62
     0
 10
1.073216555851527
 20
0.3463995171561596
 30
0.0
 11
1.0719063377266651
 21
0.3512893177671437
 31
0.0
  0
LINE
  5
19F0F
  8
0
 62
     0
 10
1.1515362472095321
 20
0.0541064497749737
 30
0.0
 11
1.150232315639476
 21
0.0589727886440166
 31
0.0
  0
LINE
  5
19F10
  8
0
 62
     0
 10
1.0607643984802839
 20
0.3445753098150286
 30
0.0
 11
1.0594669698457011
 21
0.3494173793984885
 31
0.0
  0
LINE
  5
19F11
  8
0
 62
     0
 10
1.1403890521410009
 20
0.0474120568181578
 30
0.0
 11
1.138997533331342
 21
0.0526052757154947
 31
0.0
  0
LINE
  5
19F12
  8
0
 62
     0
 10
1.048593917968011
 20
0.3416998701249048
 30
0.0
 11
1.0472997113350511
 21
0.3465299150346048
 31
0.0
  0
LINE
  5
19F13
  8
0
 62
     0
 10
1.1290098834386519
 20
0.0415834012487686
 30
0.0
 11
1.1275776986571759
 21
0.0469283876190643
 31
0.0
  0
LINE
  5
19F14
  8
0
 62
     0
 10
1.03670293261325
 20
0.337781340306476
 30
0.0
 11
1.03540259359298
 21
0.3426342715971895
 31
0.0
  0
LINE
  5
19F15
  8
0
 62
     0
 10
1.117408575172484
 20
0.0365837818179227
 30
0.0
 11
1.1159787905665519
 21
0.0419198106111409
 31
0.0
  0
LINE
  5
19F16
  8
0
 62
     0
 10
1.025095605265635
 20
0.3328041843934057
 30
0.0
 11
1.0237793713842029
 21
0.3377164361135554
 31
0.0
  0
LINE
  5
19F17
  8
0
 62
     0
 10
1.1055915006026329
 20
0.0323894131949825
 30
0.0
 11
1.1043525677757089
 21
0.0370131734522294
 31
0.0
  0
LINE
  5
19F18
  8
0
 62
     0
 10
1.0137829323743239
 20
0.3267273630787333
 30
0.0
 11
1.012439933572846
 21
0.3317395028403531
 31
0.0
  0
LINE
  5
19F19
  8
0
 62
     0
 10
1.00278411730224
 20
0.3194792084363511
 30
0.0
 11
1.0014014481726621
 21
0.3246393998779924
 31
0.0
  0
LINE
  5
19F1A
  8
0
 62
     0
 10
0.9921292608758678
 20
0.3109473826524729
 30
0.0
 11
0.9906905744798497
 21
0.3163166333785705
 31
0.0
  0
LINE
  5
19F1B
  8
0
 62
     0
 10
1.066417227231057
 20
0.0337009178239383
 30
0.0
 11
1.0647044249812629
 21
0.0400931828434876
 31
0.0
  0
LINE
  5
19F1C
  8
0
 62
     0
 10
0.9818643666327135
 20
0.3009601981877923
 30
0.0
 11
0.9803474894193218
 21
0.3066212610170131
 31
0.0
  0
LINE
  5
19F1D
  8
0
 62
     0
 10
1.0519720507278729
 20
0.0393147591436653
 30
0.0
 11
1.0501469209687651
 21
0.0461262361350645
 31
0.0
  0
LINE
  5
19F1E
  8
0
 62
     0
 10
0.9720609980532619
 20
0.2892505764971789
 30
0.0
 11
0.9704334120219396
 21
0.2953248102597623
 31
0.0
  0
LINE
  5
19F1F
  8
0
 62
     0
 10
1.0370812716570461
 20
0.046591611885825
 30
0.0
 11
1.0352164098235901
 21
0.0535513709973783
 31
0.0
  0
LINE
  5
19F20
  8
0
 62
     0
 10
1.0182910270172321
 20
0.0684214682538018
 30
0.0
 11
1.0162168182087541
 21
0.0761625209125505
 31
0.0
  0
LINE
  5
19F21
  8
0
 62
     0
 10
0.9628366916681368
 20
0.2753798652765926
 30
0.0
 11
0.9610457833594763
 21
0.2820636260762104
 31
0.0
  0
LINE
  5
19F22
  8
0
 62
     0
 10
1.021629255908316
 20
0.0559630284249835
 30
0.0
 11
1.019817635231917
 21
0.0627240888333462
 31
0.0
  0
LINE
  5
19F23
  8
0
 62
     0
 10
0.9544052552563344
 20
0.2585501230317719
 30
0.0
 11
0.9523530775456897
 21
0.2662089545140569
 31
0.0
  0
LINE
  5
19F24
  8
0
 62
     0
 10
1.0054162053468709
 20
0.0681746655515285
 30
0.0
 11
1.0005001089633301
 21
0.0865217870298079
 31
0.0
  0
LINE
  5
19F25
  8
0
 62
     0
 10
0.9472381913945522
 20
0.2370016781905813
 30
0.0
 11
0.9446933240327176
 21
0.2464992524834724
 31
0.0
  0
LINE
  5
19F26
  8
0
 62
     0
 10
0.9880359092860545
 20
0.0847425221866329
 30
0.0
 11
0.9835190271678861
 21
0.101599755743436
 31
0.0
  0
LINE
  5
19F27
  8
0
 62
     0
 10
0.9430073471768961
 20
0.2044951124553282
 30
0.0
 11
0.9389923608077651
 21
0.2194792455766219
 31
0.0
  0
LINE
  5
19F28
  8
0
 62
     0
 10
0.9683274971573682
 20
0.1099990262729413
 30
0.0
 11
0.9636017257283152
 21
0.1276358453511257
 31
0.0
  0
ENDBLK
  5
19F2A
  8
0
 62
     1
  0
BLOCK
  8
0
 62
     1
  2
*U35
 70
     1
 10
0.0
 20
0.0
 30
0.0
  3
*U35
  1

  0
TEXT
  5
19F44
  8
DIM
 10
1.2316070172454761
 20
-0.1596703980914614
 30
0.0
 40
0.0189895084665375
  1
.018
  7
ROMANS
  0
ENDBLK
  5
19F46
  8
0
 62
     1
  0
BLOCK
  8
0
 62
     1
  2
*U36
 70
     1
 10
0.0
 20
0.0
 30
0.0
  3
*U36
  1

  0
TEXT
  5
19F48
  8
DIM
 10
1.059052051520184
 20
0.3796384132391179
 30
0.0
 40
0.0189895084665375
  1
.300
  7
ROMANS
  0
ENDBLK
  5
19F4A
  8
0
 62
     1
  0
BLOCK
  8
0
 62
     1
  2
*U37
 70
     1
 10
0.0
 20
0.0
 30
0.0
  3
*U37
  1

  0
TEXT
  5
19F4C
  8
DIM
 10
0.829045635829922
 20
0.1951591692989016
 30
0.0
 40
0.0189895084665375
  1
.295
  7
ROMANS
  0
ENDBLK
  5
19F4E
  8
0
 62
     1
  0
BLOCK
  8
0
 62
     1
  2
*U38
 70
     1
 10
0.0
 20
0.0
 30
0.0
  3
*U38
  1

  0
TEXT
  5
19F50
  8
DIM
 10
0.829045635829922
 20
-0.0796803659531393
 30
0.0
 40
0.0189895084665375
  1
.255
  7
ROMANS
  0
ENDBLK
  5
19F52
  8
0
 62
     1
  0
BLOCK
  8
0
 62
     1
  2
*U39
 70
     1
 10
0.0
 20
0.0
 30
0.0
  3
*U39
  1

  0
TEXT
  5
19F54
  8
DIM
 10
1.060860576136045
 20
-0.2357361357347024
 30
0.0
 40
0.0189895084665375
  1
.125
  7
ROMANS
  0
ENDBLK
  5
19F56
  8
0
 62
     1
  0
BLOCK
  8
0
 62
     1
  2
*U40
 70
     1
 10
0.0
 20
0.0
 30
0.0
  3
*U40
  1

  0
TEXT
  5
19F58
  8
DIM
 10
1.144005783661677
 20
-0.0021317362394943
 30
0.0
 40
0.0189895084665375
  1
.030
  7
ROMANS
  0
ENDBLK
  5
19F5A
  8
0
 62
     1
  0
ENDSEC
  0
SECTION
  2
ENTITIES
  0
POLYLINE
  5
19C91
  8
PART
 66
     1
 10
0.0
 20
0.0
 30
0.0
 70
     1
  0
VERTEX
  5
19EDB
  8
PART
 10
1.0729884453739551
 20
-0.0678695715156692
 30
0.0
  0
VERTEX
  5
19EDC
  8
PART
 10
1.0302915945639071
 20
-0.0432185332069384
 30
0.0
 42
-1.0380181869426599
  0
VERTEX
  5
19EDD
  8
PART
 10
1.0392937100240109
 20
-0.0276312973002788
 30
0.0
  0
VERTEX
  5
19EDE
  8
PART
 10
1.0729884453739551
 20
-0.0470849618248435
 30
0.0
  0
SEQEND
  5
19EDF
  8
PART
  0
POLYLINE
  5
19C92
  8
PART
 66
     1
 10
0.0
 20
0.0
 30
0.0
 70
     1
  0
VERTEX
  5
19EE0
  8
PART
 10
1.102988445373956
 20
-0.0678695715156692
 30
0.0
  0
VERTEX
  5
19EE1
  8
PART
 10
1.1456852961840029
 20
-0.0432185332069384
 30
0.0
 42
1.0380181869426599
  0
VERTEX
  5
19EE2
  8
PART
 10
1.1366831807238991
 20
-0.0276312973002788
 30
0.0
  0
VERTEX
  5
19EE3
  8
PART
 10
1.102988445373956
 20
-0.0470849618248435
 30
0.0
  0
SEQEND
  5
19EE4
  8
PART
  0
INSERT
  5
19C93
  8
HATCH
  6
CONTINUOUS
  2
*X33
 10
0.0
 20
0.0
 30
0.0
1001
ACAD
1000
HATCH
1002
{
1070
    19
1000
ANSI31
1040
0.25
1040
0.0
1000
R14_HATCH_DATA
1000
19C93
1011
1.0
1021
0.0
1031
0.0
1021
0.0
1031
0.0
1011
0.0
1021
0.0
1031
0.0
1021
1.0
1031
0.0
1011
0.0
1021
0.0
1031
0.0
1021
0.0
1031
1.0
1040
0.0
1010
0.0
1020
0.0
1030
1.0
1000
ANSI31
1070
     0
1070
     0
1071
        1
1071
        1
1071
       10
1070
     2
1040
1.087988445373957
1040
0.2021539235321719
1040
0.145000000000002
1040
4.2661502804735063
1040
5.158627680295873
1070
     1
1070
     2
1040
1.1528042720973499
1040
0.0666762703603621
1040
0.0051841732766063
1040
4.2661502804735409
1040
7.2842975291461647
1070
     0
1070
     2
1040
1.028096582334342
1040
0.2613729428316074
1040
0.2363957693469642
1040
1.001112221966632
1040
1.233477711557784
1070
     0
1070
     2
1040
1.107988445373957
1040
0.0335809155815909
1040
0.0050000000000003
1040
1.908114942032114
1040
3.1415926535897931
1070
     1
1070
     1
1040
1.102988445373956
1040
0.0335809155815909
1040
1.102988445373956
1040
-0.1825251469719109
1070
     2
1040
1.087988445373955
1040
-0.1825251469719109
1040
0.0150000000000006
1040
6.2831853071795862
1040
9.4247779607693793
1070
     0
1070
     1
1040
1.0729884453739551
1040
-0.1825251469719109
1040
1.072988445373956
1040
0.0335809155815892
1070
     2
1040
1.067988445373959
1040
0.0335809155815892
1040
0.0049999999999981
1040
0.0000000000003553
1040
1.233477711558147
1070
     1
1070
     2
1040
1.147880308413586
1040
0.2613729428316003
1040
0.2363957693469661
1040
1.908114942032076
1040
2.140480431623228
1070
     0
1070
     2
1040
1.0231726186505641
1040
0.0666762703603621
1040
0.0051841732766063
1040
2.1404804316232129
1040
5.1586276802958366
1070
     0
1071
        0
1070
     0
1070
     1
1040
0.0
1040
0.25
1070
     0
1070
     1
1040
0.7853981633974483
1040
0.2629019166241768
1040
-5.6125752636188668
1040
-0.0220970869120796
1040
0.0220970869120796
1070
     0
1071
        1
1040
-5.0607141334704329
1040
-6.6074193601795308
1040
0.0
1002
}
  0
POLYLINE
  5
19C94
  8
PART
 66
     1
 10
0.0
 20
0.0
 30
0.0
 70
     1
  0
VERTEX
  5
19EF0
  8
PART
 10
1.0729884453739551
 20
-0.1678695715156688
 30
0.0
  0
VERTEX
  5
19EF1
  8
PART
 10
1.0302915945639071
 20
-0.143218533206938
 30
0.0
 42
-1.0380181869426599
  0
VERTEX
  5
19EF2
  8
PART
 10
1.0392937100240109
 20
-0.1276312973002784
 30
0.0
  0
VERTEX
  5
19EF3
  8
PART
 10
1.0729884453739551
 20
-0.1470849618248431
 30
0.0
  0
SEQEND
  5
19EF4
  8
PART
  0
POLYLINE
  5
19C95
  8
PART
 66
     1
 10
0.0
 20
0.0
 30
0.0
 70
     1
  0
VERTEX
  5
19EF5
  8
PART
 10
1.102988445373956
 20
-0.1678695715156688
 30
0.0
  0
VERTEX
  5
19EF6
  8
PART
 10
1.1456852961840029
 20
-0.143218533206938
 30
0.0
 42
1.0380181869426599
  0
VERTEX
  5
19EF7
  8
PART
 10
1.1366831807238991
 20
-0.1276312973002784
 30
0.0
  0
VERTEX
  5
19EF8
  8
PART
 10
1.102988445373956
 20
-0.1470849618248431
 30
0.0
  0
SEQEND
  5
19EF9
  8
PART
  0
CIRCLE
  5
19C96
  8
HATCH
 10
1.0132464263744241
 20
0.2176886598675705
 30
0.0
 40
0.0045
  0
INSERT
  5
19C97
  8
HATCH
  6
CONTINUOUS
  2
*X34
 10
0.0
 20
0.0
 30
0.0
1001
ACAD
1000
HATCH
1002
{
1070
    19
1000
ANSI31
1040
0.1
1040
1.047197551196597
1000
R14_HATCH_DATA
1000
19C97
1011
1.0
1021
0.0
1031
0.0
1021
0.0
1031
0.0
1011
0.0
1021
0.0
1031
0.0
1021
1.0
1031
0.0
1011
0.0
1021
0.0
1031
0.0
1021
0.0
1031
1.0
1040
0.0
1010
0.0
1020
0.0
1030
1.0
1000
ANSI31
1070
     0
1070
     0
1071
        1
1071
        1
1071
       12
1070
     2
1040
1.1528042720973499
1040
0.0666762703603621
1040
0.0051841732766063
1040
4.2661502804735409
1040
7.2842975291461647
1070
     0
1070
     2
1040
1.028096582334342
1040
0.2613729428316074
1040
0.2363957693469642
1040
1.001112221966632
1040
1.233477711557784
1070
     0
1070
     2
1040
1.107988445373957
1040
0.0335809155815909
1040
0.0050000000000003
1040
1.908114942032114
1040
3.1415926535897931
1070
     1
1070
     1
1040
1.102988445373956
1040
0.0335809155815909
1040
1.102988445373956
1040
0.0315809155815894
1070
     2
1040
1.047572424258385
1040
0.214594128636816
1040
0.1912191714998242
1040
5.0064106975043208
1040
5.785545157792745
1070
     1
1070
     2
1040
1.087988445373957
1040
0.2021539235321701
1040
0.15
1040
5.7297737997397009
1040
9.978189468209111
1070
     1
1070
     2
1040
1.1284044664895481
1040
0.2145941286368382
1040
0.1912191714998524
1040
3.639232802976569
1040
4.4183672632649911
1070
     1
1070
     1
1040
1.072988445373956
1040
0.0315809155815885
1040
1.072988445373956
1040
0.0335809155815892
1070
     2
1040
1.067988445373959
1040
0.0335809155815892
1040
0.0049999999999981
1040
0.0000000000003553
1040
1.233477711558147
1070
     1
1070
     2
1040
1.147880308413586
1040
0.2613729428316003
1040
0.2363957693469661
1040
1.908114942032076
1040
2.140480431623228
1070
     0
1070
     2
1040
1.0231726186505641
1040
0.0666762703603621
1040
0.0051841732766063
1040
2.1404804316232129
1040
5.1586276802958366
1070
     0
1070
     2
1040
1.087988445373957
1040
0.2021539235321701
1040
0.145
1040
2.017035026706079
1040
7.4077429340632994
1070
     0
1071
        0
1070
     0
1070
     1
1040
1.047197551196597
1040
0.1
1070
     0
1070
     1
1040
1.832595714594045
1040
0.2629019166241768
1040
-5.6125752636188668
1040
-0.0120740728286134
1040
-0.0032352380637815
1070
     0
1071
        1
1040
-1.4931736534984219
1040
-6.6046370131955952
1040
0.0
1002
}
  0
CIRCLE
  5
19C98
  8
HATCH
 10
0.9771039410097017
 20
0.1894575744010603
 30
0.0
 40
0.0045
  0
LINE
  5
19C99
  8
HATCH
 10
0.9698460475285344
 20
0.1609293442577144
 30
0.0
 11
0.9698460475285344
 21
0.1609293442577144
 31
0.0
  0
CIRCLE
  5
19C9A
  8
HATCH
 10
0.9874980957841508
 20
0.1375067272518422
 30
0.0
 40
0.009
  0
LINE
  5
19C9B
  8
HATCH
 10
0.9925354799180396
 20
0.1856970610519693
 30
0.0
 11
0.9925354799180396
 21
0.1856970610519693
 31
0.0
  0
CIRCLE
  5
19C9C
  8
HATCH
 10
0.9959228927977203
 20
0.1553476855638938
 30
0.0
 40
0.0045
  0
LINE
  5
19C9D
  8
HATCH
 10
1.001096047528534
 20
0.0984293442577144
 30
0.0
 11
1.001096047528534
 21
0.0984293442577144
 31
0.0
  0
CIRCLE
  5
19C9E
  8
HATCH
 10
0.9826410034136596
 20
0.2947917966777453
 30
0.0
 40
0.0045
  0
LINE
  5
19C9F
  8
HATCH
 10
1.0015712914692161
 20
0.283739541280464
 30
0.0
 11
1.0015712914692161
 21
0.283739541280464
 31
0.0
  0
CIRCLE
  5
19CA0
  8
HATCH
 10
0.9976149947243796
 20
0.2852607749970037
 30
0.0
 40
0.0045
  0
LINE
  5
19CA1
  8
HATCH
 10
1.0165452827799371
 20
0.2742085195997224
 30
0.0
 11
1.0165452827799371
 21
0.2742085195997224
 31
0.0
  0
CIRCLE
  5
19CA2
  8
HATCH
 10
0.9732188027654107
 20
0.259660464530697
 30
0.0
 40
0.009
  0
LINE
  5
19CA3
  8
HATCH
 10
1.001096047528534
 20
0.2234293442577144
 30
0.0
 11
1.001096047528534
 21
0.2234293442577144
 31
0.0
  0
CIRCLE
  5
19CA4
  8
HATCH
 10
0.9645445850190892
 20
0.2076482491100189
 30
0.0
 40
0.009
  0
CIRCLE
  5
19CA5
  8
HATCH
 10
0.9785767244274836
 20
0.2380557749033987
 30
0.0
 40
0.0045
  0
CIRCLE
  5
19CA6
  8
HATCH
 10
1.212380010240268
 20
0.2002179239190023
 30
0.0
 40
0.009
  0
CIRCLE
  5
19CA7
  8
HATCH
 10
1.1037313175265471
 20
0.1999295960990335
 30
0.0
 40
0.0045
  0
CIRCLE
  5
19CA8
  8
HATCH
 10
1.0429866761711619
 20
0.1978744864321673
 30
0.0
 40
0.0045
  0
CIRCLE
  5
19CA9
  8
HATCH
 10
1.178056993984919
 20
0.1929209430733156
 30
0.0
 40
0.0045
  0
CIRCLE
  5
19CAA
  8
HATCH
 10
1.1814005820876201
 20
0.1209612098719044
 30
0.0
 40
0.009
  0
CIRCLE
  5
19CAB
  8
HATCH
 10
1.0968675439407169
 20
0.083546640672503
 30
0.0
 40
0.00675
  0
LINE
  5
19CAC
  8
HATCH
 10
1.0222757297147771
 20
0.1658828876165661
 30
0.0
 11
1.0222757297147771
 21
0.1658828876165661
 31
0.0
  0
CIRCLE
  5
19CAD
  8
HATCH
 10
1.025663142594458
 20
0.1355335121284906
 30
0.0
 40
0.0045
  0
CIRCLE
  5
19CAE
  8
HATCH
 10
1.0714877476119979
 20
0.1867290087983815
 30
0.0
 40
0.0045
  0
LINE
  5
19CAF
  8
HATCH
 10
1.0507768011556129
 20
0.1547374099827803
 30
0.0
 11
1.0507768011556129
 21
0.1547374099827803
 31
0.0
  0
CIRCLE
  5
19CB0
  8
HATCH
 10
1.054164214035294
 20
0.1243880344947048
 30
0.0
 40
0.0045
  0
LINE
  5
19CB1
  8
HATCH
 10
1.0842345860200731
 20
0.1398767799062288
 30
0.0
 11
1.0842345860200731
 21
0.1398767799062288
 31
0.0
  0
CIRCLE
  5
19CB2
  8
HATCH
 10
1.071113800646982
 20
0.1581127952160275
 30
0.0
 40
0.009
  0
CIRCLE
  5
19CB3
  8
HATCH
 10
1.0325392599979639
 20
0.1028728714277485
 30
0.0
 40
0.0045
  0
LINE
  5
19CB4
  8
HATCH
 10
1.063596047528534
 20
0.0984293442577144
 30
0.0
 11
1.063596047528534
 21
0.0984293442577144
 31
0.0
  0
CIRCLE
  5
19CB5
  8
HATCH
 10
1.0525261560534049
 20
0.0813328426956164
 30
0.0
 40
0.009
  0
CIRCLE
  5
19CB6
  8
HATCH
 10
1.087621998899754
 20
0.1095274044181533
 30
0.0
 40
0.0045
  0
LINE
  5
19CB7
  8
HATCH
 10
1.157346047528534
 20
0.1609293442577144
 30
0.0
 11
1.157346047528534
 21
0.1609293442577144
 31
0.0
  0
CIRCLE
  5
19CB8
  8
HATCH
 10
1.1607334604082149
 20
0.1305799687696389
 30
0.0
 40
0.0045
  0
CIRCLE
  5
19CB9
  8
HATCH
 10
1.139667459102822
 20
0.1764002499153794
 30
0.0
 40
0.0045
  0
CIRCLE
  5
19CBA
  8
HATCH
 10
1.1297290995946001
 20
0.1631996626147274
 30
0.0
 40
0.0045
  0
CIRCLE
  5
19CBB
  8
HATCH
 10
1.138029370375905
 20
0.1221995804825051
 30
0.0
 40
0.009
  0
CIRCLE
  5
19CBC
  8
HATCH
 10
1.1049455324764581
 20
0.17186837872183
 30
0.0
 40
0.0045
  0
LINE
  5
19CBD
  8
HATCH
 10
1.1090181531382151
 20
0.1312080637991262
 30
0.0
 11
1.1090181531382151
 21
0.1312080637991262
 31
0.0
  0
LINE
  5
19CBE
  8
HATCH
 10
1.126096047528534
 20
0.0984293442577144
 30
0.0
 11
1.126096047528534
 21
0.0984293442577144
 31
0.0
  0
CIRCLE
  5
19CBF
  8
HATCH
 10
1.112405566017896
 20
0.1008586883110507
 30
0.0
 40
0.0045
  0
CIRCLE
  5
19CC0
  8
HATCH
 10
1.1256376175618621
 20
0.0800944517795304
 30
0.0
 40
0.009
  0
LINE
  5
19CC1
  8
HATCH
 10
1.206887799545715
 20
0.1361443098001438
 30
0.0
 11
1.206887799545715
 21
0.1361443098001438
 31
0.0
  0
CIRCLE
  5
19CC2
  8
HATCH
 10
1.21233468682367
 20
0.1679945449473952
 30
0.0
 40
0.009
  0
CIRCLE
  5
19CC3
  8
HATCH
 10
1.1763246492843551
 20
0.3020176692424414
 30
0.0
 40
0.0045
  0
CIRCLE
  5
19CC4
  8
HATCH
 10
1.178922225375808
 20
0.2745210946072485
 30
0.0
 40
0.009
  0
CIRCLE
  5
19CC5
  8
HATCH
 10
1.082266405850143
 20
0.3215797666690714
 30
0.0
 40
0.009
  0
CIRCLE
  5
19CC6
  8
HATCH
 10
1.1201154634669781
 20
0.3282926950881013
 30
0.0
 40
0.0045
  0
LINE
  5
19CC7
  8
HATCH
 10
1.032346047528534
 20
0.2859293442577144
 30
0.0
 11
1.032346047528534
 21
0.2859293442577144
 31
0.0
  0
CIRCLE
  5
19CC8
  8
HATCH
 10
1.059390775998835
 20
0.3028835008416586
 30
0.0
 40
0.00675
  0
LINE
  5
19CC9
  8
HATCH
 10
1.094846047528534
 20
0.2859293442577144
 30
0.0
 11
1.094846047528534
 21
0.2859293442577144
 31
0.0
  0
CIRCLE
  5
19CCA
  8
HATCH
 10
1.07396610432381
 20
0.2833231347541993
 30
0.0
 40
0.0045
  0
LINE
  5
19CCB
  8
HATCH
 10
1.053255157867425
 20
0.2513315359385981
 30
0.0
 11
1.053255157867425
 21
0.2513315359385981
 31
0.0
  0
CIRCLE
  5
19CCC
  8
HATCH
 10
1.03926914110344
 20
0.2697008955937303
 30
0.0
 40
0.0045
  0
CIRCLE
  5
19CCD
  8
HATCH
 10
1.0265034413243841
 20
0.3116726799513716
 30
0.0
 40
0.009
  0
CIRCLE
  5
19CCE
  8
HATCH
 10
1.0566425707471061
 20
0.2209821604505227
 30
0.0
 40
0.0045
  0
LINE
  5
19CCF
  8
HATCH
 10
1.0185581946470561
 20
0.2377092967781291
 30
0.0
 11
1.0185581946470561
 21
0.2377092967781291
 31
0.0
  0
CIRCLE
  5
19CD0
  8
HATCH
 10
1.021945607526737
 20
0.2073599212900536
 30
0.0
 40
0.0045
  0
CIRCLE
  5
19CD1
  8
HATCH
 10
1.0872231192737709
 20
0.2509917687290761
 30
0.0
 40
0.009
  0
LINE
  5
19CD2
  8
HATCH
 10
1.142837341239932
 20
0.2634761080119621
 30
0.0
 11
1.142837341239932
 21
0.2634761080119621
 31
0.0
  0
CIRCLE
  5
19CD3
  8
HATCH
 10
1.139268548731811
 20
0.3017655932336682
 30
0.0
 40
0.009
  0
LINE
  5
19CD4
  8
HATCH
 10
1.136280046223141
 20
0.2067496254034549
 30
0.0
 11
1.136280046223141
 21
0.2067496254034549
 31
0.0
  0
CIRCLE
  5
19CD5
  8
HATCH
 10
1.1569909926795261
 20
0.2387412242190561
 30
0.0
 40
0.0045
  0
LINE
  5
19CD6
  8
HATCH
 10
1.1003439046468659
 20
0.230278971587109
 30
0.0
 11
1.1003439046468659
 21
0.230278971587109
 31
0.0
  0
CIRCLE
  5
19CD7
  8
HATCH
 10
1.1210548511032501
 20
0.2622705704027102
 30
0.0
 40
0.0045
  0
CIRCLE
  5
19CD8
  8
HATCH
 10
1.1256376175618621
 20
0.2336543568203562
 30
0.0
 40
0.009
  0
LINE
  5
19CD9
  8
HATCH
 10
1.188596047528534
 20
0.2234293442577144
 30
0.0
 11
1.188596047528534
 21
0.2234293442577144
 31
0.0
  0
CIRCLE
  5
19CDA
  8
HATCH
 10
1.2029340881410491
 20
0.2492246211900764
 30
0.0
 40
0.009
  0
POLYLINE
  5
19CDB
  8
PART
 66
     1
 10
0.0
 20
0.0
 30
0.0
 70
     1
  0
VERTEX
  5
19F2B
  8
PART
 10
1.0729884453739551
 20
-0.1825251469719109
 30
0.0
  0
VERTEX
  5
19F2C
  8
PART
 10
1.072988445373956
 20
0.0335809155815909
 30
0.0
 42
0.3185305574190724
  0
VERTEX
  5
19F2D
  8
PART
 10
1.069643235415551
 20
0.0382991429943183
 30
0.0
 42
-0.05815680591876
  0
VERTEX
  5
19F2E
  8
PART
 10
1.0203764514874749
 20
0.0623108263098724
 30
0.0
 42
-0.9401066708077184
  0
VERTEX
  5
19F2F
  8
PART
 10
1.0254099814130271
 20
0.0713527926185169
 30
0.0
 42
0.2268970535168734
  0
VERTEX
  5
19F30
  8
PART
 10
1.1505669093348869
 20
0.0713527926185169
 30
0.0
 42
-0.9401066708077192
  0
VERTEX
  5
19F31
  8
PART
 10
1.1556004392604351
 20
0.0623108263098724
 30
0.0
 42
-0.0581568059187597
  0
VERTEX
  5
19F32
  8
PART
 10
1.1063336553323631
 20
0.0382991429943218
 30
0.0
 42
0.3185305574190639
  0
VERTEX
  5
19F33
  8
PART
 10
1.102988445373956
 20
0.0335809155815909
 30
0.0
  0
VERTEX
  5
19F34
  8
PART
 10
1.102988445373956
 20
-0.1825251469719109
 30
0.0
 42
-0.9999999999999998
  0
SEQEND
  5
19F35
  8
PART
  0
POLYLINE
  5
19CDC
  8
PART
 66
     1
 10
0.0
 20
0.0
 30
0.0
 70
     1
  0
VERTEX
  5
19F36
  8
PART
 10
1.150566909334886
 20
0.0713527926185169
 30
0.0
 42
-0.9401066708077207
  0
VERTEX
  5
19F37
  8
PART
 10
1.1556004392604371
 20
0.0623108263098724
 30
0.0
 42
-0.0581568059187604
  0
VERTEX
  5
19F38
  8
PART
 10
1.1063336553323631
 20
0.0382991429943218
 30
0.0
 42
0.3185305574188042
  0
VERTEX
  5
19F39
  8
PART
 10
1.102988445373956
 20
0.0335809155815909
 30
0.0
  0
VERTEX
  5
19F3A
  8
PART
 10
1.102988445373956
 20
0.0325809155815897
 30
0.0
 42
0.2035275103376292
  0
VERTEX
  5
19F3B
  8
PART
 10
1.2155989073463751
 20
0.1233150372184621
 30
0.0
 42
1.7932611697867431
  0
VERTEX
  5
19F3C
  8
PART
 10
0.9603779834015249
 20
0.1233150372184817
 30
0.0
 42
0.2035275103376311
  0
VERTEX
  5
19F3D
  8
PART
 10
1.072988445373956
 20
0.0325809155815888
 30
0.0
  0
VERTEX
  5
19F3E
  8
PART
 10
1.072988445373956
 20
0.0335809155815874
 30
0.0
 42
0.3185305574194417
  0
VERTEX
  5
19F3F
  8
PART
 10
1.069643235415549
 20
0.0382991429943183
 30
0.0
 42
-0.05815680591876
  0
VERTEX
  5
19F40
  8
PART
 10
1.0203764514874749
 20
0.0623108263098724
 30
0.0
 42
-0.9401066708077207
  0
VERTEX
  5
19F41
  8
PART
 10
1.025409981413028
 20
0.0713527926185169
 30
0.0
 42
-4.4072850859018917
  0
SEQEND
  5
19F42
  8
PART
  0
VIEWPORT
  5
B94C
 67
     1
  8
0
 10
4.2500000197906047
 20
5.499999966006726
 30
0.0
 40
22.896723563831479
 41
11.072807056794691
 68
     1
 69
     1
1001
ACAD
1000
MVIEW
1002
{
1070
    16
1010
0.0
1020
0.0
1030
0.0
1010
0.0
1020
0.0
1030
1.0
1040
0.0
1040
11.072807056794691
1040
4.2500000197906047
1040
5.499999966006726
1040
50.0
1040
0.0
1040
0.0
1070
     0
1070
   500
1070
     1
1070
     1
1070
     0
1070
     0
1070
     0
1070
     0
1040
0.0
1040
0.0
1040
0.0
1040
0.5
1040
0.5
1040
0.5
1040
0.5
1070
     0
1002
{
1002
}
1002
}
  0
ENDSEC
  0
EOF
