  0
SECTION
  2
HEADER
  9
$ACADVER
  1
AC1009
  9
$INSBASE
 10
0.0
 20
0.0
 30
0.0
  9
$EXTMIN
 10
-0.3872430000359916
 20
-0.081637628014331
 30
0.0
  9
$EXTMAX
 10
-0.1822430000360009
 20
0.3508623719856521
 30
0.0
  9
$LIMMIN
 10
0.0
 20
0.0
  9
$LIMMAX
 10
1.1999999999999991
 20
1.0
  9
$ORTHOMODE
 70
     0
  9
$REGENMODE
 70
     1
  9
$FILLMODE
 70
     1
  9
$QTEXTMODE
 70
     0
  9
$MIRRTEXT
 70
     1
  9
$DRAGMODE
 70
     2
  9
$LTSCALE
 40
1.0
  9
$OSMODE
 70
    49
  9
$ATTMODE
 70
     1
  9
$TEXTSIZE
 40
0.125
  9
$TRACEWID
 40
0.05
  9
$TEXTSTYLE
  7
STANDARD
  9
$CLAYER
  8
DIM
  9
$CELTYPE
  6
BYLAYER
  9
$CECOLOR
 62
     1
  9
$DIMSCALE
 40
0.0
  9
$DIMASZ
 40
0.125
  9
$DIMEXO
 40
0.05
  9
$DIMDLI
 40
0.02
  9
$DIMRND
 40
0.0
  9
$DIMDLE
 40
0.0
  9
$DIMEXE
 40
0.05
  9
$DIMTP
 40
0.005
  9
$DIMTM
 40
0.005
  9
$DIMTXT
 40
0.125
  9
$DIMCEN
 40
0.02
  9
$DIMTSZ
 40
0.0
  9
$DIMTOL
 70
     0
  9
$DIMLIM
 70
     0
  9
$DIMTIH
 70
     1
  9
$DIMTOH
 70
     1
  9
$DIMSE1
 70
     0
  9
$DIMSE2
 70
     0
  9
$DIMTAD
 70
     0
  9
$DIMZIN
 70
     4
  9
$DIMBLK
  1

  9
$DIMASO
 70
     1
  9
$DIMSHO
 70
     1
  9
$DIMPOST
  1

  9
$DIMAPOST
  1

  9
$DIMALT
 70
     0
  9
$DIMALTD
 70
     1
  9
$DIMALTF
 40
25.399999999999999
  9
$DIMLFAC
 40
1.0
  9
$DIMTOFL
 70
     0
  9
$DIMTVP
 40
0.0
  9
$DIMTIX
 70
     0
  9
$DIMSOXD
 70
     0
  9
$DIMSAH
 70
     0
  9
$DIMBLK1
  1

  9
$DIMBLK2
  1

  9
$DIMSTYLE
  2
SCOTTG
  9
$DIMCLRD
 70
   256
  9
$DIMCLRE
 70
   256
  9
$DIMCLRT
 70
   256
  9
$DIMTFAC
 40
1.0
  9
$DIMGAP
 40
0.02
  9
$LUNITS
 70
     2
  9
$LUPREC
 70
     5
  9
$SKETCHINC
 40
0.1
  9
$FILLETRAD
 40
0.01
  9
$AUNITS
 70
     0
  9
$AUPREC
 70
     0
  9
$MENU
  1
.
  9
$ELEVATION
 40
0.0
  9
$PELEVATION
 40
0.0
  9
$THICKNESS
 40
0.0
  9
$LIMCHECK
 70
     0
  9
$BLIPMODE
 70
     0
  9
$CHAMFERA
 40
0.0
  9
$CHAMFERB
 40
0.0
  9
$SKPOLY
 70
     0
  9
$TDCREATE
 40
2450919.3750775461
  9
$TDUPDATE
 40
2455804.4861913892
  9
$TDINDWG
 40
2.4054004977000001
  9
$TDUSRTIMER
 40
2.4054004977000001
  9
$USRTIMER
 70
     1
  9
$ANGBASE
 50
0.0
  9
$ANGDIR
 70
     0
  9
$PDMODE
 70
     0
  9
$PDSIZE
 40
0.0
  9
$PLINEWID
 40
0.0
  9
$COORDS
 70
     1
  9
$SPLFRAME
 70
     0
  9
$SPLINETYPE
 70
     6
  9
$SPLINESEGS
 70
     8
  9
$ATTDIA
 70
     0
  9
$ATTREQ
 70
     1
  9
$HANDLING
 70
     1
  9
$HANDSEED
  5
1A005
  9
$SURFTAB1
 70
     6
  9
$SURFTAB2
 70
     6
  9
$SURFTYPE
 70
     6
  9
$SURFU
 70
     6
  9
$SURFV
 70
     6
  9
$UCSNAME
  2

  9
$UCSORG
 10
0.0
 20
0.0
 30
0.0
  9
$UCSXDIR
 10
1.0
 20
0.0
 30
0.0
  9
$UCSYDIR
 10
0.0
 20
1.0
 30
0.0
  9
$PUCSNAME
  2

  9
$PUCSORG
 10
0.0
 20
0.0
 30
0.0
  9
$PUCSXDIR
 10
1.0
 20
0.0
 30
0.0
  9
$PUCSYDIR
 10
0.0
 20
1.0
 30
0.0
  9
$USERI1
 70
     0
  9
$USERI2
 70
     0
  9
$USERI3
 70
     0
  9
$USERI4
 70
     0
  9
$USERI5
 70
     0
  9
$USERR1
 40
0.0
  9
$USERR2
 40
0.0
  9
$USERR3
 40
0.0
  9
$USERR4
 40
0.0
  9
$USERR5
 40
0.0
  9
$WORLDVIEW
 70
     1
  9
$SHADEDGE
 70
     3
  9
$SHADEDIF
 70
    70
  9
$TILEMODE
 70
     1
  9
$MAXACTVP
 70
    48
  9
$PLIMCHECK
 70
     0
  9
$PEXTMIN
 10
-0.0002593796237598
 20
-0.0003357869613225
 30
-0.0015258207003583
  9
$PEXTMAX
 10
8.5002594192049692
 20
11.000335718974769
 30
0.0000000349246037
  9
$PLIMMIN
 10
0.0000001811605737
 20
-0.0000001192092895
  9
$PLIMMAX
 10
8.4999999408646811
 20
10.999999640494821
  9
$UNITMODE
 70
     0
  9
$VISRETAIN
 70
     1
  9
$PLINEGEN
 70
     0
  9
$PSLTSCALE
 70
     1
  0
ENDSEC
  0
SECTION
  2
TABLES
  0
TABLE
  2
VPORT
 70
     1
  0
VPORT
  2
*ACTIVE
 70
     0
 10
0.0
 20
0.0
 11
1.0
 21
1.0
 12
-20.006749277257441
 22
-0.504567407450524
 13
0.0
 23
0.0
 14
0.5
 24
0.5
 15
0.5
 25
0.5
 16
0.0
 26
0.0
 36
5.6148375865943736
 17
19.721987045995348
 27
0.6391778487130584
 37
0.0
 40
0.4354963087983281
 41
2.067833698030634
 42
50.0
 43
0.0
 44
0.0
 50
0.0
 51
0.0
 71
     0
 72
 20000
 73
     1
 74
     0
 75
     0
 76
     0
 77
     0
 78
     0
  0
ENDTAB
  0
TABLE
  2
LTYPE
 70
     1
  0
LTYPE
  2
CONTINUOUS
 70
     0
  3
Solid line
 72
    65
 73
     0
 40
0.0
  0
ENDTAB
  0
TABLE
  2
LAYER
 70
     7
  0
LAYER
  2
0
 70
     0
 62
     7
  6
CONTINUOUS
  0
LAYER
  2
DEFPOINTS
 70
     0
 62
     7
  6
CONTINUOUS
  0
LAYER
  2
HATCH
 70
     0
 62
     7
  6
CONTINUOUS
  0
LAYER
  2
PART
 70
     0
 62
     7
  6
CONTINUOUS
  0
LAYER
  2
DIM
 70
     0
 62
     7
  6
CONTINUOUS
  0
ENDTAB
  0
TABLE
  2
STYLE
 70
     2
  0
STYLE
  2
STANDARD
 70
     0
 40
0.0
 41
1.0
 50
0.0
 71
     0
 42
0.125
  3
txt
  4

  0
STYLE
  2
ROMANS
 70
     0
 40
0.0
 41
1.0
 50
0.0
 71
     0
 42
0.1
  3
SIMPLEX.shx
  4

  0
ENDTAB
  0
TABLE
  2
VIEW
 70
     0
  0
ENDTAB
  0
TABLE
  2
UCS
 70
     0
  0
ENDTAB
  0
TABLE
  2
APPID
 70
    16
  0
APPID
  2
ACAD
 70
     0
  0
APPID
  2
ADP_SK
 70
     0
  0
APPID
  2
ADP_SOL
 70
     0
  0
APPID
  2
ACIS_LNK
 70
     0
  0
APPID
  2
AME_SOL
 70
     0
  0
APPID
  2
ACAD_MLEADERVER
 70
     0
  0
APPID
  2
ACAD_EXEMPT_FROM_CAD_STANDARDS
 70
     0
  0
APPID
  2
ACAD_PSEXT
 70
     0
  0
APPID
  2
ACDBDYNAMICBLOCKGUID
 70
     0
  0
APPID
  2
ACDBBLOCKREPETAG
 70
     0
  0
APPID
  2
ACDBDYNAMICBLOCKTRUENAME
 70
     0
  0
APPID
  2
ACAD_DSTYLE_DIMJAG
 70
     0
  0
APPID
  2
ACAD_DSTYLE_DIMTALN
 70
     0
  0
APPID
  2
ACAECLAYERSTANDARD
 70
     0
  0
APPID
  2
ACAUTHENVIRON
 70
     0
  0
APPID
  2
ACADANNOPO
 70
     0
  0
ENDTAB
  0
TABLE
  2
DIMSTYLE
 70
     1
  0
DIMSTYLE
  2
SCOTTG
 70
     0
  3

  4

  5

  6

  7

 40
0.15
 41
0.125
 42
0.1
 43
0.25
 44
0.1
 45
0.0
 46
0.0
 47
0.01
 48
0.01
140
0.125
141
0.06
142
0.0
143
25.399999999999999
144
1.0
145
0.0
146
1.0
147
0.09
 71
     1
 72
     0
 73
     1
 74
     1
 75
     0
 76
     0
 77
     0
 78
     4
170
     0
171
     1
172
     0
173
     0
174
     1
175
     0
176
   256
177
   256
178
   256
  0
ENDTAB
  0
ENDSEC
  0
SECTION
  2
BLOCKS
  0
BLOCK
  8
0
  2
$MODEL_SPACE
 70
     0
 10
0.0
 20
0.0
 30
0.0
  3
$MODEL_SPACE
  1

  0
ENDBLK
  5
1A
  8
0
  0
BLOCK
 67
     1
  8
0
  2
$PAPER_SPACE
 70
     0
 10
0.0
 20
0.0
 30
0.0
  3
$PAPER_SPACE
  1

  0
ENDBLK
  5
B932
 67
     1
  8
0
  0
BLOCK
  8
0
  2
*X13
 70
     1
 10
0.0
 20
0.0
 30
0.0
  3
*X13
  1

  0
LINE
  5
19C40
  8
0
 62
     0
 10
0.4609252518519323
 20
0.6818961209727285
 30
0.0
 11
0.4909252518519325
 21
0.7118961209727286
 31
0.0
  0
LINE
  5
19C41
  8
0
 62
     0
 10
0.4609252518519323
 20
0.7260902947968875
 30
0.0
 11
0.4909252518519325
 21
0.7560902947968878
 31
0.0
  0
LINE
  5
19C42
  8
0
 62
     0
 10
0.4609252518519323
 20
0.7702844686210467
 30
0.0
 11
0.4909252518519325
 21
0.8002844686210469
 31
0.0
  0
LINE
  5
19C43
  8
0
 62
     0
 10
0.4612039142568915
 20
0.814757304850165
 30
0.0
 11
0.4730473673141542
 21
0.8266007579074278
 31
0.0
  0
LINE
  5
19C44
  8
0
 62
     0
 10
0.4609252518519323
 20
0.6377019471485692
 30
0.0
 11
0.4909252518519325
 21
0.6677019471485695
 31
0.0
  0
LINE
  5
19C45
  8
0
 62
     0
 10
0.4671393038077757
 20
0.5997218252802532
 30
0.0
 11
0.4909252518519325
 21
0.6235077733244101
 31
0.0
  0
ENDBLK
  5
19C46
  8
0
  0
BLOCK
  8
0
  2
*X14
 70
     1
 10
0.0
 20
0.0
 30
0.0
  3
*X14
  1

  0
LINE
  5
19C49
  8
0
 62
     0
 10
1.8220753502792679
 20
3.2362889126523631
 30
0.0
 11
1.833406172613252
 21
3.247619734986348
 31
0.0
  0
LINE
  5
19C4A
  8
0
 62
     0
 10
1.9470034713279629
 20
3.3612170337010578
 30
0.0
 11
1.949189663826963
 21
3.363403226200059
 31
0.0
  0
LINE
  5
19C4B
  8
0
 62
     0
 10
1.82135371428528
 20
3.2383957037831208
 30
0.0
 11
1.830970077080837
 21
3.2480120665786791
 31
0.0
  0
LINE
  5
19C4C
  8
0
 62
     0
 10
1.946611139735632
 20
3.363653129233473
 30
0.0
 11
1.9487600910054861
 21
3.3658020805033271
 31
0.0
  0
LINE
  5
19C4D
  8
0
 62
     0
 10
1.8204847031003959
 20
3.2403551197229841
 30
0.0
 11
1.8285857398304151
 21
3.2484561564530021
 31
0.0
  0
LINE
  5
19C4E
  8
0
 62
     0
 10
1.946167049861308
 20
3.366037466483895
 30
0.0
 11
1.9482817814479081
 21
3.3681521980704958
 31
0.0
  0
LINE
  5
19C4F
  8
0
 62
     0
 10
1.819482366523363
 20
3.2421812102706968
 30
0.0
 11
1.8262506380836341
 21
3.2489494818309681
 31
0.0
  0
LINE
  5
19C50
  8
0
 62
     0
 10
1.945673724483342
 20
3.3683725682306762
 30
0.0
 11
1.947756949600131
 21
3.3704557933474639
 31
0.0
  0
LINE
  5
19C51
  8
0
 62
     0
 10
1.81835614693306
 20
3.2438834178051401
 30
0.0
 11
1.8239625266855759
 21
3.249489797557656
 31
0.0
  0
LINE
  5
19C52
  8
0
 62
     0
 10
1.9451334087566541
 20
3.3706606796287328
 30
0.0
 11
1.947187577118606
 21
3.3727148479906859
 31
0.0
  0
LINE
  5
19C53
  8
0
 62
     0
 10
1.817112119226227
 20
3.2454678172230529
 30
0.0
 11
1.821719399650749
 21
3.2500750976475752
 31
0.0
  0
LINE
  5
19C54
  8
0
 62
     0
 10
1.9445481086667351
 20
3.3729038066635608
 30
0.0
 11
1.946575443446094
 21
3.3749311414429202
 31
0.0
  0
LINE
  5
19C55
  8
0
 62
     0
 10
1.8157536862058341
 20
3.2469378113274061
 30
0.0
 11
1.8195194584919521
 21
3.2507035836135239
 31
0.0
  0
LINE
  5
19C56
  8
0
 62
     0
 10
1.943919622700786
 20
3.375103747822358
 30
0.0
 11
1.9459221512426319
 21
3.3771062763642039
 31
0.0
  0
LINE
  5
19C57
  8
0
 62
     0
 10
1.814281934433885
 20
3.2482944866802028
 30
0.0
 11
1.817361085931581
 21
3.251373638177899
 31
0.0
  0
LINE
  5
19C58
  8
0
 62
     0
 10
1.9432495681364099
 20
3.3772621203827291
 30
0.0
 11
1.945229147685267
 21
3.3792416999315851
 31
0.0
  0
LINE
  5
19C59
  8
0
 62
     0
 10
1.812695742883454
 20
3.249536722254518
 30
0.0
 11
1.8152428239256999
 21
3.2520838032967641
 31
0.0
  0
LINE
  5
19C5A
  8
0
 62
     0
 10
1.942539403017546
 20
3.3793803823886099
 30
0.0
 11
1.944497742421152
 21
3.3813387217922162
 31
0.0
  0
LINE
  5
19C5B
  8
0
 62
     0
 10
1.810991670801162
 20
3.250661077296972
 30
0.0
 11
1.813163355174999
 21
3.2528327616708101
 31
0.0
  0
LINE
  5
19C5C
  8
0
 62
     0
 10
1.9417904446434999
 20
3.3814598511393101
 30
0.0
 11
1.9437291227873079
 21
3.3833985292831179
 31
0.0
  0
LINE
  5
19C5D
  8
0
 62
     0
 10
1.809163597507609
 20
3.2516614311281651
 30
0.0
 11
1.811121487478615
 21
3.2536193210991722
 31
0.0
  0
LINE
  5
19C5E
  8
0
 62
     0
 10
1.9410038852151379
 20
3.3835017188356948
 30
0.0
 11
1.9429243667807889
 21
3.3854222004013459
 31
0.0
  0
LINE
  5
19C5F
  8
0
 62
     0
 10
1.8072124914050509
 20
3.2525387521503539
 30
0.0
 11
1.8091161404239819
 21
3.254442401169285
 31
0.0
  0
LINE
  5
19C60
  8
0
 62
     0
 10
1.9401808051450249
 20
3.3855070658903279
 30
0.0
 11
1.9420844541639519
 21
3.3874107149092549
 31
0.0
  0
LINE
  5
19C61
  8
0
 62
     0
 10
1.805258242431113
 20
3.2534129303011632
 30
0.0
 11
1.8071463340105409
 21
3.25530102188059
 31
0.0
  0
LINE
  5
19C62
  8
0
 62
     0
 10
1.939322184433719
 20
3.3874768723037691
 30
0.0
 11
1.9412102760131431
 21
3.3893649638831929
 31
0.0
  0
LINE
  5
19C63
  8
0
 62
     0
 10
1.803337448359893
 20
3.2543205633546881
 30
0.0
 11
1.805211178885616
 21
3.2561942938804109
 31
0.0
  0
LINE
  5
19C64
  8
0
 62
     0
 10
1.9384289124338989
 20
3.3894120274286941
 30
0.0
 11
1.9403026429596171
 21
3.3912857579544129
 31
0.0
  0
LINE
  5
19C65
  8
0
 62
     0
 10
1.8014493718699469
 20
3.2552609139894888
 30
0.0
 11
1.803309867933375
 21
3.2571214100529162
 31
0.0
  0
LINE
  5
19C66
  8
0
 62
     0
 10
1.9375017962613941
 20
3.3913133383809351
 30
0.0
 11
1.939362292324817
 21
3.3931738344443589
 31
0.0
  0
LINE
  5
19C67
  8
0
 62
     0
 10
1.799593342754839
 20
3.256233311999126
 30
0.0
 11
1.8014416690068229
 21
3.25808163825111
 31
0.0
  0
LINE
  5
19C68
  8
0
 62
     0
 10
1.936541568063199
 20
3.3931815373074872
 30
0.0
 11
1.9383898943151789
 21
3.3950298635594671
 31
0.0
  0
LINE
  5
19C69
  8
0
 62
     0
 10
1.7977687525331041
 20
3.257237148902139
 30
0.0
 11
1.7996059186315001
 21
3.2590743150005341
 31
0.0
  0
LINE
  5
19C6A
  8
0
 62
     0
 10
1.9355488913137759
 20
3.3950172876828102
 30
0.0
 11
1.9373860574121671
 21
3.3968544537812009
 31
0.0
  0
LINE
  5
19C6B
  8
0
 62
     0
 10
1.7959750497509619
 20
3.258271873244742
 30
0.0
 11
1.797802016540414
 21
3.2600988400341939
 31
0.0
  0
LINE
  5
19C6C
  8
0
 62
     0
 10
1.934524366280115
 20
3.3968211897738949
 30
0.0
 11
1.936351333069563
 21
3.3986481565633442
 31
0.0
  0
LINE
  5
19C6D
  8
0
 62
     0
 10
1.7942117358848759
 20
3.2593369865034019
 30
0.0
 11
1.7960294209244869
 21
3.2611546715430131
 31
0.0
  0
LINE
  5
19C6E
  8
0
 62
     0
 10
1.9334685347712961
 20
3.398593785389822
 30
0.0
 11
1.935286219810904
 21
3.4004114704294301
 31
0.0
  0
LINE
  5
19C6F
  8
0
 62
     0
 10
1.7924783617666791
 20
3.260432039509952
 30
0.0
 11
1.794287644302772
 21
3.2622413220460449
 31
0.0
  0
LINE
  5
19C70
  8
0
 62
     0
 10
1.932381884268265
 20
3.400335562011537
 30
0.0
 11
1.9341911668043541
 21
3.4021448445476268
 31
0.0
  0
LINE
  5
19C71
  8
0
 62
     0
 10
1.7907745244667581
 20
3.2615566293347769
 30
0.0
 11
1.792576249932998
 21
3.2633583548010159
 31
0.0
  0
LINE
  5
19C72
  8
0
 62
     0
 10
1.9312648515132931
 20
3.4020469563813118
 30
0.0
 11
1.933066576979529
 21
3.4038486818475469
 31
0.0
  0
LINE
  5
19C73
  8
0
 62
     0
 10
1.7890998645813401
 20
3.2627103965741049
 30
0.0
 11
1.790894848696315
 21
3.26450538068908
 31
0.0
  0
LINE
  5
19C74
  8
0
 62
     0
 10
1.9301178256252289
 20
3.403728357617994
 30
0.0
 11
1.931912809740201
 21
3.405523341732966
 31
0.0
  0
LINE
  5
19C75
  8
0
 62
     0
 10
1.7874540638787231
 20
3.2638930229962342
 30
0.0
 11
1.789243096401165
 21
3.2656820555186759
 31
0.0
  0
LINE
  5
19C76
  8
0
 62
     0
 10
1.9289411507956331
 20
3.405380109913144
 30
0.0
 11
1.9307301833180719
 21
3.407169142435583
 31
0.0
  0
LINE
  5
19C77
  8
0
 62
     0
 10
1.7858368432666449
 20
3.2651042295089021
 30
0.0
 11
1.787620691460331
 21
3.266888077702589
 31
0.0
  0
LINE
  5
19C78
  8
0
 62
     0
 10
1.927735128611721
 20
3.407002514853978
 30
0.0
 11
1.929518976805404
 21
3.4087863630476609
 31
0.0
  0
LINE
  5
19C79
  8
0
 62
     0
 10
1.7842479610491959
 20
3.2663437744161992
 30
0.0
 11
1.7860273729029721
 21
3.2681231862699751
 31
0.0
  0
LINE
  5
19C7A
  8
0
 62
     0
 10
1.9265000200443341
 20
3.4085958334113382
 30
0.0
 11
1.9282794318981069
 21
3.4103752452651102
 31
0.0
  0
LINE
  5
19C7B
  8
0
 62
     0
 10
1.7826872114469741
 20
3.2676114519387238
 30
0.0
 11
1.7844629186899159
 21
3.2693871591816661
 31
0.0
  0
LINE
  5
19C7C
  8
0
 62
     0
 10
1.925236047132644
 20
3.410160287624393
 30
0.0
 11
1.927011754375582
 21
3.4119359948673318
 31
0.0
  0
LINE
  5
19C7D
  8
0
 62
     0
 10
1.7811544233587631
 20
3.2689070909752589
 30
0.0
 11
1.782927144306109
 21
3.270679811922605
 31
0.0
  0
LINE
  5
19C7E
  8
0
 62
     0
 10
1.923943394391705
 20
3.4116960620082009
 30
0.0
 11
1.925716115339047
 21
3.413468782955543
 31
0.0
  0
LINE
  5
19C7F
  8
0
 62
     0
 10
1.7796494593469521
 20
3.2702305540881951
 30
0.0
 11
1.781419901608903
 21
3.2720009963501449
 31
0.0
  0
LINE
  5
19C80
  8
0
 62
     0
 10
1.9226222099641641
 20
3.4132033047054069
 30
0.0
 11
1.9243926522261121
 21
3.414973746967354
 31
0.0
  0
LINE
  5
19C81
  8
0
 62
     0
 10
1.778172214832447
 20
3.271581736698435
 30
0.0
 11
1.7799410779151521
 21
3.2733505997811401
 31
0.0
  0
LINE
  5
19C82
  8
0
 62
     0
 10
1.9212726065331689
 20
3.4146821283991571
 30
0.0
 11
1.9230414696158711
 21
3.416450991481859
 31
0.0
  0
LINE
  5
19C83
  8
0
 62
     0
 10
1.77672261748793
 20
3.2729605664786638
 30
0.0
 11
1.7784905953138059
 21
3.2747285443045411
 31
0.0
  0
LINE
  5
19C84
  8
0
 62
     0
 10
1.919894662009769
 20
3.4161326110005028
 30
0.0
 11
1.921662639835642
 21
3.417900588826376
 31
0.0
  0
LINE
  5
19C85
  8
0
 62
     0
 10
1.775300626821199
 20
3.27436700293668
 30
0.0
 11
1.777068410194155
 21
3.2761347863096351
 31
0.0
  0
LINE
  5
19C86
  8
0
 62
     0
 10
1.9184884200046739
 20
3.4175547961201551
 30
0.0
 11
1.920256203377626
 21
3.419322579493107
 31
0.0
  0
LINE
  5
19C87
  8
0
 62
     0
 10
1.7739062339429621
 20
3.2758010371831889
 30
0.0
 11
1.77567451298302
 21
3.2775693162232469
 31
0.0
  0
LINE
  5
19C88
  8
0
 62
     0
 10
1.917053890091063
 20
3.41894869333129
 30
0.0
 11
1.9188221691311169
 21
3.4207169723713431
 31
0.0
  0
LINE
  5
19C89
  8
0
 62
     0
 10
1.77253946151596
 20
3.2772626918809329
 30
0.0
 11
1.7743089280871831
 21
3.2790321584521558
 31
0.0
  0
LINE
  5
19C8A
  8
0
 62
     0
 10
1.9155910478621541
 20
3.4203142782271261
 30
0.0
 11
1.917360514433373
 21
3.4220837447983459
 31
0.0
  0
LINE
  5
19C8B
  8
0
 62
     0
 10
1.7712003638847389
 20
3.2787520213744581
 30
0.0
 11
1.772971714040247
 21
3.280523371529966
 31
0.0
  0
LINE
  5
19C8C
  8
0
 62
     0
 10
1.914099834784343
 20
3.4216514922740622
 30
0.0
 11
1.9158711849398471
 21
3.4234228424295661
 31
0.0
  0
LINE
  5
19C8D
  8
0
 62
     0
 10
1.7698890273878261
 20
3.280269112002292
 30
0.0
 11
1.771662963855994
 21
3.282043048470459
 31
0.0
  0
LINE
  5
19C8E
  8
0
 62
     0
 10
1.9125801578438499
 20
3.422960242458315
 30
0.0
 11
1.9143540943120141
 21
3.4247341789264798
 31
0.0
  0
LINE
  5
19C8F
  8
0
 62
     0
 10
1.7686055708564821
 20
3.2818140825956941
 30
0.0
 11
1.770382805593234
 21
3.2835913173324451
 31
0.0
  0
LINE
  5
19C90
  8
0
 62
     0
 10
1.911031888981864
 20
3.424240400721076
 30
0.0
 11
1.912809123718612
 21
3.426017635457824
 31
0.0
  0
LINE
  5
19C91
  8
0
 62
     0
 10
1.767350146306816
 20
3.2833870851707738
 30
0.0
 11
1.7691314031402039
 21
3.2851683420041611
 31
0.0
  0
LINE
  5
19C92
  8
0
 62
     0
 10
1.9094548643101481
 20
3.425491803174106
 30
0.0
 11
1.911236121143532
 21
3.4272730600074901
 31
0.0
  0
LINE
  5
19C93
  8
0
 62
     0
 10
1.766122939834742
 20
3.2849883058234459
 30
0.0
 11
1.767908957229835
 21
3.286774323218538
 31
0.0
  0
LINE
  5
19C94
  8
0
 62
     0
 10
1.9078488830957709
 20
3.4267142490844749
 30
0.0
 11
1.909634900490859
 21
3.428500266479563
 31
0.0
  0
LINE
  5
19C95
  8
0
 62
     0
 10
1.7649241727262419
 20
3.2866179658396928
 30
0.0
 11
1.7667157067007631
 21
3.2884094998142128
 31
0.0
  0
LINE
  5
19C96
  8
0
 62
     0
 10
1.9062137065000959
 20
3.4279074996135459
 30
0.0
 11
1.9080052404746131
 21
3.4296990335880628
 31
0.0
  0
LINE
  5
19C97
  8
0
 62
     0
 10
1.763754102798673
 20
3.288276323036869
 30
0.0
 11
1.7655519300229381
 21
3.2900741502611339
 31
0.0
  0
LINE
  5
19C98
  8
0
 62
     0
 10
1.904549056053175
 20
3.4290712762913711
 30
0.0
 11
1.906346883277436
 21
3.4308691035156329
 31
0.0
  0
LINE
  5
19C99
  8
0
 62
     0
 10
1.7626130259925521
 20
3.2899636733554938
 30
0.0
 11
1.764417947111135
 21
3.2917685944740769
 31
0.0
  0
LINE
  5
19C9A
  8
0
 62
     0
 10
1.902854611840233
 20
3.4302052592031749
 30
0.0
 11
1.9046595329588121
 21
3.432010180321754
 31
0.0
  0
LINE
  5
19C9B
  8
0
 62
     0
 10
1.7615012782374659
 20
3.2916803527251539
 30
0.0
 11
1.763314121454838
 21
3.2934931959425269
 31
0.0
  0
LINE
  5
19C9C
  8
0
 62
     0
 10
1.901130010371783
 20
3.4313090848594721
 30
0.0
 11
1.9029428535891511
 21
3.4331219280768401
 31
0.0
  0
LINE
  5
19C9D
  8
0
 62
     0
 10
1.7604192376206089
 20
3.2934267392330439
 30
0.0
 11
1.7622408625989101
 21
3.295248364211345
 31
0.0
  0
LINE
  5
19C9E
  8
0
 62
     0
 10
1.899374842102965
 20
3.4323823437154002
 30
0.0
 11
1.901196467081262
 21
3.4342039686936969
 31
0.0
  0
LINE
  5
19C9F
  8
0
 62
     0
 10
1.759367326892125
 20
3.295203255629306
 30
0.0
 11
1.7611986290164601
 21
3.2970345577536411
 31
0.0
  0
LINE
  5
19CA0
  8
0
 62
     0
 10
1.8975886485606679
 20
3.4334245772978491
 30
0.0
 11
1.899419950685
 21
3.435255879422181
 31
0.0
  0
LINE
  5
19CA1
  8
0
 62
     0
 10
1.7583460163481239
 20
3.297010372210051
 30
0.0
 11
1.760187931423649
 21
3.2988522872855759
 31
0.0
  0
LINE
  5
19CA2
  8
0
 62
     0
 10
1.8957709190287331
 20
3.434435274890661
 30
0.0
 11
1.8976128341042551
 21
3.4362771899661819
 31
0.0
  0
LINE
  5
19CA3
  8
0
 62
     0
 10
1.757355827140165
 20
3.2988486101268388
 30
0.0
 11
1.759209336596065
 21
3.3007021195827382
 31
0.0
  0
LINE
  5
19CA4
  8
0
 62
     0
 10
1.8939210867315719
 20
3.435413869718245
 30
0.0
 11
1.895774596187467
 21
3.4372673791741408
 31
0.0
  0
LINE
  5
19CA5
  8
0
 62
     0
 10
1.7563973350695341
 20
3.3007185451809531
 30
0.0
 11
1.758263471758295
 21
3.3025846818697149
 31
0.0
  0
LINE
  5
19CA6
  8
0
 62
     0
 10
1.892038524444595
 20
3.4363597345560151
 30
0.0
 11
1.893904661133353
 21
3.438225871244772
 31
0.0
  0
LINE
  5
19CA7
  8
0
 62
     0
 10
1.7554711749360781
 20
3.3026208121722438
 30
0.0
 11
1.7573510296328549
 21
3.3045006668690209
 31
0.0
  0
LINE
  5
19CA8
  8
0
 62
     0
 10
1.890122539445289
 20
3.4372721766814549
 30
0.0
 11
1.8920023941420621
 21
3.439152031378228
 31
0.0
  0
LINE
  5
19CA9
  8
0
 62
     0
 10
1.754578045525331
 20
3.304556109886243
 30
0.0
 11
1.756472774252404
 21
3.306450838613316
 31
0.0
  0
LINE
  5
19CAA
  8
0
 62
     0
 10
1.8881723677009941
 20
3.4381504320619061
 30
0.0
 11
1.890067096428063
 21
3.440045160788975
 31
0.0
  0
LINE
  5
19CAB
  8
0
 62
     0
 10
1.7537187153346581
 20
3.306525206820317
 30
0.0
 11
1.755629547661131
 21
3.3084360391467902
 31
0.0
  0
LINE
  5
19CAC
  8
0
 62
     0
 10
1.8861871671675201
 20
3.4389936586531791
 30
0.0
 11
1.888097999493989
 21
3.4409044909796469
 31
0.0
  0
LINE
  5
19CAD
  8
0
 62
     0
 10
1.752894029160186
 20
3.3085289477705899
 30
0.0
 11
1.7548222776584019
 21
3.310457196268807
 31
0.0
  0
LINE
  5
19CAE
  8
0
 62
     0
 10
1.8841660100455031
 20
3.4398009286559081
 30
0.0
 11
1.8860942585437159
 21
3.4417291771541199
 31
0.0
  0
LINE
  5
19CAF
  8
0
 62
     0
 10
1.752104915692239
 20
3.3105682614273899
 30
0.0
 11
1.7540519867717741
 21
3.312515332506925
 31
0.0
  0
LINE
  5
19CB0
  8
0
 62
     0
 10
1.8821078738073851
 20
3.4405712195425351
 30
0.0
 11
1.8840549448869159
 21
3.442518290622067
 31
0.0
  0
LINE
  5
19CB1
  8
0
 62
     0
 10
1.751352396299579
 20
3.312644169159475
 30
0.0
 11
1.753319802689425
 21
3.3146115755493222
 31
0.0
  0
LINE
  5
19CB2
  8
0
 62
     0
 10
1.8800116307649879
 20
3.4413034036248851
 30
0.0
 11
1.8819790371548299
 21
3.4432708100147269
 31
0.0
  0
LINE
  5
19CB3
  8
0
 62
     0
 10
1.7506375952235489
 20
3.3147577952081919
 30
0.0
 11
1.752626970436479
 21
3.316747170421122
 31
0.0
  0
LINE
  5
19CB4
  8
0
 62
     0
 10
1.877876035893187
 20
3.4419962358778311
 30
0.0
 11
1.879865411106113
 21
3.4439856110907572
 31
0.0
  0
LINE
  5
19CB5
  8
0
 62
     0
 10
1.749961751455158
 20
3.3169103785645468
 30
0.0
 11
1.7519748666495281
 21
3.318923493758918
 31
0.0
  0
LINE
  5
19CB6
  8
0
 62
     0
 10
1.875699712555392
 20
3.4426483396647809
 30
0.0
 11
1.877712827749759
 21
3.4446614548591481
 31
0.0
  0
LINE
  5
19CB7
  8
0
 62
     0
 10
1.749326232634334
 20
3.3191032868684691
 30
0.0
 11
1.751365016393795
 21
3.3211420706279311
 31
0.0
  0
LINE
  5
19CB8
  8
0
 62
     0
 10
1.873481135686379
 20
3.443258189920515
 30
0.0
 11
1.875519919445837
 21
3.445296973679973
 31
0.0
  0
LINE
  5
19CB9
  8
0
 62
     0
 10
1.7487325513961081
 20
3.3213380327549902
 30
0.0
 11
1.7507991130850049
 21
3.3234045944438861
 31
0.0
  0
LINE
  5
19CBA
  8
0
 62
     0
 10
1.8712186118704239
 20
3.4438240932293049
 30
0.0
 11
1.8732851735593159
 21
3.4458906549181969
 31
0.0
  0
LINE
  5
19CBB
  8
0
 62
     0
 10
1.748182384699668
 20
3.3236162931832962
 30
0.0
 11
1.7502790422329879
 21
3.3257129507166159
 31
0.0
  0
LINE
  5
19CBC
  8
0
 62
     0
 10
1.868910255597694
 20
3.4443441640813219
 30
0.0
 11
1.8710069131310101
 21
3.4464408216146381
 31
0.0
  0
LINE
  5
19CBD
  8
0
 62
     0
 10
1.7476775968223801
 20
3.3259399324307539
 30
0.0
 11
1.749806909930407
 21
3.328069245538781
 31
0.0
  0
LINE
  5
19CBE
  8
0
 62
     0
 10
1.866553960775529
 20
3.4448162963839031
 30
0.0
 11
1.8686832738835519
 21
3.4469456094919262
 31
0.0
  0
LINE
  5
19CBF
  8
0
 62
     0
 10
1.74722026689506
 20
3.3283110296281802
 30
0.0
 11
1.749385077288057
 21
3.3304758400211778
 31
0.0
  0
LINE
  5
19CC0
  8
0
 62
     0
 10
1.8641473662931329
 20
3.445238129026253
 30
0.0
 11
1.8663121766861259
 21
3.4474029394192458
 31
0.0
  0
LINE
  5
19CC1
  8
0
 62
     0
 10
1.7468127221155281
 20
3.3307319119733938
 30
0.0
 11
1.749016202397615
 21
3.332935392255481
 31
0.0
  0
LINE
  5
19CC2
  8
0
 62
     0
 10
1.8616878140588291
 20
3.4456070039166948
 30
0.0
 11
1.8638912943409121
 21
3.447810484198778
 31
0.0
  0
LINE
  5
19CC3
  8
0
 62
     0
 10
1.7464575781322751
 20
3.3332051951148869
 30
0.0
 11
1.7487032919275549
 21
3.3354509089101678
 31
0.0
  0
LINE
  5
19CC4
  8
0
 62
     0
 10
1.8591722974041429
 20
3.4459199143867552
 30
0.0
 11
1.861418011199419
 21
3.4481656281820321
 31
0.0
  0
LINE
  5
19CC5
  8
0
 62
     0
 10
1.746157788579026
 20
3.335733832686385
 30
0.0
 11
1.7484497651949491
 21
3.338025809302307
 31
0.0
  0
LINE
  5
19CC6
  8
0
 62
     0
 10
1.8565973970120031
 20
3.4461734411193619
 30
0.0
 11
1.8588893736279211
 21
3.4484654177352798
 31
0.0
  0
LINE
  5
19CC7
  8
0
 62
     0
 10
1.745916706425044
 20
3.3383211776571491
 30
0.0
 11
1.7482595346078571
 21
3.3406640058399621
 31
0.0
  0
LINE
  5
19CC8
  8
0
 62
     0
 10
1.853959200474349
 20
3.4463636717064539
 30
0.0
 11
1.8563020286571561
 21
3.448706499889262
 31
0.0
  0
LINE
  5
19CC9
  8
0
 62
     0
 10
1.7457381607782669
 20
3.3409710591351178
 30
0.0
 11
1.7481371079021499
 21
3.343370006259001
 31
0.0
  0
LINE
  5
19CCA
  8
0
 62
     0
 10
1.8512532000553099
 20
3.4464860984121608
 30
0.0
 11
1.853652147179188
 21
3.4488850455360391
 31
0.0
  0
LINE
  5
19CCB
  8
0
 62
     0
 10
1.745626554185032
 20
3.3436878796666289
 30
0.0
 11
1.7480877198642
 21
3.3461490453457969
 31
0.0
  0
LINE
  5
19CCC
  8
0
 62
     0
 10
1.848474160968514
 20
3.4465354864501121
 30
0.0
 11
1.8509353266476769
 21
3.4489966521292739
 31
0.0
  0
LINE
  5
19CCD
  8
0
 62
     0
 10
1.7455869875453609
 20
3.3464767401517048
 30
0.0
 11
1.7481175046698221
 21
3.349007257276166
 31
0.0
  0
LINE
  5
19CCE
  8
0
 62
     0
 10
1.8456159490381401
 20
3.4465057016444831
 30
0.0
 11
1.848146466162601
 21
3.4490362187689452
 31
0.0
  0
LINE
  5
19CCF
  8
0
 62
     0
 10
1.7456254228916781
 20
3.3493436026227679
 30
0.0
 11
1.7482337253177169
 21
3.351951905048808
 31
0.0
  0
LINE
  5
19CD0
  8
0
 62
     0
 10
1.8426713012654989
 20
3.4463894809965878
 30
0.0
 11
1.845279603691538
 21
3.4489977834226271
 31
0.0
  0
LINE
  5
19CD1
  8
0
 62
     0
 10
1.745748899112894
 20
3.3522955059687298
 30
0.0
 11
1.7484450851914779
 21
3.3549916920473142
 31
0.0
  0
LINE
  5
19CD2
  8
0
 62
     0
 10
1.8396315142669919
 20
3.446178121122828
 30
0.0
 11
1.842327700345576
 21
3.4488743072014119
 31
0.0
  0
LINE
  5
19CD3
  8
0
 62
     0
 10
1.7459658233825679
 20
3.3553408573631498
 30
0.0
 11
1.7487621609235631
 21
3.3581371949041459
 31
0.0
  0
LINE
  5
19CD4
  8
0
 62
     0
 10
1.83648601141016
 20
3.445861045390743
 30
0.0
 11
1.8392823489511561
 21
3.4486573829317382
 31
0.0
  0
LINE
  5
19CD5
  8
0
 62
     0
 10
1.7462863736288861
 20
3.3584898347342151
 30
0.0
 11
1.7491980199886921
 21
3.36140148109402
 31
0.0
  0
LINE
  5
19CD6
  8
0
 62
     0
 10
1.8332217252202849
 20
3.4454251863256138
 30
0.0
 11
1.8361333715800909
 21
3.44833683268542
 31
0.0
  0
LINE
  5
19CD7
  8
0
 62
     0
 10
1.746723068751147
 20
3.3617549569812208
 30
0.0
 11
1.7497691299098741
 21
3.364801018139949
 31
0.0
  0
LINE
  5
19CD8
  8
0
 62
     0
 10
1.829822188174357
 20
3.4448540764044311
 30
0.0
 11
1.832868249333085
 21
3.4479001375631588
 31
0.0
  0
LINE
  5
19CD9
  8
0
 62
     0
 10
1.7472916011318209
 20
3.3651519164866421
 30
0.0
 11
1.7504967479286611
 21
3.3683570632834821
 31
0.0
  0
LINE
  5
19CDA
  8
0
 62
     0
 10
1.826266143030824
 20
3.4441264583856448
 30
0.0
 11
1.8294712898276639
 21
3.4473316051824852
 31
0.0
  0
LINE
  5
19CDB
  8
0
 62
     0
 10
1.7480120964061281
 20
3.368700838885696
 30
0.0
 11
1.7514091444730251
 21
3.3720978869525919
 31
0.0
  0
LINE
  5
19CDC
  8
0
 62
     0
 10
1.8225253193617139
 20
3.4432140618412812
 30
0.0
 11
1.8259223674286109
 21
3.4466111099081771
 31
0.0
  0
LINE
  5
19CDD
  8
0
 62
     0
 10
1.7489111044194241
 20
3.3724282740237368
 30
0.0
 11
1.752545369894944
 21
3.3760625394992578
 31
0.0
  0
LINE
  5
19CDE
  8
0
 62
     0
 10
1.818560666815048
 20
3.442077836419362
 30
0.0
 11
1.8221949322905691
 21
3.4457121018948822
 31
0.0
  0
LINE
  5
19CDF
  8
0
 62
     0
 10
1.7500249200677109
 20
3.3763705167967699
 30
0.0
 11
1.75396212288382
 21
3.3803077196128788
 31
0.0
  0
LINE
  5
19CE0
  8
0
 62
     0
 10
1.8143154867014271
 20
3.440661083430486
 30
0.0
 11
1.8182526895175359
 21
3.4445982862465949
 31
0.0
  0
LINE
  5
19CE1
  8
0
 62
     0
 10
1.7514055170870491
 20
3.3805795409408539
 30
0.0
 11
1.755747574990721
 21
3.3849215988445258
 31
0.0
  0
LINE
  5
19CE2
  8
0
 62
     0
 10
1.8097016074697789
 20
3.4388756313235849
 30
0.0
 11
1.814043665373452
 21
3.4432176892272568
 31
0.0
  0
LINE
  5
19CE3
  8
0
 62
     0
 10
1.753132164819116
 20
3.3851346157976678
 30
0.0
 11
1.7580534071138569
 21
3.3900558580924081
 31
0.0
  0
LINE
  5
19CE4
  8
0
 62
     0
 10
1.804567348221898
 20
3.4365697992004489
 30
0.0
 11
1.809488590516638
 21
3.44149104149519
 31
0.0
  0
LINE
  5
19CE5
  8
0
 62
     0
 10
1.7553372766406199
 20
3.3901681547439182
 30
0.0
 11
1.761187504252022
 21
3.3960183823553201
 31
0.0
  0
LINE
  5
19CE6
  8
0
 62
     0
 10
1.798604823958986
 20
3.4334357020622841
 30
0.0
 11
1.8044550515703881
 21
3.4392859296736851
 31
0.0
  0
LINE
  5
19CE7
  8
0
 62
     0
 10
1.75827635162413
 20
3.3959356568521741
 30
0.0
 11
1.766026380396565
 21
3.403685685624608
 31
0.0
  0
LINE
  5
19CE8
  8
0
 62
     0
 10
1.7909375206896969
 20
3.4285968259177411
 30
0.0
 11
1.7986875494621331
 21
3.4363468546901772
 31
0.0
  0
LINE
  5
19CE9
  8
0
 62
     0
 10
1.762597301540237
 20
3.403085033893027
 30
0.0
 11
1.7915381724212791
 21
3.4320259047740689
 31
0.0
  0
LINE
  5
19CEA
  8
0
 62
     0
 10
1.773099942403217
 20
3.4164161018807531
 30
0.0
 11
1.778207104433553
 21
3.4215232639110891
 31
0.0
  0
LINE
  5
19CEB
  8
0
 62
     0
 10
1.8226287290954151
 20
3.2340138643437628
 30
0.0
 11
1.83589687392149
 21
3.2472820091698389
 31
0.0
  0
LINE
  5
19CEC
  8
0
 62
     0
 10
1.947341197144471
 20
3.3587263323928198
 30
0.0
 11
1.949568015633208
 21
3.3609531508815569
 31
0.0
  0
LINE
  5
19CED
  8
0
 62
     0
 10
1.822981919525922
 20
3.2315386276495239
 30
0.0
 11
1.83844541143444
 21
3.2470021195580419
 31
0.0
  0
LINE
  5
19CEE
  8
0
 62
     0
 10
1.947621086756268
 20
3.356177794879871
 30
0.0
 11
1.949892347052443
 21
3.3584490551760449
 31
0.0
  0
LINE
  5
19CEF
  8
0
 62
     0
 10
1.8230869702782371
 20
3.2288152512770929
 30
0.0
 11
1.841055471251416
 21
3.246783752250272
 31
0.0
  0
LINE
  5
19CF0
  8
0
 62
     0
 10
1.947839454064038
 20
3.3535677350628941
 30
0.0
 11
1.9501594878078781
 21
3.3558877688067348
 31
0.0
  0
LINE
  5
19CF1
  8
0
 62
     0
 10
1.8230869702782371
 20
3.2259868241523471
 30
0.0
 11
1.834128632931592
 21
3.237028486805702
 31
0.0
  0
LINE
  5
19CF2
  8
0
 62
     0
 10
1.947992065362796
 20
3.350891919236906
 30
0.0
 11
1.950365827182833
 21
3.3532656810569428
 31
0.0
  0
LINE
  5
19CF3
  8
0
 62
     0
 10
1.842594719508603
 20
3.2454945733827141
 30
0.0
 11
1.843731287077405
 21
3.2466311409515152
 31
0.0
  0
LINE
  5
19CF4
  8
0
 62
     0
 10
1.8230869702782371
 20
3.2231583970276012
 30
0.0
 11
1.833186053593874
 21
3.233257480343239
 31
0.0
  0
LINE
  5
19CF5
  8
0
 62
     0
 10
1.948074021618261
 20
3.348145448367625
 30
0.0
 11
1.950507226399222
 21
3.3505786531485859
 31
0.0
  0
LINE
  5
19CF6
  8
0
 62
     0
 10
1.8463657259710671
 20
3.2464371527204312
 30
0.0
 11
1.8464777579466849
 21
3.246549184696049
 31
0.0
  0
LINE
  5
19CF7
  8
0
 62
     0
 10
1.8230869702782371
 20
3.2203299699028549
 30
0.0
 11
1.833086970278236
 21
3.2303299699028538
 31
0.0
  0
LINE
  5
19CF8
  8
0
 62
     0
 10
1.9480796055071821
 20
3.3453226051318001
 30
0.0
 11
1.9505789067984129
 21
3.347821906423031
 31
0.0
  0
LINE
  5
19CF9
  8
0
 62
     0
 10
1.849248218912579
 20
3.246491218537197
 30
0.0
 11
1.8493006011825059
 21
3.246543600807124
 31
0.0
  0
LINE
  5
19CFA
  8
0
 62
     0
 10
1.8230869702782371
 20
3.2175015427781091
 30
0.0
 11
1.833086970278236
 21
3.2275015427781071
 31
0.0
  0
LINE
  5
19CFB
  8
0
 62
     0
 10
1.948002079377722
 20
3.3424166518775942
 30
0.0
 11
1.9505753051051951
 21
3.3449898776050668
 31
0.0
  0
LINE
  5
19CFC
  8
0
 62
     0
 10
1.851683992673077
 20
3.2460985651729488
 30
0.0
 11
1.852206554436713
 21
3.2466211269365841
 31
0.0
  0
LINE
  5
19CFD
  8
0
 62
     0
 10
1.8230869702782371
 20
3.2146731156533619
 30
0.0
 11
1.833086970278236
 21
3.2246731156533621
 31
0.0
  0
LINE
  5
19CFE
  8
0
 62
     0
 10
1.9478334133423569
 20
3.3394195587174829
 30
0.0
 11
1.950489883070041
 21
3.3420760284451672
 31
0.0
  0
LINE
  5
19CFF
  8
0
 62
     0
 10
1.853813825131994
 20
3.2453999705071199
 30
0.0
 11
1.855203647596823
 21
3.2467897929719491
 31
0.0
  0
LINE
  5
19D00
  8
0
 62
     0
 10
1.8230869702782371
 20
3.211844688528616
 30
0.0
 11
1.833086970278236
 21
3.2218446885286149
 31
0.0
  0
LINE
  5
19D01
  8
0
 62
     0
 10
1.9475639114080849
 20
3.3363216296584648
 30
0.0
 11
1.9503148725336981
 21
3.3390725907840779
 31
0.0
  0
LINE
  5
19D02
  8
0
 62
     0
 10
1.8557018765675519
 20
3.2444595948179318
 30
0.0
 11
1.8583015766558411
 21
3.24705929490622
 31
0.0
  0
LINE
  5
19D03
  8
0
 62
     0
 10
1.8230869702782371
 20
3.2090162614038702
 30
0.0
 11
1.833086970278236
 21
3.2190162614038691
 31
0.0
  0
LINE
  5
19D04
  8
0
 62
     0
 10
1.947181684477937
 20
3.3331109756035699
 30
0.0
 11
1.9500409268593519
 21
3.3359702179849848
 31
0.0
  0
LINE
  5
19D05
  8
0
 62
     0
 10
1.857380825285915
 20
3.2433101164115481
 30
0.0
 11
1.8615122307107359
 21
3.247441521836369
 31
0.0
  0
LINE
  5
19D06
  8
0
 62
     0
 10
1.8230869702782371
 20
3.2061878342791239
 30
0.0
 11
1.833086970278236
 21
3.2161878342791228
 31
0.0
  0
LINE
  5
19D07
  8
0
 62
     0
 10
1.946671885560517
 20
3.3297727495614051
 30
0.0
 11
1.94965663280173
 21
3.3327574968026168
 31
0.0
  0
LINE
  5
19D08
  8
0
 62
     0
 10
1.858866342256406
 20
3.2419672062572928
 30
0.0
 11
1.8648504567529021
 21
3.247951320753788
 31
0.0
  0
LINE
  5
19D09
  8
0
 62
     0
 10
1.8232059350391041
 20
3.2034783719152449
 30
0.0
 11
1.833086970278236
 21
3.2133594071543761
 31
0.0
  0
LINE
  5
19D0A
  8
0
 62
     0
 10
1.9460155608112071
 20
3.3262879976873481
 30
0.0
 11
1.949147807556783
 21
3.3294202444329239
 31
0.0
  0
LINE
  5
19D0B
  8
0
 62
     0
 10
1.8601623737800099
 20
3.2404348106561511
 30
0.0
 11
1.868335208626958
 21
3.2486076455030992
 31
0.0
  0
LINE
  5
19D0C
  8
0
 62
     0
 10
1.8236211287434689
 20
3.201065138494863
 30
0.0
 11
1.833086970278236
 21
3.2105309800296311
 31
0.0
  0
LINE
  5
19D0D
  8
0
 62
     0
 10
1.9451878496700741
 20
3.3226318594214681
 30
0.0
 11
1.9484964523882879
 21
3.3259404621396831
 31
0.0
  0
LINE
  5
19D0E
  8
0
 62
     0
 10
1.861262317931293
 20
3.2387063276826882
 30
0.0
 11
1.871991346892838
 21
3.249435356644232
 31
0.0
  0
LINE
  5
19D0F
  8
0
 62
     0
 10
1.824268520899837
 20
3.1988841035264848
 30
0.0
 11
1.833086970278236
 21
3.2077025529048839
 31
0.0
  0
LINE
  5
19D10
  8
0
 62
     0
 10
1.944155015783686
 20
3.3187705984103348
 30
0.0
 11
1.9476791317567539
 21
3.3222947143834021
 31
0.0
  0
LINE
  5
19D11
  8
0
 62
     0
 10
1.8621470224390799
 20
3.2367626050657279
 30
0.0
 11
1.875852607903971
 21
3.250468190530619
 31
0.0
  0
LINE
  5
19D12
  8
0
 62
     0
 10
1.8251080994293001
 20
3.196895254931202
 30
0.0
 11
1.833086970278236
 21
3.2048741257801381
 31
0.0
  0
LINE
  5
19D13
  8
0
 62
     0
 10
1.9428692170589681
 20
3.31465637256087
 30
0.0
 11
1.9466643366511891
 21
3.3184514921530921
 31
0.0
  0
LINE
  5
19D14
  8
0
 62
     0
 10
1.8627779800389599
 20
3.234565135540862
 30
0.0
 11
1.8799668337534361
 21
3.251753989255338
 31
0.0
  0
LINE
  5
19D15
  8
0
 62
     0
 10
1.826115794476264
 20
3.1950745228534201
 30
0.0
 11
1.833086970278236
 21
3.2020456986553918
 31
0.0
  0
LINE
  5
19D16
  8
0
 62
     0
 10
1.9412584624640781
 20
3.3102171908412341
 30
0.0
 11
1.9454079228787531
 21
3.314366651255908
 31
0.0
  0
LINE
  5
19D17
  8
0
 62
     0
 10
1.8630785982169391
 20
3.232037326594094
 30
0.0
 11
1.884406015473072
 21
3.253364743850228
 31
0.0
  0
LINE
  5
19D18
  8
0
 62
     0
 10
1.8272422689803409
 20
3.1933725702327509
 30
0.0
 11
1.833086970278236
 21
3.1992172715306459
 31
0.0
  0
LINE
  5
19D19
  8
0
 62
     0
 10
1.93920487612006
 20
3.30533517737247
 30
0.0
 11
1.943844559025335
 21
3.309974860277745
 31
0.0
  0
LINE
  5
19D1A
  8
0
 62
     0
 10
1.8630869702782371
 20
3.2292172715306471
 30
0.0
 11
1.8779936398446531
 21
3.244123941097063
 31
0.0
  0
LINE
  5
19D1B
  8
0
 62
     0
 10
1.883212224159845
 20
3.2493425254122541
 30
0.0
 11
1.8892880289418359
 21
3.2554183301942459
 31
0.0
  0
LINE
  5
19D1C
  8
0
 62
     0
 10
1.828331611659179
 20
3.1916334857868431
 30
0.0
 11
1.833086970278236
 21
3.1963888444059001
 31
0.0
  0
LINE
  5
19D1D
  8
0
 62
     0
 10
1.9364884272281819
 20
3.2997903013558449
 30
0.0
 11
1.941869836890779
 21
3.3051717110184429
 31
0.0
  0
LINE
  5
19D1E
  8
0
 62
     0
 10
1.8630869702782371
 20
3.2263888444058999
 30
0.0
 11
1.87465095702009
 21
3.2379528311477541
 31
0.0
  0
LINE
  5
19D1F
  8
0
 62
     0
 10
1.889451495295863
 20
3.2527533694235271
 30
0.0
 11
1.8948329049584609
 21
3.2581347790861241
 31
0.0
  0
LINE
  5
19D20
  8
0
 62
     0
 10
1.8293650272487021
 20
3.1898384742516201
 30
0.0
 11
1.833086970278236
 21
3.1935604172811529
 31
0.0
  0
LINE
  5
19D21
  8
0
 62
     0
 10
1.932588369260811
 20
3.2930618162637288
 30
0.0
 11
1.939296341347662
 21
3.299769788350579
 31
0.0
  0
LINE
  5
19D22
  8
0
 62
     0
 10
1.8630869702782371
 20
3.2235604172811541
 30
0.0
 11
1.873546367382765
 21
3.234019814385682
 31
0.0
  0
LINE
  5
19D23
  8
0
 62
     0
 10
1.894853417963726
 20
3.2553268649666438
 30
0.0
 11
1.901561390050577
 21
3.2620348370534948
 31
0.0
  0
LINE
  5
19D24
  8
0
 62
     0
 10
1.8303407974430079
 20
3.187985817321179
 30
0.0
 11
1.833086970278236
 21
3.1907319901564071
 31
0.0
  0
LINE
  5
19D25
  8
0
 62
     0
 10
1.9250876601507689
 20
3.28273268002894
 30
0.0
 11
1.9357130905928019
 21
3.2933581104709728
 31
0.0
  0
LINE
  5
19D26
  8
0
 62
     0
 10
1.8630869702782371
 20
3.2207319901564082
 30
0.0
 11
1.8731338098035599
 21
3.2307788296817308
 31
0.0
  0
LINE
  5
19D27
  8
0
 62
     0
 10
1.901265095843333
 20
3.2589101157215041
 30
0.0
 11
1.911890526285366
 21
3.2695355461635369
 31
0.0
  0
LINE
  5
19D28
  8
0
 62
     0
 10
1.831256855351268
 20
3.1860734481046928
 30
0.0
 11
1.833086970278236
 21
3.1879035630316608
 31
0.0
  0
LINE
  5
19D29
  8
0
 62
     0
 10
1.910128911075226
 20
3.2649455038286499
 30
0.0
 11
1.9296777024856551
 21
3.2844942952390812
 31
0.0
  0
LINE
  5
19D2A
  8
0
 62
     0
 10
1.8630869702782371
 20
3.2179035630316619
 30
0.0
 11
1.8730869702782369
 21
3.2279035630316621
 31
0.0
  0
LINE
  5
19D2B
  8
0
 62
     0
 10
1.8321107306684279
 20
3.1840988962971069
 30
0.0
 11
1.833086970278236
 21
3.1850751359069149
 31
0.0
  0
LINE
  5
19D2C
  8
0
 62
     0
 10
1.8630869702782371
 20
3.2150751359069161
 30
0.0
 11
1.8730869702782369
 21
3.225075135906915
 31
0.0
  0
LINE
  5
19D2D
  8
0
 62
     0
 10
1.8328994788145521
 20
3.1820592173184852
 30
0.0
 11
1.833086970278236
 21
3.1822467087821691
 31
0.0
  0
LINE
  5
19D2E
  8
0
 62
     0
 10
1.8630869702782371
 20
3.2122467087821698
 30
0.0
 11
1.8730869702782369
 21
3.22224670878217
 31
0.0
  0
LINE
  5
19D2F
  8
0
 62
     0
 10
1.8630869702782371
 20
3.209418281657423
 30
0.0
 11
1.8730869702782369
 21
3.2194182816574228
 31
0.0
  0
LINE
  5
19D30
  8
0
 62
     0
 10
1.8630869702782371
 20
3.2065898545326772
 30
0.0
 11
1.8730869702782369
 21
3.216589854532677
 31
0.0
  0
LINE
  5
19D31
  8
0
 62
     0
 10
1.8630869702782371
 20
3.2037614274079309
 30
0.0
 11
1.8730869702782369
 21
3.2137614274079311
 31
0.0
  0
LINE
  5
19D32
  8
0
 62
     0
 10
1.8630869702782371
 20
3.2009330002831851
 30
0.0
 11
1.8730869702782369
 21
3.2109330002831848
 31
0.0
  0
LINE
  5
19D33
  8
0
 62
     0
 10
1.8630869702782371
 20
3.1981045731584392
 30
0.0
 11
1.8730869702782369
 21
3.2081045731584381
 31
0.0
  0
LINE
  5
19D34
  8
0
 62
     0
 10
1.8630869702782371
 20
3.195276146033692
 30
0.0
 11
1.8730832818609271
 21
3.2052724576163829
 31
0.0
  0
LINE
  5
19D35
  8
0
 62
     0
 10
1.8630869702782371
 20
3.1924477189089462
 30
0.0
 11
1.8727745508962199
 21
3.2021352995269292
 31
0.0
  0
LINE
  5
19D36
  8
0
 62
     0
 10
1.8630869702782371
 20
3.1896192917841999
 30
0.0
 11
1.871629667987438
 21
3.1981619894934008
 31
0.0
  0
LINE
  5
19D37
  8
0
 62
     0
 10
1.8630869702782371
 20
3.186790864659454
 30
0.0
 11
1.867712636657775
 21
3.1914165310389921
 31
0.0
  0
LINE
  5
19D38
  8
0
 62
     0
 10
1.8630869702782371
 20
3.1839624375347082
 30
0.0
 11
1.864687627476197
 21
3.1855630947326681
 31
0.0
  0
ENDBLK
  5
19D39
  8
0
  0
BLOCK
  8
0
 62
     1
  2
*U21
 70
     1
 10
0.0
 20
0.0
 30
0.0
  3
*U21
  1

  0
TEXT
  5
19FCA
  8
DIM
 10
-0.6519841722022369
 20
-0.4815853598968584
 30
0.0
 40
0.0378374821394327
  1
.040
  7
ROMANS
  0
ENDBLK
  5
19FCC
  8
0
 62
     1
  0
BLOCK
  8
0
 62
     1
  2
*U22
 70
     1
 10
0.0
 20
0.0
 30
0.0
  3
*U22
  1

  0
TEXT
  5
19FCE
  8
DIM
 10
-0.8843831507603202
 20
-0.5434609708717945
 30
0.0
 40
0.0378374821394327
  1
.155
  7
ROMANS
  0
ENDBLK
  5
19FD0
  8
0
 62
     1
  0
BLOCK
  8
0
 62
     1
  2
*U23
 70
     1
 10
0.0
 20
0.0
 30
0.0
  3
*U23
  1

  0
TEXT
  5
19FD2
  8
DIM
 10
-1.5214100765974901
 20
-0.1828427946951582
 30
0.0
 40
0.0378374821394327
  1
.350
  7
ROMANS
  0
ENDBLK
  5
19FD4
  8
0
 62
     1
  0
BLOCK
  8
0
 62
     1
  2
*U24
 70
     1
 10
0.0
 20
0.0
 30
0.0
  3
*U24
  1

  0
TEXT
  5
19FD6
  8
DIM
 10
-1.521410076548793
 20
0.3171572037764032
 30
0.0
 40
0.0378374821074757
  1
.650
  7
ROMANS
  0
ENDBLK
  5
19FD8
  8
0
 62
     1
  0
BLOCK
  8
0
 62
     1
  2
*U25
 70
     1
 10
0.0
 20
0.0
 30
0.0
  3
*U25
  1

  0
TEXT
  5
19FDA
  8
DIM
 10
-1.0067577337110081
 20
0.3571504834421839
 30
0.0
 40
0.0378374821074757
  1
.135
  7
ROMANS
  0
ENDBLK
  5
19FDC
  8
0
 62
     1
  0
BLOCK
  8
0
 62
     1
  2
*U26
 70
     1
 10
0.0
 20
0.0
 30
0.0
  3
*U26
  1

  0
TEXT
  5
19FDE
  8
DIM
 10
-1.0829359705467161
 20
0.8142203203473339
 30
0.0
 40
0.0378374821074757
  1
.561
  7
ROMANS
  0
ENDBLK
  5
19FE0
  8
0
 62
     1
  0
BLOCK
  8
0
 62
     1
  2
*U27
 70
     1
 10
0.0
 20
0.0
 30
0.0
  3
*U27
  1

  0
TEXT
  5
19FE2
  8
DIM
 10
-1.172114998306109
 20
0.7252732090779465
 30
0.0
 40
0.0378374821074757
  1
.400
  7
ROMANS
  0
ENDBLK
  5
19FE4
  8
0
 62
     1
  0
BLOCK
  8
0
 62
     1
  2
*U28
 70
     1
 10
0.0
 20
0.0
 30
0.0
  3
*U28
  1

  0
TEXT
  5
19FE6
  8
DIM
 10
-1.1743054561057691
 20
-0.218465755564304
 30
0.0
 40
0.0378374821394327
  1
.030
  7
ROMANS
  0
ENDBLK
  5
19FE8
  8
0
 62
     1
  0
BLOCK
  8
0
 62
     1
  2
*U29
 70
     1
 10
0.0
 20
0.0
 30
0.0
  3
*U29
  1

  0
TEXT
  5
19FEA
  8
DIM
 10
-0.65306146252747
 20
-0.4241934856157936
 30
0.0
 40
0.0378374821394327
  1
.018
  7
ROMANS
  0
ENDBLK
  5
19FEC
  8
0
 62
     1
  0
BLOCK
  8
0
 62
     1
  2
*U30
 70
     1
 10
0.0
 20
0.0
 30
0.0
  3
*U30
  1

  0
TEXT
  5
19FEE
  8
DIM
 10
-0.3110585688949135
 20
0.39471119168406
 30
0.0
 40
0.0172695920636645
  1
.205
  7
ROMANS
  0
ENDBLK
  5
19FF0
  8
0
 62
     1
  0
BLOCK
  8
0
 62
     1
  2
*U31
 70
     1
 10
0.0
 20
0.0
 30
0.0
  3
*U31
  1

  0
TEXT
  5
19FF2
  8
DIM
 10
-0.5289849759712001
 20
0.1259775759538283
 30
0.0
 40
0.0172695920636645
  1
.433
  7
ROMANS
  0
ENDBLK
  5
19FF4
  8
0
 62
     1
  0
BLOCK
  8
0
 62
     1
  2
*U32
 70
     1
 10
0.0
 20
0.0
 30
0.0
  3
*U32
  1

  0
TEXT
  5
19FF6
  8
DIM
 10
-0.4615499709429842
 20
0.0247275758826029
 30
0.0
 40
0.0172695920636645
  1
.230
  7
ROMANS
  0
ENDBLK
  5
19FF8
  8
0
 62
     1
  0
BLOCK
  8
0
 62
     1
  2
*U33
 70
     1
 10
0.0
 20
0.0
 30
0.0
  3
*U33
  1

  0
TEXT
  5
19FFA
  8
DIM
 10
-0.1714098008074429
 20
0.0050519602846762
 30
0.0
 40
0.0172695920636645
  1
.019
  7
ROMANS
  0
ENDBLK
  5
19FFC
  8
0
 62
     1
  0
BLOCK
  8
0
 62
     1
  2
*U34
 70
     1
 10
0.0
 20
0.0
 30
0.0
  3
*U34
  1

  0
TEXT
  5
19FFE
  8
DIM
 10
-0.3094138458412285
 20
-0.1689597335588944
 30
0.0
 40
0.0172695920636645
  1
.100
  7
ROMANS
  0
ENDBLK
  5
1A000
  8
0
 62
     1
  0
BLOCK
  8
0
 62
     1
  2
*U35
 70
     1
 10
0.0
 20
0.0
 30
0.0
  3
*U35
  1

  0
TEXT
  5
1A002
  8
DIM
 10
-0.2324406811784786
 20
-0.1365881397692747
 30
0.0
 40
0.0172695920636645
  1
.030
  7
ROMANS
  0
ENDBLK
  5
1A004
  8
0
 62
     1
  0
ENDSEC
  0
SECTION
  2
ENTITIES
  0
INSERT
  5
19D6E
  8
HATCH
  2
*X14
 10
-2.132829970314162
 20
-3.0981738640502869
 30
0.0
1001
ACAD
1000
HATCH
1002
{
1070
    16
1000
SKIN
1040
1.0
1040
0.0
1002
}
  0
POLYLINE
  5
19D6F
  8
PART
 66
     1
 10
0.0
 20
0.0
 30
0.0
 70
     1
  0
VERTEX
  5
19F9F
  8
PART
 10
-0.2697430000359939
 20
0.0833623719856611
 30
0.0
  0
VERTEX
  5
19FA0
  8
PART
 10
-0.2697430000359964
 20
0.1333623719856609
 30
0.0
 42
0.4141731962379513
  0
VERTEX
  5
19FA1
  8
PART
 10
-0.2847409327274084
 20
0.1483623718432012
 30
0.0
  0
VERTEX
  5
19FA2
  8
PART
 10
-0.2847409327274035
 20
0.1483623720070302
 30
0.0
 42
96744.143924800825
  0
VERTEX
  5
19FA3
  8
PART
 10
-0.2847450673445879
 20
0.1483623720070302
 30
0.0
  0
VERTEX
  5
19FA4
  8
PART
 10
-0.2847450673445833
 20
0.1483623718432012
 30
0.0
 42
0.4141731962379515
  0
VERTEX
  5
19FA5
  8
PART
 10
-0.2997430000359951
 20
0.1333623719856609
 30
0.0
  0
VERTEX
  5
19FA6
  8
PART
 10
-0.2997430000359951
 20
0.0833623719856611
 30
0.0
 42
0.065222751903022
  0
VERTEX
  5
19FA7
  8
PART
 10
-0.306252669343023
 20
0.0961941549058834
 30
0.0
 42
-0.151068248655506
  0
VERTEX
  5
19FA8
  8
PART
 10
-0.3097430000359949
 20
0.1074826809111906
 30
0.0
  0
VERTEX
  5
19FA9
  8
PART
 10
-0.309743000035992
 20
0.1310753309282626
 30
0.0
 42
0.3005434598412442
  0
VERTEX
  5
19FAA
  8
PART
 10
-0.324939078467366
 20
0.1540727899591241
 30
0.0
 42
-4.8957408211479638
  0
VERTEX
  5
19FAB
  8
PART
 10
-0.2445469216046243
 20
0.154072789959125
 30
0.0
 42
0.3005434598412449
  0
VERTEX
  5
19FAC
  8
PART
 10
-0.259743000035995
 20
0.1310753309282626
 30
0.0
  0
VERTEX
  5
19FAD
  8
PART
 10
-0.2597430000359946
 20
0.1074826809112057
 30
0.0
 42
-0.1510682486555401
  0
VERTEX
  5
19FAE
  8
PART
 10
-0.2632333307289629
 20
0.0961941549058967
 30
0.0
 42
0.0652227519030564
  0
SEQEND
  5
19FAF
  8
PART
  0
CIRCLE
  5
19D70
  8
HATCH
 10
-0.3321888404364808
 20
0.1691056551119026
 30
0.0
 40
0.0026999999999999
  0
INSERT
  5
19D71
  8
HATCH
  2
*X13
 10
-0.7606682518879087
 20
-0.6785170483266949
 30
0.0
1001
ACAD
1000
HATCH
1002
{
1070
    16
1000
LINE
1040
0.25
1040
0.7853981633974483
1002
}
  0
POLYLINE
  5
19D72
  8
PART
 66
     1
 10
0.0
 20
0.0
 30
0.0
 70
     1
  0
VERTEX
  5
19FB0
  8
PART
 10
-0.2997430000359951
 20
0.1333623719856609
 30
0.0
 42
-0.9999999999999998
  0
VERTEX
  5
19FB1
  8
PART
 10
-0.2697430000359939
 20
0.1333623719856609
 30
0.0
  0
VERTEX
  5
19FB2
  8
PART
 10
-0.2697430000359939
 20
-0.0666376280143304
 30
0.0
 42
-1.0000000000000291
  0
VERTEX
  5
19FB3
  8
PART
 10
-0.2997430000359951
 20
-0.0666376280143295
 30
0.0
  0
SEQEND
  5
19FB4
  8
PART
  0
CIRCLE
  5
19D73
  8
HATCH
 10
-0.2661805247507349
 20
0.1643332118913783
 30
0.0
 40
0.0026999999999999
  0
CIRCLE
  5
19D74
  8
HATCH
 10
-0.3369613357661045
 20
0.3074056822418676
 30
0.0
 40
0.0026999999999999
  0
CIRCLE
  5
19D75
  8
HATCH
 10
-0.344926697689484
 20
0.2827704647725442
 30
0.0
 40
0.0026999999999999
  0
CIRCLE
  5
19D76
  8
HATCH
 10
-0.2518630387618739
 20
0.2811908532840617
 30
0.0
 40
0.0026999999999999
  0
CIRCLE
  5
19D77
  8
HATCH
 10
-0.2001385999429492
 20
0.2287275866133749
 30
0.0
 40
0.0026999999999999
  0
CIRCLE
  5
19D78
  8
HATCH
 10
-0.197752352278141
 20
0.2700663553545324
 30
0.0
 40
0.0026999999999999
  0
CIRCLE
  5
19D79
  8
HATCH
 10
-0.2502498009039713
 20
0.3296882868560065
 30
0.0
 40
0.0026999999999999
  0
CIRCLE
  5
19D7A
  8
HATCH
 10
-0.3067467350525148
 20
0.3296882868560065
 30
0.0
 40
0.0026999999999999
  0
CIRCLE
  5
19D7B
  8
HATCH
 10
-0.3655963077438313
 20
0.2851566863828063
 30
0.0
 40
0.0026999999999999
  0
CIRCLE
  5
19D7C
  8
HATCH
 10
-0.3735616696672133
 20
0.2326934197121213
 30
0.0
 40
0.0026999999999999
  0
CIRCLE
  5
19D7D
  8
HATCH
 10
-0.2391251815088684
 20
0.1746510996991297
 30
0.0
 40
0.0026999999999999
  0
LINE
  5
19D7E
  8
HATCH
 10
-0.2181336433601559
 20
0.2583552644698051
 30
0.0
 11
-0.2181336433601559
 21
0.2583552644698051
 31
0.0
  0
CIRCLE
  5
19D7F
  8
HATCH
 10
-0.2244570754863253
 20
0.240050223759166
 30
0.0
 40
0.0026999999999999
  0
LINE
  5
19D80
  8
HATCH
 10
-0.2743836433601541
 20
0.2958552644698047
 30
0.0
 11
-0.2743836433601541
 21
0.2958552644698047
 31
0.0
  0
LINE
  5
19D81
  8
HATCH
 10
-0.2931336433601543
 20
0.2583552644698051
 30
0.0
 11
-0.2931336433601543
 21
0.2583552644698051
 31
0.0
  0
LINE
  5
19D82
  8
HATCH
 10
-0.2556336433601563
 20
0.2583552644698051
 30
0.0
 11
-0.2556336433601563
 21
0.2583552644698051
 31
0.0
  0
LINE
  5
19D83
  8
HATCH
 10
-0.2743836433601541
 20
0.2208552644698081
 30
0.0
 11
-0.2743836433601541
 21
0.2208552644698081
 31
0.0
  0
LINE
  5
19D84
  8
HATCH
 10
-0.2368836433601562
 20
0.2208552644698081
 30
0.0
 11
-0.2368836433601562
 21
0.2208552644698081
 31
0.0
  0
CIRCLE
  5
19D85
  8
HATCH
 10
-0.2629153182951858
 20
0.2473233360187477
 30
0.0
 40
0.0053999999999998
  0
CIRCLE
  5
19D86
  8
HATCH
 10
-0.2920188650925743
 20
0.2400502364417818
 30
0.0
 40
0.0026999999999999
  0
LINE
  5
19D87
  8
HATCH
 10
-0.3118836433601546
 20
0.2958552644698047
 30
0.0
 11
-0.3118836433601546
 21
0.2958552644698047
 31
0.0
  0
LINE
  5
19D88
  8
HATCH
 10
-0.3306336433601524
 20
0.2583552644698051
 30
0.0
 11
-0.3306336433601524
 21
0.2583552644698051
 31
0.0
  0
LINE
  5
19D89
  8
HATCH
 62
     4
 10
-0.34938364336015
 20
0.2208552644698081
 30
0.0
 11
-0.34938364336015
 21
0.2208552644698081
 31
0.0
  0
CIRCLE
  5
19D8A
  8
HATCH
 10
-0.3450289072714496
 20
0.2379722025558149
 30
0.0
 40
0.0026999999999999
  0
CIRCLE
  5
19D8B
  8
HATCH
 10
-0.3044918161934875
 20
0.2649866177081739
 30
0.0
 40
0.0026999999999999
  0
CIRCLE
  5
19D8C
  8
HATCH
 10
-0.3221618360245164
 20
0.2296600670119382
 30
0.0
 40
0.0026999999999999
  0
CIRCLE
  5
19D8D
  8
HATCH
 10
-0.2956568062779716
 20
0.3060277584201696
 30
0.0
 40
0.0040499999999998
  0
LINE
  5
19D8E
  8
HATCH
 10
-0.2931336433601543
 20
0.1833552644698075
 30
0.0
 11
-0.2931336433601543
 21
0.1833552644698075
 31
0.0
  0
LINE
  5
19D8F
  8
HATCH
 10
-0.2556336433601563
 20
0.1833552644698075
 30
0.0
 11
-0.2556336433601563
 21
0.1833552644698075
 31
0.0
  0
CIRCLE
  5
19D90
  8
HATCH
 10
-0.234851195632348
 20
0.2026456391769633
 30
0.0
 40
0.0026999999999999
  0
LINE
  5
19D91
  8
HATCH
 10
-0.3306336433601524
 20
0.1833552644698075
 30
0.0
 11
-0.3306336433601524
 21
0.1833552644698075
 31
0.0
  0
CIRCLE
  5
19D92
  8
HATCH
 10
-0.3117677158784939
 20
0.1860213807718294
 30
0.0
 40
0.0026999999999999
  0
CIRCLE
  5
19D93
  8
HATCH
 10
-0.3387924144067829
 20
0.2068016942662849
 30
0.0
 40
0.0053999999999998
  0
CIRCLE
  5
19D94
  8
HATCH
 10
-0.2582379702894511
 20
0.2125162969646608
 30
0.0
 40
0.0040499999999998
  0
CIRCLE
  5
19D95
  8
HATCH
 10
-0.225496482306665
 20
0.3055082594606393
 30
0.0
 40
0.0026999999999999
  0
POLYLINE
  5
19D96
  8
PART
 66
     1
 10
0.0
 20
0.0
 30
0.0
 70
     1
  0
VERTEX
  5
19FB5
  8
PART
 10
-0.3298427653774314
 20
-0.051565020312105
 30
0.0
  0
VERTEX
  5
19FB6
  8
PART
 10
-0.2997430000359924
 20
-0.0689431279345305
 30
0.0
  0
VERTEX
  5
19FB7
  8
PART
 10
-0.2997430000359924
 20
-0.0458491171669469
 30
0.0
  0
VERTEX
  5
19FB8
  8
PART
 10
-0.3198427653774318
 20
-0.034244512236417
 30
0.0
 42
0.9999999999999998
  0
SEQEND
  5
19FB9
  8
PART
  0
POLYLINE
  5
19D97
  8
PART
 66
     1
 10
0.0
 20
0.0
 30
0.0
 70
     1
  0
VERTEX
  5
19FBA
  8
PART
 10
-0.2997430000359924
 20
0.0083623719856654
 30
0.0
  0
VERTEX
  5
19FBB
  8
PART
 10
-0.2997430000359924
 20
0.0314563827532481
 30
0.0
  0
VERTEX
  5
19FBC
  8
PART
 10
-0.3198427653774318
 20
0.0430609876837789
 30
0.0
 42
0.9999999999999799
  0
VERTEX
  5
19FBD
  8
PART
 10
-0.3298427653774314
 20
0.02574047960809
 30
0.0
  0
SEQEND
  5
19FBE
  8
PART
  0
POLYLINE
  5
19D98
  8
PART
 66
     1
 10
0.0
 20
0.0
 30
0.0
 70
     1
  0
VERTEX
  5
19FBF
  8
PART
 10
-0.2697430000359939
 20
-0.0689431279345305
 30
0.0
  0
VERTEX
  5
19FC0
  8
PART
 10
-0.2697430000359939
 20
-0.0458491171669469
 30
0.0
  0
VERTEX
  5
19FC1
  8
PART
 10
-0.2496432346945521
 20
-0.0342445122364179
 30
0.0
 42
-0.9999999999999159
  0
VERTEX
  5
19FC2
  8
PART
 10
-0.2396432346945552
 20
-0.051565020312105
 30
0.0
  0
SEQEND
  5
19FC3
  8
PART
  0
POLYLINE
  5
19D99
  8
PART
 66
     1
 10
0.0
 20
0.0
 30
0.0
 70
     1
  0
VERTEX
  5
19FC4
  8
PART
 10
-0.2697430000359939
 20
0.0083623719856654
 30
0.0
  0
VERTEX
  5
19FC5
  8
PART
 10
-0.2697430000359939
 20
0.0314563827532481
 30
0.0
  0
VERTEX
  5
19FC6
  8
PART
 10
-0.2496432346945521
 20
0.0430609876837789
 30
0.0
 42
-0.9999999999998713
  0
VERTEX
  5
19FC7
  8
PART
 10
-0.2396432346945552
 20
0.02574047960809
 30
0.0
  0
SEQEND
  5
19FC8
  8
PART
  0
VIEWPORT
  5
B94C
 67
     1
  8
0
 10
4.2500000197906047
 20
5.499999966006726
 30
0.0
 40
22.898731320560032
 41
11.073778003699401
 68
     1
 69
     1
1001
ACAD
1000
MVIEW
1002
{
1070
    16
1010
0.0
1020
0.0
1030
0.0
1010
0.0
1020
0.0
1030
1.0
1040
0.0
1040
11.073778003699401
1040
4.2500000197906047
1040
5.499999966006726
1040
50.0
1040
0.0
1040
0.0
1070
     0
1070
   500
1070
     1
1070
     1
1070
     0
1070
     0
1070
     0
1070
     0
1040
0.0
1040
0.0
1040
0.0
1040
0.5
1040
0.5
1040
0.5
1040
0.5
1070
     0
1002
{
1002
}
1002
}
  0
ENDSEC
  0
EOF
