  0
SECTION
  2
HEADER
  9
$ACADVER
  1
AC1009
  9
$INSBASE
 10
0.0
 20
0.0
 30
0.0
  9
$EXTMIN
 10
-0.2849312185895547
 20
-0.1298228453330151
 30
0.0
  9
$EXTMAX
 10
-0.0749312185895557
 20
0.3451771546669869
 30
0.0
  9
$LIMMIN
 10
0.0
 20
0.0
  9
$LIMMAX
 10
1.1999999999999991
 20
1.0
  9
$ORTHOMODE
 70
     1
  9
$REGENMODE
 70
     1
  9
$FILLMODE
 70
     1
  9
$QTEXTMODE
 70
     0
  9
$MIRRTEXT
 70
     1
  9
$DRAGMODE
 70
     2
  9
$LTSCALE
 40
1.0
  9
$OSMODE
 70
    47
  9
$ATTMODE
 70
     1
  9
$TEXTSIZE
 40
0.125
  9
$TRACEWID
 40
0.05
  9
$TEXTSTYLE
  7
STANDARD
  9
$CLAYER
  8
PART
  9
$CELTYPE
  6
BYLAYER
  9
$CECOLOR
 62
     1
  9
$DIMSCALE
 40
0.0
  9
$DIMASZ
 40
0.125
  9
$DIMEXO
 40
0.05
  9
$DIMDLI
 40
0.02
  9
$DIMRND
 40
0.0
  9
$DIMDLE
 40
0.0
  9
$DIMEXE
 40
0.05
  9
$DIMTP
 40
0.005
  9
$DIMTM
 40
0.005
  9
$DIMTXT
 40
0.125
  9
$DIMCEN
 40
0.02
  9
$DIMTSZ
 40
0.0
  9
$DIMTOL
 70
     0
  9
$DIMLIM
 70
     0
  9
$DIMTIH
 70
     1
  9
$DIMTOH
 70
     1
  9
$DIMSE1
 70
     0
  9
$DIMSE2
 70
     0
  9
$DIMTAD
 70
     0
  9
$DIMZIN
 70
     4
  9
$DIMBLK
  1

  9
$DIMASO
 70
     1
  9
$DIMSHO
 70
     1
  9
$DIMPOST
  1

  9
$DIMAPOST
  1

  9
$DIMALT
 70
     0
  9
$DIMALTD
 70
     1
  9
$DIMALTF
 40
25.399999999999999
  9
$DIMLFAC
 40
1.0
  9
$DIMTOFL
 70
     0
  9
$DIMTVP
 40
0.0
  9
$DIMTIX
 70
     0
  9
$DIMSOXD
 70
     0
  9
$DIMSAH
 70
     0
  9
$DIMBLK1
  1

  9
$DIMBLK2
  1

  9
$DIMSTYLE
  2
SCOTTG
  9
$DIMCLRD
 70
   256
  9
$DIMCLRE
 70
   256
  9
$DIMCLRT
 70
   256
  9
$DIMTFAC
 40
1.0
  9
$DIMGAP
 40
0.02
  9
$LUNITS
 70
     2
  9
$LUPREC
 70
     5
  9
$SKETCHINC
 40
0.1
  9
$FILLETRAD
 40
0.01
  9
$AUNITS
 70
     0
  9
$AUPREC
 70
     0
  9
$MENU
  1
.
  9
$ELEVATION
 40
0.0
  9
$PELEVATION
 40
0.0
  9
$THICKNESS
 40
0.0
  9
$LIMCHECK
 70
     0
  9
$BLIPMODE
 70
     0
  9
$CHAMFERA
 40
0.0
  9
$CHAMFERB
 40
0.0
  9
$SKPOLY
 70
     0
  9
$TDCREATE
 40
2450919.3750775461
  9
$TDUPDATE
 40
2455791.6875256598
  9
$TDINDWG
 40
2.3997044329000001
  9
$TDUSRTIMER
 40
2.3997044329000001
  9
$USRTIMER
 70
     1
  9
$ANGBASE
 50
0.0
  9
$ANGDIR
 70
     0
  9
$PDMODE
 70
     0
  9
$PDSIZE
 40
0.0
  9
$PLINEWID
 40
0.0
  9
$COORDS
 70
     1
  9
$SPLFRAME
 70
     0
  9
$SPLINETYPE
 70
     6
  9
$SPLINESEGS
 70
     8
  9
$ATTDIA
 70
     0
  9
$ATTREQ
 70
     1
  9
$HANDLING
 70
     1
  9
$HANDSEED
  5
1A0AB
  9
$SURFTAB1
 70
     6
  9
$SURFTAB2
 70
     6
  9
$SURFTYPE
 70
     6
  9
$SURFU
 70
     6
  9
$SURFV
 70
     6
  9
$UCSNAME
  2

  9
$UCSORG
 10
0.0
 20
0.0
 30
0.0
  9
$UCSXDIR
 10
1.0
 20
0.0
 30
0.0
  9
$UCSYDIR
 10
0.0
 20
1.0
 30
0.0
  9
$PUCSNAME
  2

  9
$PUCSORG
 10
0.0
 20
0.0
 30
0.0
  9
$PUCSXDIR
 10
1.0
 20
0.0
 30
0.0
  9
$PUCSYDIR
 10
0.0
 20
1.0
 30
0.0
  9
$USERI1
 70
     0
  9
$USERI2
 70
     0
  9
$USERI3
 70
     0
  9
$USERI4
 70
     0
  9
$USERI5
 70
     0
  9
$USERR1
 40
0.0
  9
$USERR2
 40
0.0
  9
$USERR3
 40
0.0
  9
$USERR4
 40
0.0
  9
$USERR5
 40
0.0
  9
$WORLDVIEW
 70
     1
  9
$SHADEDGE
 70
     3
  9
$SHADEDIF
 70
    70
  9
$TILEMODE
 70
     1
  9
$MAXACTVP
 70
    48
  9
$PLIMCHECK
 70
     0
  9
$PEXTMIN
 10
0.0
 20
0.0
 30
0.0
  9
$PEXTMAX
 10
8.5
 20
11.0
 30
0.0
  9
$PLIMMIN
 10
0.0000001811605737
 20
-0.0000001192092895
  9
$PLIMMAX
 10
8.4999999408646811
 20
10.999999640494821
  9
$UNITMODE
 70
     0
  9
$VISRETAIN
 70
     1
  9
$PLINEGEN
 70
     0
  9
$PSLTSCALE
 70
     1
  0
ENDSEC
  0
SECTION
  2
TABLES
  0
TABLE
  2
VPORT
 70
     1
  0
VPORT
  2
*ACTIVE
 70
     0
 10
0.0
 20
0.0
 11
1.0
 21
1.0
 12
-19.901918552983801
 22
-0.5314900057648651
 13
0.0
 23
0.0
 14
0.5
 24
0.5
 15
0.5
 25
0.5
 16
0.0
 26
0.0
 36
5.6148375865943736
 17
19.721987045995348
 27
0.6391778487130584
 37
0.0
 40
0.4783644078714169
 41
1.006734006734006
 42
50.0
 43
0.0
 44
0.0
 50
0.0
 51
0.0
 71
     0
 72
 20000
 73
     1
 74
     0
 75
     0
 76
     0
 77
     0
 78
     0
  0
ENDTAB
  0
TABLE
  2
LTYPE
 70
     1
  0
LTYPE
  2
CONTINUOUS
 70
     0
  3
Solid line
 72
    65
 73
     0
 40
0.0
  0
ENDTAB
  0
TABLE
  2
LAYER
 70
     5
  0
LAYER
  2
0
 70
     0
 62
     7
  6
CONTINUOUS
  0
LAYER
  2
DEFPOINTS
 70
     0
 62
     7
  6
CONTINUOUS
  0
LAYER
  2
HATCH
 70
     0
 62
     7
  6
CONTINUOUS
  0
LAYER
  2
PART
 70
     0
 62
     7
  6
CONTINUOUS
  0
LAYER
  2
DIM
 70
     0
 62
     7
  6
CONTINUOUS
  0
ENDTAB
  0
TABLE
  2
STYLE
 70
     2
  0
STYLE
  2
STANDARD
 70
     0
 40
0.0
 41
1.0
 50
0.0
 71
     0
 42
0.125
  3
txt
  4

  0
STYLE
  2
ROMANS
 70
     0
 40
0.0
 41
1.0
 50
0.0
 71
     0
 42
0.1
  3
SIMPLEX.shx
  4

  0
ENDTAB
  0
TABLE
  2
VIEW
 70
     0
  0
ENDTAB
  0
TABLE
  2
UCS
 70
     0
  0
ENDTAB
  0
TABLE
  2
APPID
 70
    16
  0
APPID
  2
ACAD
 70
     0
  0
APPID
  2
ADP_SK
 70
     0
  0
APPID
  2
ADP_SOL
 70
     0
  0
APPID
  2
ACIS_LNK
 70
     0
  0
APPID
  2
AME_SOL
 70
     0
  0
APPID
  2
ACAD_MLEADERVER
 70
     0
  0
APPID
  2
ACAD_EXEMPT_FROM_CAD_STANDARDS
 70
     0
  0
APPID
  2
ACAD_PSEXT
 70
     0
  0
APPID
  2
ACDBDYNAMICBLOCKGUID
 70
     0
  0
APPID
  2
ACDBBLOCKREPETAG
 70
     0
  0
APPID
  2
ACDBDYNAMICBLOCKTRUENAME
 70
     0
  0
APPID
  2
ACAD_DSTYLE_DIMJAG
 70
     0
  0
APPID
  2
ACAD_DSTYLE_DIMTALN
 70
     0
  0
APPID
  2
ACAECLAYERSTANDARD
 70
     0
  0
APPID
  2
ACAUTHENVIRON
 70
     0
  0
APPID
  2
ACADANNOPO
 70
     0
  0
ENDTAB
  0
TABLE
  2
DIMSTYLE
 70
     1
  0
DIMSTYLE
  2
SCOTTG
 70
     0
  3

  4

  5

  6

  7

 40
0.15
 41
0.125
 42
0.1
 43
0.25
 44
0.1
 45
0.0
 46
0.0
 47
0.01
 48
0.01
140
0.125
141
0.06
142
0.0
143
25.399999999999999
144
1.0
145
0.0
146
1.0
147
0.09
 71
     1
 72
     0
 73
     1
 74
     1
 75
     0
 76
     0
 77
     0
 78
     4
170
     0
171
     1
172
     0
173
     0
174
     1
175
     0
176
   256
177
   256
178
   256
  0
ENDTAB
  0
ENDSEC
  0
SECTION
  2
BLOCKS
  0
BLOCK
  8
0
  2
$MODEL_SPACE
 70
     0
 10
0.0
 20
0.0
 30
0.0
  3
$MODEL_SPACE
  1

  0
ENDBLK
  5
1A
  8
0
  0
BLOCK
 67
     1
  8
0
  2
$PAPER_SPACE
 70
     0
 10
0.0
 20
0.0
 30
0.0
  3
$PAPER_SPACE
  1

  0
ENDBLK
  5
B932
 67
     1
  8
0
  0
BLOCK
  8
0
 62
     1
  2
*X4
 70
     1
 10
0.0
 20
0.0
 30
0.0
  3
*X4
  1

  0
LINE
  5
1A068
  8
0
 62
     0
 10
-0.2128410833053875
 20
-0.1258602857214583
 30
0.0
 11
-0.1849312185895529
 21
-0.0979504210056237
 31
0.0
  0
LINE
  5
1A069
  8
0
 62
     0
 10
-0.2189312185895544
 20
-0.0877562471814662
 30
0.0
 11
-0.1849312185895529
 21
-0.0537562471814646
 31
0.0
  0
LINE
  5
1A06A
  8
0
 62
     0
 10
-0.218931218589554
 20
-0.0435620733573066
 30
0.0
 11
-0.1849312185895529
 21
-0.0095620733573054
 31
0.0
  0
LINE
  5
1A06B
  8
0
 62
     0
 10
-0.1243861643894211
 20
0.0951771546669855
 30
0.0
 11
-0.0993861643894221
 21
0.120177154666985
 31
0.0
  0
LINE
  5
1A06C
  8
0
 62
     0
 10
-0.218931218589554
 20
0.000632100466853
 30
0.0
 11
-0.1849312185895529
 21
0.0346321004668542
 31
0.0
  0
LINE
  5
1A06D
  8
0
 62
     0
 10
-0.1685803382135815
 20
0.0951771546669842
 30
0.0
 11
-0.1435803382135803
 21
0.1201771546669854
 31
0.0
  0
LINE
  5
1A06E
  8
0
 62
     0
 10
-0.218931218589554
 20
0.0448262742910117
 30
0.0
 11
-0.1849312185895529
 21
0.0788262742910129
 31
0.0
  0
LINE
  5
1A06F
  8
0
 62
     0
 10
-0.2189312185895536
 20
0.0890204481151718
 30
0.0
 11
-0.1738528653136475
 21
0.1340988013910778
 31
0.0
  0
LINE
  5
1A070
  8
0
 62
     0
 10
-0.2569686858619011
 20
0.0951771546669829
 30
0.0
 11
-0.2319686858618994
 21
0.1201771546669845
 31
0.0
  0
LINE
  5
1A071
  8
0
 62
     0
 10
-0.2848438472054111
 20
0.1114961671476324
 30
0.0
 11
-0.2762502310702031
 21
0.1200897832828405
 31
0.0
  0
ENDBLK
  5
1A073
  8
0
 62
     1
  0
BLOCK
  8
0
 62
     1
  2
*X5
 70
     1
 10
0.0
 20
0.0
 30
0.0
  3
*X5
  1

  0
LINE
  5
1A087
  8
0
 62
     0
 10
-0.080507028358787
 20
0.2558930492613003
 30
0.0
 11
-0.0884693968018562
 21
0.2856090128394175
 31
0.0
  0
LINE
  5
1A088
  8
0
 62
     0
 10
-0.1068358244023491
 20
0.3058571624835391
 30
0.0
 11
-0.1096335599873499
 21
0.3162984538329052
 31
0.0
  0
LINE
  5
1A089
  8
0
 62
     0
 10
-0.0834910108305203
 20
0.2187331321402501
 30
0.0
 11
-0.08628874641552
 21
0.2291744234896127
 31
0.0
  0
LINE
  5
1A08A
  8
0
 62
     0
 10
-0.1241160373068644
 20
0.322051503694345
 30
0.0
 11
-0.1260986914076647
 21
0.3294508695323666
 31
0.0
  0
LINE
  5
1A08B
  8
0
 62
     0
 10
-0.0911740250674314
 20
0.1991102403132245
 30
0.0
 11
-0.0931566791682308
 21
0.2065096061512435
 31
0.0
  0
LINE
  5
1A08C
  8
0
 62
     0
 10
-0.1394923850132403
 20
0.3311405232549314
 30
0.0
 11
-0.1411572990347603
 21
0.3373540669734778
 31
0.0
  0
LINE
  5
1A08D
  8
0
 62
     0
 10
-0.1002635630975628
 20
0.1847365667445508
 30
0.0
 11
-0.101928477119082
 21
0.1909501104630946
 31
0.0
  0
LINE
  5
1A08E
  8
0
 62
     0
 10
-0.1538788062864795
 20
0.3365350870712955
 30
0.0
 11
-0.1553739308252615
 21
0.3421149678136741
 31
0.0
  0
LINE
  5
1A08F
  8
0
 62
     0
 10
-0.1101950769642885
 20
0.173505189776793
 30
0.0
 11
-0.1116902015030698
 21
0.1790850705191671
 31
0.0
  0
LINE
  5
1A090
  8
0
 62
     0
 10
-0.1675795771867579
 20
0.3393707688595429
 30
0.0
 11
-0.1689740588398954
 21
0.3445750452392753
 31
0.0
  0
LINE
  5
1A091
  8
0
 62
     0
 10
-0.1207430946068808
 20
0.1645746362236267
 30
0.0
 11
-0.1221375762600174
 21
0.1697789126033555
 31
0.0
  0
LINE
  5
1A092
  8
0
 62
     0
 10
-0.1317001527782933
 20
0.1571706427063724
 30
0.0
 11
-0.133129611929429
 21
0.1625054568857545
 31
0.0
  0
LINE
  5
1A093
  8
0
 62
     0
 10
-0.1807356871745735
 20
0.3401737484495815
 30
0.0
 11
-0.1820702153791993
 21
0.3451542755133792
 31
0.0
  0
LINE
  5
1A094
  8
0
 62
     0
 10
-0.1217843907006701
 20
0.1201645148369179
 30
0.0
 11
-0.1218758035183363
 21
0.1205056721169111
 31
0.0
  0
LINE
  5
1A095
  8
0
 62
     0
 10
-0.1934196658206839
 20
0.3392147098845308
 30
0.0
 11
-0.1947225623059048
 21
0.3440771857643776
 31
0.0
  0
LINE
  5
1A096
  8
0
 62
     0
 10
-0.1347253429557964
 20
0.1201645148369188
 30
0.0
 11
-0.1445937789405454
 21
0.1569940193232426
 31
0.0
  0
LINE
  5
1A097
  8
0
 62
     0
 10
-0.2056666749798555
 20
0.3366248789928674
 30
0.0
 11
-0.2069608666880875
 21
0.3414548682027236
 31
0.0
  0
LINE
  5
1A098
  8
0
 62
     0
 10
-0.147666295210922
 20
0.1201645148369179
 30
0.0
 11
-0.1564949154385999
 21
0.1531133740873418
 31
0.0
  0
LINE
  5
1A099
  8
0
 62
     0
 10
-0.2174860338571118
 20
0.332439035521225
 30
0.0
 11
-0.2187930864973981
 21
0.3373170223829405
 31
0.0
  0
LINE
  5
1A09A
  8
0
 62
     0
 10
-0.1608593177074411
 20
0.1211052537848722
 30
0.0
 11
-0.1688237022185708
 21
0.1508287414314227
 31
0.0
  0
LINE
  5
1A09B
  8
0
 62
     0
 10
-0.2288639201449569
 20
0.3266055939157502
 30
0.0
 11
-0.2302074288341112
 21
0.331619636604084
 31
0.0
  0
LINE
  5
1A09C
  8
0
 62
     0
 10
-0.178536987237105
 20
0.1387829233145359
 30
0.0
 11
-0.1815939615879525
 21
0.1501917069093341
 31
0.0
  0
LINE
  5
1A09D
  8
0
 62
     0
 10
-0.2397593119253401
 20
0.3189714582940555
 30
0.0
 11
-0.2411692648850234
 21
0.3242334743758759
 31
0.0
  0
LINE
  5
1A09E
  8
0
 62
     0
 10
-0.1893271237837257
 20
0.1307559698126779
 30
0.0
 11
-0.1948467154647955
 21
0.1513553664034646
 31
0.0
  0
LINE
  5
1A09F
  8
0
 62
     0
 10
-0.2500900024038744
 20
0.3092298287227599
 30
0.0
 11
-0.2516107884177672
 21
0.3149054793940484
 31
0.0
  0
LINE
  5
1A0A0
  8
0
 62
     0
 10
-0.1995333310453224
 20
0.1205497625510814
 30
0.0
 11
-0.2086641706434882
 21
0.1546265198471985
 31
0.0
  0
LINE
  5
1A0A1
  8
0
 62
     0
 10
-0.2596948132531531
 20
0.2967791794949033
 30
0.0
 11
-0.2614046934580472
 21
0.3031605392944243
 31
0.0
  0
LINE
  5
1A0A2
  8
0
 62
     0
 10
-0.2123710564865526
 20
0.1201645148369188
 30
0.0
 11
-0.2232075054514364
 21
0.1606066929474919
 31
0.0
  0
LINE
  5
1A0A3
  8
0
 62
     0
 10
-0.2367616998549018
 20
0.1628953438024387
 30
0.0
 11
-0.2388383877141762
 21
0.1706456484047125
 31
0.0
  0
LINE
  5
1A0A4
  8
0
 62
     0
 10
-0.2682120766476395
 20
0.280269747910121
 30
0.0
 11
-0.2702887645069147
 21
0.2880200525123975
 31
0.0
  0
LINE
  5
1A0A5
  8
0
 62
     0
 10
-0.2253120087416782
 20
0.1201645148369188
 30
0.0
 11
-0.2269489662649022
 21
0.1262737234834219
 31
0.0
  0
LINE
  5
1A0A6
  8
0
 62
     0
 10
-0.2536429268738971
 20
0.1776006494169788
 30
0.0
 11
-0.2567878146437013
 21
0.1893375303579896
 31
0.0
  0
LINE
  5
1A0A7
  8
0
 62
     0
 10
-0.2744107953753416
 20
0.2551073898292788
 30
0.0
 11
-0.2775556831451464
 21
0.2668442707702932
 31
0.0
  0
LINE
  5
1A0A8
  8
0
 62
     0
 10
-0.2382529609968047
 20
0.1201645148369188
 30
0.0
 11
-0.2383284412338849
 21
0.1204462109166693
 31
0.0
  0
ENDBLK
  5
1A0AA
  8
0
 62
     1
  0
ENDSEC
  0
SECTION
  2
ENTITIES
  0
POLYLINE
  5
19D01
  8
PART
 66
     1
 10
0.0
 20
0.0
 30
0.0
 70
     1
1001
ACAD
1000
ASC_BOUNDS
1002
{
1070
    19
1005
19D02
1002
}
  0
VERTEX
  5
1A055
  8
PART
 10
-0.2130466032049396
 20
-0.1256855132076069
 30
0.0
 42
0.6421871185405056
  0
VERTEX
  5
1A056
  8
PART
 10
-0.1849312185895533
 20
-0.1128228453330147
 30
0.0
  0
VERTEX
  5
1A057
  8
PART
 10
-0.1849312185895533
 20
0.0951771546669846
 30
0.0
  0
VERTEX
  5
1A058
  8
PART
 10
-0.0849312185895555
 20
0.0951771546669855
 30
0.0
 42
0.4142135623730982
  0
VERTEX
  5
1A059
  8
PART
 10
-0.0749312185895557
 20
0.1051771546669853
 30
0.0
  0
VERTEX
  5
1A05A
  8
PART
 10
-0.0749312185895557
 20
0.1101771546669852
 30
0.0
 42
0.4142135623730951
  0
VERTEX
  5
1A05B
  8
PART
 10
-0.0849312185895555
 20
0.120177154666985
 30
0.0
  0
VERTEX
  5
1A05C
  8
PART
 10
-0.1599312185895547
 20
0.1201771546669859
 30
0.0
  0
VERTEX
  5
1A05D
  8
PART
 10
-0.1799312185895543
 20
0.1401771546669845
 30
0.0
  0
VERTEX
  5
1A05E
  8
PART
 10
-0.1999312185895539
 20
0.120177154666985
 30
0.0
  0
VERTEX
  5
1A05F
  8
PART
 10
-0.2749312185895532
 20
0.120177154666985
 30
0.0
 42
0.4142135623730723
  0
VERTEX
  5
1A060
  8
PART
 10
-0.2849312185895547
 20
0.1101771546669861
 30
0.0
  0
VERTEX
  5
1A061
  8
PART
 10
-0.2849312185895547
 20
0.1051771546669835
 30
0.0
 42
0.4142135623730982
  0
VERTEX
  5
1A062
  8
PART
 10
-0.2749312185895567
 20
0.0951771546669838
 30
0.0
  0
VERTEX
  5
1A063
  8
PART
 10
-0.218931218589554
 20
0.0951771546669838
 30
0.0
  0
VERTEX
  5
1A064
  8
PART
 10
-0.218931218589554
 20
-0.1128228453330147
 30
0.0
  0
VERTEX
  5
1A065
  8
PART
 10
-0.2279312185895543
 20
-0.1128228453330138
 30
0.0
  0
SEQEND
  5
1A066
  8
PART
  0
INSERT
  5
19D02
  8
HATCH
  6
CONTINUOUS
  2
*X4
 10
0.0
 20
0.0
 30
0.0
1001
ACAD
1000
HATCH
1002
{
1070
    19
1000
ANSI31
1040
0.25
1040
0.0
1000
ASC_BOUNDS
1070
     1
1070
     2
1070
     1
1005
19D01
1000
ASC_SEEDPOINT
1011
-0.9641677003897521
1021
0.0
1031
0.0
1021
-5.4326417950473411
1031
0.0
1000
R14_HATCH_DATA
1000
19D02
1011
1.0
1021
0.0
1031
0.0
1021
0.0
1031
0.0
1011
0.0
1021
0.0
1031
0.0
1021
1.0
1031
0.0
1011
0.0
1021
0.0
1031
0.0
1021
0.0
1031
1.0
1040
0.0
1010
0.0
1020
0.0
1030
1.0
1000
ANSI31
1070
     0
1070
     1
1071
        1
1071
        1
1071
       17
1070
     2
1040
-0.201931218589554
1040
-0.1128228453330143
1040
0.0170000000000008
1040
3.9997323523664279
1040
6.283185307179564
1070
     1
1070
     1
1040
-0.1849312185895533
1040
-0.1128228453330147
1040
-0.1849312185895533
1040
0.0951771546669846
1070
     1
1040
-0.1849312185895533
1040
0.0951771546669846
1040
-0.0849312185895555
1040
0.0951771546669855
1070
     2
1040
-0.0849312185895554
1040
0.1051771546669852
1040
0.0099999999999997
1040
4.7123889803846843
1040
6.2831853071795907
1070
     1
1070
     1
1040
-0.0749312185895557
1040
0.1051771546669853
1040
-0.0749312185895557
1040
0.1101771546669852
1070
     2
1040
-0.0849312185895555
1040
0.1101771546669852
1040
0.0099999999999998
1040
0.0
1040
1.5707963267948959
1070
     1
1070
     1
1040
-0.0849312185895555
1040
0.120177154666985
1040
-0.1599312185895547
1040
0.1201771546669859
1070
     1
1040
-0.1599312185895547
1040
0.1201771546669859
1040
-0.1799312185895543
1040
0.1401771546669845
1070
     1
1040
-0.1799312185895543
1040
0.1401771546669845
1040
-0.1999312185895539
1040
0.120177154666985
1070
     1
1040
-0.1999312185895539
1040
0.120177154666985
1040
-0.2749312185895532
1040
0.120177154666985
1070
     2
1040
-0.2749312185895541
1040
0.1101771546669843
1040
0.0100000000000006
1040
1.570796326794802
1040
3.1415926535896208
1070
     1
1070
     1
1040
-0.2849312185895547
1040
0.1101771546669861
1040
-0.2849312185895547
1040
0.1051771546669835
1070
     2
1040
-0.2749312185895559
1040
0.1051771546669826
1040
0.0099999999999988
1040
3.1415926535896981
1040
4.7123889803846062
1070
     1
1070
     1
1040
-0.2749312185895567
1040
0.0951771546669838
1040
-0.218931218589554
1040
0.0951771546669838
1070
     1
1040
-0.218931218589554
1040
0.0951771546669838
1040
-0.218931218589554
1040
-0.1128228453330147
1070
     1
1040
-0.218931218589554
1040
-0.1128228453330147
1040
-0.2279312185895543
1040
-0.1128228453330138
1070
     1
1040
-0.2279312185895543
1040
-0.1128228453330138
1040
-0.2130466032049396
1040
-0.1256855132076069
1071
        1
1005
19D01
1070
     0
1070
     1
1040
0.0
1040
0.25
1070
     0
1070
     1
1040
0.7853981633974483
1040
-0.9872153690217428
1040
-5.5848169967986898
1040
-0.0220970869120796
1040
0.0220970869120796
1070
     0
1071
        1
1040
-0.9641677003897521
1040
-5.4326417950473411
1040
0.0
1002
}
  0
POLYLINE
  5
19D04
  8
PART
 66
     1
 10
0.0
 20
0.0
 30
0.0
 70
     1
  0
VERTEX
  5
1A074
  8
PART
 10
-0.1849312185895533
 20
-0.1128228453330147
 30
0.0
  0
VERTEX
  5
1A075
  8
PART
 10
-0.1849312185895533
 20
-0.0851100324119125
 30
0.0
  0
VERTEX
  5
1A076
  8
PART
 10
-0.1349312185895561
 20
-0.0562425189524323
 30
0.0
  0
VERTEX
  5
1A077
  8
PART
 10
-0.1229312185895539
 20
-0.077027128643258
 30
0.0
  0
SEQEND
  5
1A078
  8
PART
  0
POLYLINE
  5
19D05
  8
PART
 66
     1
 10
0.0
 20
0.0
 30
0.0
 70
     1
  0
VERTEX
  5
1A079
  8
PART
 10
-0.1229312185895557
 20
0.0129728713567419
 30
0.0
  0
VERTEX
  5
1A07A
  8
PART
 10
-0.1849312185895533
 20
-0.0228228453330148
 30
0.0
  0
VERTEX
  5
1A07B
  8
PART
 10
-0.1849312185895533
 20
0.0048899675880865
 30
0.0
  0
VERTEX
  5
1A07C
  8
PART
 10
-0.1349312185895544
 20
0.0337574810475685
 30
0.0
  0
SEQEND
  5
1A07D
  8
PART
  0
CIRCLE
  5
19D09
  8
PART
 10
-0.1799312185895543
 20
0.2451771546669841
 30
0.0
 40
0.095
1001
ACAD
1000
ASC_BOUNDS
1002
{
1070
    19
1005
19D0B
1002
}
  0
POLYLINE
  5
19D0A
  8
PART
 66
     1
 10
0.0
 20
0.0
 30
0.0
 70
     1
1001
ACAD
1000
ASC_BOUNDS
1002
{
1070
    19
1005
19D0B
1002
}
  0
VERTEX
  5
1A07E
  8
PART
 10
-0.1599185787594868
 20
0.1201645148369179
 30
0.0
  0
VERTEX
  5
1A07F
  8
PART
 10
-0.1181058940406414
 20
0.1201645148369179
 30
0.0
 42
-0.7622970318488368
  0
VERTEX
  5
1A080
  8
PART
 10
-0.1288359090449935
 20
0.1592162953032856
 30
0.0
 42
3.6394898283476058
  0
VERTEX
  5
1A081
  8
PART
 10
-0.2310265281341151
 20
0.1592162953032856
 30
0.0
 42
-0.7622970318488413
  0
VERTEX
  5
1A082
  8
PART
 10
-0.2417565431384672
 20
0.1201645148369179
 30
0.0
  0
VERTEX
  5
1A083
  8
PART
 10
-0.1999185787594859
 20
0.1201645148369179
 30
0.0
  0
VERTEX
  5
1A084
  8
PART
 10
-0.1799185787594864
 20
0.1401645148369175
 30
0.0
  0
SEQEND
  5
1A085
  8
PART
  0
INSERT
  5
19D0B
  8
HATCH
  6
CONTINUOUS
  2
*X5
 10
0.0
 20
0.0
 30
0.0
1001
ACAD
1000
HATCH
1002
{
1070
    19
1000
ANSI31
1040
0.1
1040
1.047197551196597
1000
ASC_BOUNDS
1070
     2
1070
     2
1070
     1
1005
19D0A
1070
     2
1070
     1
1005
19D09
1000
ASC_SEEDPOINT
1011
-0.9641677003897521
1021
0.0
1031
0.0
1021
-5.4326417950473411
1031
0.0
1000
R14_HATCH_DATA
1000
19D0B
1011
1.0
1021
0.0
1031
0.0
1021
0.0
1031
0.0
1011
0.0
1021
0.0
1031
0.0
1021
1.0
1031
0.0
1011
0.0
1021
0.0
1031
0.0
1021
0.0
1031
1.0
1040
0.0
1010
0.0
1020
0.0
1030
1.0
1000
ANSI31
1070
     0
1070
     1
1071
        2
1071
       16
1071
        1
1070
     2
1040
-0.1799312185895543
1040
0.2451771546669841
1040
0.095
1040
0.0
1040
6.2831853071795862
1070
     1
1071
        1
1005
19D09
1071
        1
1071
        7
1070
     1
1040
-0.1599185787594868
1040
0.1201645148369179
1040
-0.1181058940406414
1040
0.1201645148369179
1070
     2
1040
-0.1181058940406398
1040
0.1411645148369127
1040
0.0209999999999948
1040
1.5707963267949721
1040
4.1760957998633641
1070
     0
1070
     2
1040
-0.1799312185895543
1040
0.2451771546669855
1040
0.1000000000000014
1040
5.2486821609060827
1040
10.45928110704288
1070
     1
1070
     2
1040
-0.2417565431384686
1040
0.1411645148369126
1040
0.0209999999999947
1040
5.248682160906009
1040
7.8539816339744117
1070
     0
1070
     1
1040
-0.2417565431384672
1040
0.1201645148369179
1040
-0.1999185787594859
1040
0.1201645148369179
1070
     1
1040
-0.1999185787594859
1040
0.1201645148369179
1040
-0.1799185787594864
1040
0.1401645148369175
1070
     1
1040
-0.1799185787594864
1040
0.1401645148369175
1040
-0.1599185787594868
1040
0.1201645148369179
1071
        1
1005
19D0A
1070
     0
1070
     1
1040
1.047197551196597
1040
0.1
1070
     0
1070
     1
1040
1.832595714594045
1040
-0.9872153690217428
1040
-5.5848169967986898
1040
-0.0120740728286134
1040
-0.0032352380637815
1070
     0
1071
        1
1040
-0.9641677003897521
1040
-5.4326417950473411
1040
0.0
1002
}
  0
CIRCLE
  5
19D0C
  8
HATCH
 10
-0.1719929625486509
 20
0.1625000000000032
 30
0.0
 40
0.0045
  0
POINT
  5
19D0D
  8
DIM
  6
BYBLOCK
 10
-0.1849312185895533
 20
0.0526688599805558
 30
0.0
  0
POINT
  5
19D0E
  8
DIM
  6
BYBLOCK
 10
-0.1849312185895533
 20
0.0526688599805558
 30
0.0
  0
LINE
  5
19D0F
  8
DIM
  6
BYBLOCK
 10
-0.1849312185895533
 20
0.0646688599805554
 30
0.0
 11
-0.1849312185895533
 21
0.0646688599805554
 31
0.0
  0
POINT
  5
19D10
  8
DIM
  6
BYBLOCK
 10
-0.218931218589554
 20
0.0526688599805558
 30
0.0
  0
LINE
  5
19D11
  8
DIM
  6
BYBLOCK
 10
-0.218931218589554
 20
0.0646688599805554
 30
0.0
 11
-0.218931218589554
 21
0.0646688599805554
 31
0.0
  0
CIRCLE
  5
19D12
  8
HATCH
 10
-0.2240685974523737
 20
0.2156633558493324
 30
0.0
 40
0.0045
  0
CIRCLE
  5
19D13
  8
HATCH
 10
-0.233679787014192
 20
0.2027767111019605
 30
0.0
 40
0.00225
  0
LINE
  5
19D14
  8
HATCH
 10
-0.249401393248907
 20
0.2005549475169444
 30
0.0
 11
-0.249401393248907
 21
0.2005549475169444
 31
0.0
  0
CIRCLE
  5
19D15
  8
HATCH
 10
-0.2292656748395982
 20
0.2416387794239414
 30
0.0
 40
0.00225
  0
LINE
  5
19D16
  8
HATCH
 10
-0.2328946215801819
 20
0.2273746643522694
 30
0.0
 11
-0.2328946215801819
 21
0.2273746643522694
 31
0.0
  0
LINE
  5
19D17
  8
HATCH
 10
-0.2617024208356709
 20
0.2506336351692751
 30
0.0
 11
-0.2617024208356709
 21
0.2506336351692751
 31
0.0
  0
CIRCLE
  5
19D18
  8
HATCH
 10
-0.2580734740950872
 20
0.2648977502409471
 30
0.0
 40
0.00225
  0
CIRCLE
  5
19D19
  8
HATCH
 10
-0.2390175813893078
 20
0.2579709706210513
 30
0.0
 40
0.00225
  0
CIRCLE
  5
19D1A
  8
HATCH
 10
-0.2528763967078627
 20
0.2389223266663381
 30
0.0
 40
0.0045
  0
LINE
  5
19D1B
  8
HATCH
 10
-0.2373265943830232
 20
0.2871834414380485
 30
0.0
 11
-0.2373265943830232
 21
0.2871834414380485
 31
0.0
  0
CIRCLE
  5
19D1C
  8
HATCH
 10
-0.2336976476424395
 20
0.3014475565097205
 30
0.0
 40
0.00225
  0
CIRCLE
  5
19D1D
  8
HATCH
 10
-0.2285005702552167
 20
0.2754721329351115
 30
0.0
 40
0.0045
  0
CIRCLE
  5
19D1E
  8
HATCH
 10
-0.156939894021261
 20
0.2204255247646456
 30
0.0
 40
0.003375
  0
CIRCLE
  5
19D1F
  8
HATCH
 10
-0.1881222573450314
 20
0.2983517426442406
 30
0.0
 40
0.003375
  0
CIRCLE
  5
19D20
  8
HATCH
 10
-0.1954847656079606
 20
0.2641507920509101
 30
0.0
 40
0.00225
  0
LINE
  5
19D21
  8
HATCH
 10
-0.2016446215801819
 20
0.2898746643522694
 30
0.0
 11
-0.2016446215801819
 21
0.2898746643522694
 31
0.0
  0
CIRCLE
  5
19D22
  8
HATCH
 10
-0.1850906396905332
 20
0.2433704743289153
 30
0.0
 40
0.00225
  0
LINE
  5
19D23
  8
HATCH
 10
-0.1860196215801819
 20
0.2586246643522694
 30
0.0
 11
-0.1860196215801819
 21
0.2586246643522694
 31
0.0
  0
CIRCLE
  5
19D24
  8
HATCH
 10
-0.160837684026041
 20
0.2494313906430543
 30
0.0
 40
0.0045
  0
LINE
  5
19D25
  8
HATCH
 10
-0.1703946215801819
 20
0.2273746643522694
 30
0.0
 11
-0.1703946215801819
 21
0.2273746643522694
 31
0.0
  0
LINE
  5
19D26
  8
HATCH
 10
-0.1547696215801819
 20
0.2586246643522694
 30
0.0
 11
-0.1547696215801819
 21
0.2586246643522694
 31
0.0
  0
LINE
  5
19D27
  8
HATCH
 10
-0.1703946215801819
 20
0.2898746643522694
 30
0.0
 11
-0.1703946215801819
 21
0.2898746643522694
 31
0.0
  0
LINE
  5
19D28
  8
HATCH
 10
-0.1564431602238114
 20
0.2816455892374874
 30
0.0
 11
-0.1564431602238114
 21
0.2816455892374874
 31
0.0
  0
CIRCLE
  5
19D29
  8
HATCH
 10
-0.1528142134832278
 20
0.2959097043091594
 30
0.0
 40
0.00225
  0
CIRCLE
  5
19D2A
  8
HATCH
 10
-0.147617136096005
 20
0.2699342807345504
 30
0.0
 40
0.0045
  0
CIRCLE
  5
19D2B
  8
HATCH
 10
-0.1374509151403407
 20
0.2121999766082316
 30
0.0
 40
0.00225
  0
LINE
  5
19D2C
  8
HATCH
 10
-0.1219822973784188
 20
0.212738213932826
 30
0.0
 11
-0.1219822973784188
 21
0.212738213932826
 31
0.0
  0
CIRCLE
  5
19D2D
  8
HATCH
 10
-0.1296553207022706
 20
0.297918826844632
 30
0.0
 40
0.00225
  0
LINE
  5
19D2E
  8
HATCH
 10
-0.1391446215801819
 20
0.2273746643522694
 30
0.0
 11
-0.1391446215801819
 21
0.2273746643522694
 31
0.0
  0
CIRCLE
  5
19D2F
  8
HATCH
 10
-0.1287891483519887
 20
0.2433704637600682
 30
0.0
 40
0.00225
  0
LINE
  5
19D30
  8
HATCH
 10
-0.1235196215801819
 20
0.2586246643522694
 30
0.0
 11
-0.1235196215801819
 21
0.2586246643522694
 31
0.0
  0
CIRCLE
  5
19D31
  8
HATCH
 10
-0.1337583207774484
 20
0.2889829246892637
 30
0.0
 40
0.00225
  0
LINE
  5
19D32
  8
HATCH
 10
-0.1186583153799896
 20
0.2736545600544913
 30
0.0
 11
-0.1186583153799896
 21
0.2736545600544913
 31
0.0
  0
CIRCLE
  5
19D33
  8
HATCH
 10
-0.2102097821338189
 20
0.2347119998040457
 30
0.0
 40
0.00225
  0
LINE
  5
19D34
  8
HATCH
 10
-0.2172696215801819
 20
0.2586246643522694
 30
0.0
 11
-0.2172696215801819
 21
0.2586246643522694
 31
0.0
  0
CIRCLE
  5
19D35
  8
HATCH
 10
-0.2146417549366602
 20
0.2945207768898248
 30
0.0
 40
0.00225
  0
LINE
  5
19D36
  8
HATCH
 10
-0.1860196215801819
 20
0.1961246643522694
 30
0.0
 11
-0.1860196215801819
 21
0.1961246643522694
 31
0.0
  0
LINE
  5
19D37
  8
HATCH
 10
-0.1808189866764591
 20
0.1742113085029402
 30
0.0
 11
-0.1808189866764591
 21
0.1742113085029402
 31
0.0
  0
CIRCLE
  5
19D38
  8
HATCH
 10
-0.201548015345467
 20
0.1761950331772955
 30
0.0
 40
0.00225
  0
CIRCLE
  5
19D39
  8
HATCH
 10
-0.1581341472300961
 20
0.1815486439547156
 30
0.0
 40
0.00225
  0
LINE
  5
19D3A
  8
HATCH
 10
-0.1547696215801819
 20
0.1961246643522694
 30
0.0
 11
-0.1547696215801819
 21
0.1961246643522694
 31
0.0
  0
CIRCLE
  5
19D3B
  8
HATCH
 10
-0.1771900399358754
 20
0.1884754235746113
 30
0.0
 40
0.00225
  0
CIRCLE
  5
19D3C
  8
HATCH
 10
-0.1206645811862552
 20
0.18727073055729
 30
0.0
 40
0.00225
  0
LINE
  5
19D3D
  8
HATCH
 10
-0.1363861874209702
 20
0.1850489669722739
 30
0.0
 11
-0.1363861874209702
 21
0.1850489669722739
 31
0.0
  0
LINE
  5
19D3E
  8
HATCH
 10
-0.2172696215801819
 20
0.1961246643522694
 30
0.0
 11
-0.2172696215801819
 21
0.1961246643522694
 31
0.0
  0
LINE
  5
19D3F
  8
HATCH
 10
-0.2172696215801819
 20
0.1739732695922793
 30
0.0
 11
-0.2172696215801819
 21
0.1739732695922793
 31
0.0
  0
CIRCLE
  5
19D40
  8
HATCH
 10
-0.201548015345467
 20
0.1983464279372855
 30
0.0
 40
0.00225
  0
POINT
  5
19D41
  8
DIM
  6
BYBLOCK
 10
-0.0749312185895557
 20
0.1101771546669852
 30
0.0
  0
CIRCLE
  5
19D43
  8
HATCH
 10
-0.1062606911437038
 20
0.2149599775178421
 30
0.0
 40
0.00225
  0
CIRCLE
  5
19D44
  8
HATCH
 10
-0.1029367091452746
 20
0.2758763236395074
 30
0.0
 40
0.00225
  0
CIRCLE
  5
19D45
  8
HATCH
 10
-0.1882521065221345
 20
0.3190715511447282
 30
0.0
 40
0.00225
  0
LINE
  5
19D46
  8
HATCH
 10
-0.2039737127568495
 20
0.316849787559712
 30
0.0
 11
-0.2039737127568495
 21
0.316849787559712
 31
0.0
  0
CIRCLE
  5
19D47
  8
HATCH
 10
-0.1605522980710594
 20
0.3157488440370697
 30
0.0
 40
0.00225
  0
LINE
  5
19D48
  8
HATCH
 10
-0.1762739043057726
 20
0.3135270804520536
 30
0.0
 11
-0.1762739043057726
 21
0.3135270804520536
 31
0.0
  0
VIEWPORT
  5
B94C
 67
     1
  8
0
 10
4.2500000197906038
 20
5.5122430080864824
 30
0.0
 40
10.9820087455411
 41
10.90855049306257
 68
     1
 69
     1
1001
ACAD
1000
MVIEW
1002
{
1070
    16
1010
0.0
1020
0.0
1030
0.0
1010
0.0
1020
0.0
1030
1.0
1040
0.0
1040
10.90855049306257
1040
4.2500000197906038
1040
5.5122430080864824
1040
50.0
1040
0.0
1040
0.0
1070
     0
1070
   500
1070
     1
1070
     1
1070
     0
1070
     0
1070
     0
1070
     0
1040
0.0
1040
0.0
1040
0.0
1040
0.5
1040
0.5
1040
0.5
1040
0.5
1070
     0
1002
{
1002
}
1002
}
  0
ENDSEC
  0
EOF
