  0
SECTION
  2
HEADER
  9
$ACADVER
  1
AC1009
  9
$INSBASE
 10
0.0
 20
0.0
 30
0.0
  9
$EXTMIN
 10
1.045770732832936
 20
-0.0094281023588381
 30
-0.0000000349181948
  9
$EXTMAX
 10
1.315806430806586
 20
0.2906467383977458
 30
0.0000000814935746
  9
$LIMMIN
 10
0.0
 20
0.0
  9
$LIMMAX
 10
1.1999999999999991
 20
1.0
  9
$ORTHOMODE
 70
     0
  9
$REGENMODE
 70
     1
  9
$FILLMODE
 70
     1
  9
$QTEXTMODE
 70
     0
  9
$MIRRTEXT
 70
     1
  9
$DRAGMODE
 70
     2
  9
$LTSCALE
 40
1.0
  9
$OSMODE
 70
    51
  9
$ATTMODE
 70
     1
  9
$TEXTSIZE
 40
0.125
  9
$TRACEWID
 40
0.05
  9
$TEXTSTYLE
  7
STANDARD
  9
$CLAYER
  8
PART
  9
$CELTYPE
  6
BYLAYER
  9
$CECOLOR
 62
     1
  9
$DIMSCALE
 40
0.0
  9
$DIMASZ
 40
0.125
  9
$DIMEXO
 40
0.05
  9
$DIMDLI
 40
0.02
  9
$DIMRND
 40
0.0
  9
$DIMDLE
 40
0.0
  9
$DIMEXE
 40
0.05
  9
$DIMTP
 40
0.005
  9
$DIMTM
 40
0.005
  9
$DIMTXT
 40
0.125
  9
$DIMCEN
 40
0.02
  9
$DIMTSZ
 40
0.0
  9
$DIMTOL
 70
     0
  9
$DIMLIM
 70
     0
  9
$DIMTIH
 70
     1
  9
$DIMTOH
 70
     1
  9
$DIMSE1
 70
     0
  9
$DIMSE2
 70
     0
  9
$DIMTAD
 70
     0
  9
$DIMZIN
 70
     4
  9
$DIMBLK
  1

  9
$DIMASO
 70
     1
  9
$DIMSHO
 70
     1
  9
$DIMPOST
  1

  9
$DIMAPOST
  1

  9
$DIMALT
 70
     0
  9
$DIMALTD
 70
     1
  9
$DIMALTF
 40
25.399999999999999
  9
$DIMLFAC
 40
1.0
  9
$DIMTOFL
 70
     0
  9
$DIMTVP
 40
0.0
  9
$DIMTIX
 70
     0
  9
$DIMSOXD
 70
     0
  9
$DIMSAH
 70
     0
  9
$DIMBLK1
  1

  9
$DIMBLK2
  1

  9
$DIMSTYLE
  2
SCOTTG
  9
$DIMCLRD
 70
   256
  9
$DIMCLRE
 70
   256
  9
$DIMCLRT
 70
   256
  9
$DIMTFAC
 40
1.0
  9
$DIMGAP
 40
0.02
  9
$LUNITS
 70
     2
  9
$LUPREC
 70
     5
  9
$SKETCHINC
 40
0.1
  9
$FILLETRAD
 40
0.01
  9
$AUNITS
 70
     0
  9
$AUPREC
 70
     0
  9
$MENU
  1
.
  9
$ELEVATION
 40
0.0
  9
$PELEVATION
 40
0.0
  9
$THICKNESS
 40
0.0
  9
$LIMCHECK
 70
     0
  9
$BLIPMODE
 70
     0
  9
$CHAMFERA
 40
0.0
  9
$CHAMFERB
 40
0.0
  9
$SKPOLY
 70
     0
  9
$TDCREATE
 40
2450919.3750775461
  9
$TDUPDATE
 40
2455817.3679483221
  9
$TDINDWG
 40
2.4026849306
  9
$TDUSRTIMER
 40
2.4026849306
  9
$USRTIMER
 70
     1
  9
$ANGBASE
 50
0.0
  9
$ANGDIR
 70
     0
  9
$PDMODE
 70
     0
  9
$PDSIZE
 40
0.0
  9
$PLINEWID
 40
0.0
  9
$COORDS
 70
     0
  9
$SPLFRAME
 70
     0
  9
$SPLINETYPE
 70
     6
  9
$SPLINESEGS
 70
     8
  9
$ATTDIA
 70
     0
  9
$ATTREQ
 70
     1
  9
$HANDLING
 70
     1
  9
$HANDSEED
  5
19F89
  9
$SURFTAB1
 70
     6
  9
$SURFTAB2
 70
     6
  9
$SURFTYPE
 70
     6
  9
$SURFU
 70
     6
  9
$SURFV
 70
     6
  9
$UCSNAME
  2

  9
$UCSORG
 10
0.0
 20
0.0
 30
0.0
  9
$UCSXDIR
 10
1.0
 20
0.0
 30
0.0
  9
$UCSYDIR
 10
0.0
 20
1.0
 30
0.0
  9
$PUCSNAME
  2

  9
$PUCSORG
 10
0.0
 20
0.0
 30
0.0
  9
$PUCSXDIR
 10
1.0
 20
0.0
 30
0.0
  9
$PUCSYDIR
 10
0.0
 20
1.0
 30
0.0
  9
$USERI1
 70
     0
  9
$USERI2
 70
     0
  9
$USERI3
 70
     0
  9
$USERI4
 70
     0
  9
$USERI5
 70
     0
  9
$USERR1
 40
0.0
  9
$USERR2
 40
0.0
  9
$USERR3
 40
0.0
  9
$USERR4
 40
0.0
  9
$USERR5
 40
0.0
  9
$WORLDVIEW
 70
     1
  9
$SHADEDGE
 70
     3
  9
$SHADEDIF
 70
    70
  9
$TILEMODE
 70
     1
  9
$MAXACTVP
 70
    48
  9
$PLIMCHECK
 70
     0
  9
$PEXTMIN
 10
-0.0002593796237598
 20
-0.0003357869613225
 30
-0.0015258207003583
  9
$PEXTMAX
 10
8.5002594192049692
 20
11.000335718974769
 30
0.0000000349246037
  9
$PLIMMIN
 10
0.0000001811605737
 20
-0.0000001192092895
  9
$PLIMMAX
 10
8.4999999408646811
 20
10.999999640494821
  9
$UNITMODE
 70
     0
  9
$VISRETAIN
 70
     1
  9
$PLINEGEN
 70
     0
  9
$PSLTSCALE
 70
     1
  0
ENDSEC
  0
SECTION
  2
TABLES
  0
TABLE
  2
VPORT
 70
     1
  0
VPORT
  2
*ACTIVE
 70
     0
 10
0.0
 20
0.0
 11
1.0
 21
1.0
 12
-18.54119846417559
 22
-0.4985685306936045
 13
0.0
 23
0.0
 14
0.5
 24
0.5
 15
0.5
 25
0.5
 16
0.0
 26
0.0
 36
5.6148375865943736
 17
19.721987045995348
 27
0.6391778487130584
 37
0.0
 40
0.3020425446303975
 41
2.067833698030634
 42
50.0
 43
0.0
 44
0.0
 50
0.0
 51
0.0
 71
     0
 72
 20000
 73
     1
 74
     0
 75
     0
 76
     0
 77
     0
 78
     0
  0
ENDTAB
  0
TABLE
  2
LTYPE
 70
     1
  0
LTYPE
  2
CONTINUOUS
 70
     0
  3
Solid line
 72
    65
 73
     0
 40
0.0
  0
ENDTAB
  0
TABLE
  2
LAYER
 70
     6
  0
LAYER
  2
0
 70
     0
 62
     7
  6
CONTINUOUS
  0
LAYER
  2
DEFPOINTS
 70
     0
 62
     7
  6
CONTINUOUS
  0
LAYER
  2
HATCH
 70
     0
 62
     7
  6
CONTINUOUS
  0
LAYER
  2
PART
 70
     0
 62
     7
  6
CONTINUOUS
  0
ENDTAB
  0
TABLE
  2
STYLE
 70
     3
  0
STYLE
  2
STANDARD
 70
     0
 40
0.0
 41
1.0
 50
0.0
 71
     0
 42
0.125
  3
txt
  4

  0
STYLE
  2
ROMANS
 70
     0
 40
0.0
 41
1.0
 50
0.0
 71
     0
 42
0.1
  3
SIMPLEX.shx
  4

  0
ENDTAB
  0
TABLE
  2
VIEW
 70
     0
  0
ENDTAB
  0
TABLE
  2
UCS
 70
     0
  0
ENDTAB
  0
TABLE
  2
APPID
 70
    16
  0
APPID
  2
ACAD
 70
     0
  0
APPID
  2
ADP_SK
 70
     0
  0
APPID
  2
ADP_SOL
 70
     0
  0
APPID
  2
ACIS_LNK
 70
     0
  0
APPID
  2
AME_SOL
 70
     0
  0
APPID
  2
ACAD_MLEADERVER
 70
     0
  0
APPID
  2
ACAD_EXEMPT_FROM_CAD_STANDARDS
 70
     0
  0
APPID
  2
ACAD_PSEXT
 70
     0
  0
APPID
  2
ACDBDYNAMICBLOCKGUID
 70
     0
  0
APPID
  2
ACDBBLOCKREPETAG
 70
     0
  0
APPID
  2
ACDBDYNAMICBLOCKTRUENAME
 70
     0
  0
APPID
  2
ACAD_DSTYLE_DIMJAG
 70
     0
  0
APPID
  2
ACAD_DSTYLE_DIMTALN
 70
     0
  0
APPID
  2
ACAECLAYERSTANDARD
 70
     0
  0
APPID
  2
ACAUTHENVIRON
 70
     0
  0
APPID
  2
ACADANNOPO
 70
     0
  0
ENDTAB
  0
TABLE
  2
DIMSTYLE
 70
     2
  0
DIMSTYLE
  2
SCOTTG
 70
     0
  3

  4

  5

  6

  7

 40
0.15
 41
0.125
 42
0.1
 43
0.25
 44
0.1
 45
0.0
 46
0.0
 47
0.01
 48
0.01
140
0.125
141
0.06
142
0.0
143
25.399999999999999
144
1.0
145
0.0
146
1.0
147
0.09
 71
     1
 72
     0
 73
     1
 74
     1
 75
     0
 76
     0
 77
     0
 78
     4
170
     0
171
     1
172
     0
173
     0
174
     1
175
     0
176
   256
177
   256
178
   256
  0
ENDTAB
  0
ENDSEC
  0
SECTION
  2
BLOCKS
  0
BLOCK
  8
0
  2
$MODEL_SPACE
 70
     0
 10
0.0
 20
0.0
 30
0.0
  3
$MODEL_SPACE
  1

  0
ENDBLK
  5
1A
  8
0
  0
BLOCK
 67
     1
  8
0
  2
$PAPER_SPACE
 70
     0
 10
0.0
 20
0.0
 30
0.0
  3
$PAPER_SPACE
  1

  0
ENDBLK
  5
B932
 67
     1
  8
0
  0
BLOCK
  8
0
 62
     1
  2
*U20
 70
     1
 10
0.0
 20
0.0
 30
0.0
  3
*U20
  1

  0
TEXT
  5
19EA6
  8
PART
 10
-0.3733034910232481
 20
0.7141972627033814
 30
0.0
 40
0.0378374821074757
  1
.400
  7
ROMANS
  0
ENDBLK
  5
19EA8
  8
0
 62
     1
  0
BLOCK
  8
0
 62
     1
  2
*U21
 70
     1
 10
0.0
 20
0.0
 30
0.0
  3
*U21
  1

  0
TEXT
  5
19EAA
  8
PART
 10
-0.2841244632638552
 20
0.8031443739727691
 30
0.0
 40
0.0378374821074757
  1
.561
  7
ROMANS
  0
ENDBLK
  5
19EAC
  8
0
 62
     1
  0
BLOCK
  8
0
 62
     1
  2
*U22
 70
     1
 10
0.0
 20
0.0
 30
0.0
  3
*U22
  1

  0
TEXT
  5
19EAE
  8
PART
 10
-0.7225985692659322
 20
0.3060812574018382
 30
0.0
 40
0.0378374821074757
  1
.650
  7
ROMANS
  0
ENDBLK
  5
19EB0
  8
0
 62
     1
  0
BLOCK
  8
0
 62
     1
  2
*U23
 70
     1
 10
0.0
 20
0.0
 30
0.0
  3
*U23
  1

  0
TEXT
  5
19EB2
  8
PART
 10
0.1457500447553917
 20
-0.4352694319903586
 30
0.0
 40
0.0378374821394327
  1
.018
  7
ROMANS
  0
ENDBLK
  5
19EB4
  8
0
 62
     1
  0
BLOCK
  8
0
 62
     1
  2
*U24
 70
     1
 10
0.0
 20
0.0
 30
0.0
  3
*U24
  1

  0
TEXT
  5
19EB6
  8
PART
 10
-0.0855716434774586
 20
-0.5545369172463596
 30
0.0
 40
0.0378374821394327
  1
.155
  7
ROMANS
  0
ENDBLK
  5
19EB8
  8
0
 62
     1
  0
BLOCK
  8
0
 62
     1
  2
*U25
 70
     1
 10
0.0
 20
0.0
 30
0.0
  3
*U25
  1

  0
TEXT
  5
19EBA
  8
PART
 10
0.1468273350806249
 20
-0.4926613062714235
 30
0.0
 40
0.0378374821394327
  1
.040
  7
ROMANS
  0
ENDBLK
  5
19EBC
  8
0
 62
     1
  0
BLOCK
  8
0
 62
     1
  2
*U26
 70
     1
 10
0.0
 20
0.0
 30
0.0
  3
*U26
  1

  0
TEXT
  5
19EBE
  8
PART
 10
-0.7225985693146287
 20
-0.1939187410697232
 30
0.0
 40
0.0378374821394327
  1
.350
  7
ROMANS
  0
ENDBLK
  5
19EC0
  8
0
 62
     1
  0
BLOCK
  8
0
 62
     1
  2
*U27
 70
     1
 10
0.0
 20
0.0
 30
0.0
  3
*U27
  1

  0
TEXT
  5
19EC2
  8
PART
 10
-0.3754939488229078
 20
-0.229541701938869
 30
0.0
 40
0.0378374821394327
  1
.030
  7
ROMANS
  0
ENDBLK
  5
19EC4
  8
0
 62
     1
  0
BLOCK
  8
0
 62
     1
  2
*U28
 70
     1
 10
0.0
 20
0.0
 30
0.0
  3
*U28
  1

  0
TEXT
  5
19EC6
  8
PART
 10
-0.2079462264281474
 20
0.3460745370676188
 30
0.0
 40
0.0378374821074757
  1
.135
  7
ROMANS
  0
ENDBLK
  5
19EC8
  8
0
 62
     1
  0
BLOCK
  8
0
 62
     1
  2
*X29
 70
     1
 10
0.0
 20
0.0
 30
0.0
  3
*X29
  1

  0
LINE
  5
19ECA
  8
0
 62
     0
 10
0.2300994885461383
 20
0.0000000126540343
 30
0.0
 11
0.2580994885461378
 21
0.0280000126540339
 31
0.0
  0
LINE
  5
19ECB
  8
0
 62
     0
 10
0.18590531472198
 20
0.0000000126540347
 30
0.0
 11
0.2139053147219792
 21
0.0280000126540339
 31
0.0
  0
LINE
  5
19ECC
  8
0
 62
     0
 10
0.1417111408978204
 20
0.0000000126540347
 30
0.0
 11
0.16999999484766
 21
0.0282888666038743
 31
0.0
  0
LINE
  5
19ECD
  8
0
 62
     0
 10
0.0975169670736618
 20
0.0000000126540347
 30
0.0
 11
0.163758480960662
 21
0.0662415265410354
 31
0.0
  0
LINE
  5
19ECE
  8
0
 62
     0
 10
0.0999999948476611
 20
0.0466772142521932
 30
0.0
 11
0.1283227932495032
 21
0.0750000126540358
 31
0.0
  0
LINE
  5
19ECF
  8
0
 62
     0
 10
0.0533227932495022
 20
0.0000000126540347
 30
0.0
 11
0.0813227932495013
 21
0.0280000126540339
 31
0.0
  0
LINE
  5
19ED0
  8
0
 62
     0
 10
0.0091636540898832
 20
0.0000350473185753
 30
0.0
 11
0.0371286194253417
 21
0.0280000126540339
 31
0.0
  0
ENDBLK
  5
19ED2
  8
0
 62
     1
  0
BLOCK
  8
0
 62
     1
  2
*X30
 70
     1
 10
0.0
 20
0.0
 30
0.0
  3
*X30
  1

  0
LINE
  5
19EF8
  8
0
 62
     0
 10
0.2238090745288639
 20
0.2499072338715402
 30
0.0
 11
0.2206334601111159
 21
0.2617587882238235
 31
0.0
  0
LINE
  5
19EF9
  8
0
 62
     0
 10
0.2475401389647986
 20
0.1613416956789404
 30
0.0
 11
0.2443645245470505
 21
0.1731932500312245
 31
0.0
  0
LINE
  5
19EFA
  8
0
 62
     0
 10
0.2056738928806097
 20
0.2692923618728642
 30
0.0
 11
0.2035108835240218
 21
0.2773648226888961
 31
0.0
  0
LINE
  5
19EFB
  8
0
 62
     0
 10
0.2405145698946667
 20
0.1392651850863054
 30
0.0
 11
0.2383515605380786
 21
0.147337645902339
 31
0.0
  0
LINE
  5
19EFC
  8
0
 62
     0
 10
0.1897557447805842
 20
0.2804034080301108
 30
0.0
 11
0.1879679795598086
 21
0.2870754386660499
 31
0.0
  0
LINE
  5
19EFD
  8
0
 62
     0
 10
0.2319093282016529
 20
0.1230840929815891
 30
0.0
 11
0.2301215629808768
 21
0.12975612361753
 31
0.0
  0
LINE
  5
19EFE
  8
0
 62
     0
 10
0.1749122692306935
 20
0.2875037216287559
 30
0.0
 11
0.1733254423484234
 21
0.2934258401762033
 31
0.0
  0
LINE
  5
19EFF
  8
0
 62
     0
 10
0.2224037197558111
 20
0.1102632153438723
 30
0.0
 11
0.2208168928735406
 21
0.1161853338913223
 31
0.0
  0
LINE
  5
19F00
  8
0
 62
     0
 10
0.1607838314052565
 20
0.2919354781104113
 30
0.0
 11
0.1593198717395901
 21
0.2973990499629107
 31
0.0
  0
LINE
  5
19F01
  8
0
 62
     0
 10
0.2122611447074185
 20
0.0998195294296016
 30
0.0
 11
0.2107971850417516
 21
0.1052831012821018
 31
0.0
  0
LINE
  5
19F02
  8
0
 62
     0
 10
0.1472036908674372
 20
0.294320961257025
 30
0.0
 11
0.1458186517418967
 21
0.2994899976440131
 31
0.0
  0
LINE
  5
19F03
  8
0
 62
     0
 10
0.2016142190478849
 20
0.0912581056209359
 30
0.0
 11
0.2002291799223437
 21
0.0964271420079257
 31
0.0
  0
LINE
  5
19F04
  8
0
 62
     0
 10
0.1340818141572733
 20
0.2949961805155583
 30
0.0
 11
0.1327469556825473
 21
0.2999779401641493
 31
0.0
  0
LINE
  5
19F05
  8
0
 62
     0
 10
0.1905377694500072
 20
0.084299686973238
 30
0.0
 11
0.1892029109752808
 21
0.0892814466218299
 31
0.0
  0
LINE
  5
19F06
  8
0
 62
     0
 10
0.1213670751508165
 20
0.2941519411781792
 30
0.0
 11
0.1200611852618829
 21
0.2990255885927704
 31
0.0
  0
LINE
  5
19F07
  8
0
 62
     0
 10
0.179867429889389
 20
0.0758256450330235
 30
0.0
 11
0.1777695043245113
 21
0.0836552098316448
 31
0.0
  0
LINE
  5
19F08
  8
0
 62
     0
 10
0.1090319673654339
 20
0.2918908988356126
 30
0.0
 11
0.1077375309468276
 21
0.2967218013170178
 31
0.0
  0
LINE
  5
19F09
  8
0
 62
     0
 10
0.1743823333590986
 20
0.0480000126540343
 30
0.0
 11
0.1659564664526671
 21
0.0794457760466498
 31
0.0
  0
LINE
  5
19F0A
  8
0
 62
     0
 10
0.0970660039359341
 20
0.2882521910015629
 30
0.0
 11
0.095766847911118
 21
0.293100707293136
 31
0.0
  0
LINE
  5
19F0B
  8
0
 62
     0
 10
0.1543782831080458
 20
0.0743598532336707
 30
0.0
 11
0.1537742842249399
 21
0.076614007753137
 31
0.0
  0
LINE
  5
19F0C
  8
0
 62
     0
 10
0.0854734799312016
 20
0.2832197882607348
 30
0.0
 11
0.084152886134443
 21
0.2881483114063981
 31
0.0
  0
LINE
  5
19F0D
  8
0
 62
     0
 10
0.1412658006532057
 20
0.0750000126540371
 30
0.0
 11
0.1412186625724463
 21
0.0751759343664027
 31
0.0
  0
LINE
  5
19F0E
  8
0
 62
     0
 10
0.0742743707522453
 20
0.2767191414016556
 30
0.0
 11
0.0729130031971572
 21
0.281799834285021
 31
0.0
  0
LINE
  5
19F0F
  8
0
 62
     0
 10
0.1283248483980797
 20
0.0750000126540353
 30
0.0
 11
0.1282696260941756
 21
0.0752061050979167
 31
0.0
  0
LINE
  5
19F10
  8
0
 62
     0
 10
0.0635088438255842
 20
0.2686003435477522
 30
0.0
 11
0.0620817010693007
 21
0.2739265128238557
 31
0.0
  0
LINE
  5
19F11
  8
0
 62
     0
 10
0.1155615484207557
 20
0.0743370053271972
 30
0.0
 11
0.1148870073636097
 21
0.0768544268242586
 31
0.0
  0
LINE
  5
19F12
  8
0
 62
     0
 10
0.0532480823333612
 20
0.2585977354466227
 30
0.0
 11
0.0517188704963079
 21
0.2643048317180412
 31
0.0
  0
LINE
  5
19F13
  8
0
 62
     0
 10
0.1050965609918009
 20
0.0650965787981752
 30
0.0
 11
0.1009996231986066
 21
0.0803865587978248
 31
0.0
  0
LINE
  5
19F14
  8
0
 62
     0
 10
0.0888528556860191
 20
0.0774226209880737
 30
0.0
 11
0.0864797210177582
 21
0.0862792801432262
 31
0.0
  0
LINE
  5
19F15
  8
0
 62
     0
 10
0.0436198388569824
 20
0.246234537973657
 30
0.0
 11
0.0419282945811019
 21
0.2525474671544954
 31
0.0
  0
LINE
  5
19F16
  8
0
 62
     0
 10
0.0967366198283422
 20
0.0480000126540343
 30
0.0
 11
0.094999994847661
 21
0.0544811853156304
 31
0.0
  0
LINE
  5
19F17
  8
0
 62
     0
 10
0.0348787790543102
 20
0.2305603259547739
 30
0.0
 11
0.0329043465325762
 21
0.2379290084420011
 31
0.0
  0
LINE
  5
19F18
  8
0
 62
     0
 10
0.0730470676849378
 20
0.0881143335473178
 30
0.0
 11
0.0710726351632034
 21
0.0954830160345468
 31
0.0
  0
LINE
  5
19F19
  8
0
 62
     0
 10
0.0276796183730272
 20
0.2091316680747228
 30
0.0
 11
0.0250844785617697
 21
0.2188168617030799
 31
0.0
  0
LINE
  5
19F1A
  8
0
 62
     0
 10
0.0567187899985184
 20
0.1007560041586766
 30
0.0
 11
0.0541236501872604
 21
0.1104411977870363
 31
0.0
  0
LINE
  5
19F1B
  8
0
 62
     0
 10
0.0277270735462814
 20
0.1606582716426015
 30
0.0
 11
0.0200770309532779
 21
0.1892086192797562
 31
0.0
  0
LINE
  5
19F1C
  8
0
 62
     0
 10
0.0375780919497832
 20
0.1238937704544361
 30
0.0
 11
0.0299280493567793
 21
0.1524441180915934
 31
0.0
  0
ENDBLK
  5
19F1E
  8
0
 62
     1
  0
BLOCK
  8
0
 62
     1
  2
*X31
 70
     1
 10
0.0
 20
0.0
 30
0.0
  3
*X31
  1

  0
LINE
  5
19F20
  8
0
 62
     0
 10
1.2758804553822749
 20
-0.0094163925075828
 30
0.0
 11
1.303880455382274
 21
0.0185836074924168
 31
0.0
  0
LINE
  5
19F21
  8
0
 62
     0
 10
1.231686281558116
 20
-0.0094163925075828
 30
0.0
 11
1.259686281558116
 21
0.0185836074924168
 31
0.0
  0
LINE
  5
19F22
  8
0
 62
     0
 10
1.1874921077339571
 20
-0.0094163925075832
 30
0.0
 11
1.215780961683798
 21
0.0188724614422586
 31
0.0
  0
LINE
  5
19F23
  8
0
 62
     0
 10
1.1432979339097971
 20
-0.0094163925075828
 30
0.0
 11
1.2095394477967989
 21
0.0568251213794184
 31
0.0
  0
LINE
  5
19F24
  8
0
 62
     0
 10
1.1457809616837979
 20
0.0372608090905762
 30
0.0
 11
1.1741037600856381
 21
0.0655836074924174
 31
0.0
  0
LINE
  5
19F25
  8
0
 62
     0
 10
1.0991037600856379
 20
-0.0094163925075832
 30
0.0
 11
1.127103760085638
 21
0.0185836074924168
 31
0.0
  0
LINE
  5
19F26
  8
0
 62
     0
 10
1.05494462092602
 20
-0.0093813578430417
 30
0.0
 11
1.0829095862614779
 21
0.0185836074924168
 31
0.0
  0
ENDBLK
  5
19F28
  8
0
 62
     1
  0
BLOCK
  8
0
 62
     1
  2
*X32
 70
     1
 10
0.0
 20
0.0
 30
0.0
  3
*X32
  1

  0
LINE
  5
19F4E
  8
0
 62
     0
 10
1.2695900413650001
 20
0.2404908287099241
 30
0.0
 11
1.266414426947253
 21
0.2523423830622073
 31
0.0
  0
LINE
  5
19F4F
  8
0
 62
     0
 10
1.2933211058009351
 20
0.1519252905173243
 30
0.0
 11
1.2901454913831869
 21
0.1637768448696084
 31
0.0
  0
LINE
  5
19F50
  8
0
 62
     0
 10
1.2514548597167461
 20
0.2598759567112472
 30
0.0
 11
1.249291850360158
 21
0.267948417527279
 31
0.0
  0
LINE
  5
19F51
  8
0
 62
     0
 10
1.2862955367308031
 20
0.1298487799246883
 30
0.0
 11
1.284132527374215
 21
0.137921240740722
 31
0.0
  0
LINE
  5
19F52
  8
0
 62
     0
 10
1.2355367116167211
 20
0.2709870028684937
 30
0.0
 11
1.233748946395945
 21
0.2776590335044329
 31
0.0
  0
LINE
  5
19F53
  8
0
 62
     0
 10
1.2776902950377891
 20
0.113667687819972
 30
0.0
 11
1.275902529817013
 21
0.120339718455913
 31
0.0
  0
LINE
  5
19F54
  8
0
 62
     0
 10
1.2206932360668299
 20
0.2780873164671389
 30
0.0
 11
1.21910640918456
 21
0.2840094350145863
 31
0.0
  0
LINE
  5
19F55
  8
0
 62
     0
 10
1.2681846865919479
 20
0.1008468101822553
 30
0.0
 11
1.266597859709677
 21
0.1067689287297053
 31
0.0
  0
LINE
  5
19F56
  8
0
 62
     0
 10
1.206564798241393
 20
0.2825190729487943
 30
0.0
 11
1.2051008385757269
 21
0.2879826448012936
 31
0.0
  0
LINE
  5
19F57
  8
0
 62
     0
 10
1.2580421115435549
 20
0.0904031242679846
 30
0.0
 11
1.256578151877888
 21
0.0958666961204848
 31
0.0
  0
LINE
  5
19F58
  8
0
 62
     0
 10
1.1929846577035741
 20
0.284904556095408
 30
0.0
 11
1.1915996185780331
 21
0.290073592482396
 31
0.0
  0
LINE
  5
19F59
  8
0
 62
     0
 10
1.2473951858840211
 20
0.0818417004593188
 30
0.0
 11
1.2460101467584801
 21
0.0870107368463087
 31
0.0
  0
LINE
  5
19F5A
  8
0
 62
     0
 10
1.1798627809934099
 20
0.2855797753539413
 30
0.0
 11
1.178527922518684
 21
0.2905615350025323
 31
0.0
  0
LINE
  5
19F5B
  8
0
 62
     0
 10
1.2363187362861441
 20
0.074883281811621
 30
0.0
 11
1.2349838778114171
 21
0.0798650414602129
 31
0.0
  0
LINE
  5
19F5C
  8
0
 62
     0
 10
1.1671480419869531
 20
0.2847355360165622
 30
0.0
 11
1.16584215209802
 21
0.2896091834311534
 31
0.0
  0
LINE
  5
19F5D
  8
0
 62
     0
 10
1.2256483967255261
 20
0.0664092398714065
 30
0.0
 11
1.223550471160648
 21
0.0742388046700278
 31
0.0
  0
LINE
  5
19F5E
  8
0
 62
     0
 10
1.1548129342015701
 20
0.2824744936739956
 30
0.0
 11
1.153518497782964
 21
0.2873053961554008
 31
0.0
  0
LINE
  5
19F5F
  8
0
 62
     0
 10
1.220163300195235
 20
0.0385836074924173
 30
0.0
 11
1.211737433288804
 21
0.0700293708850328
 31
0.0
  0
LINE
  5
19F60
  8
0
 62
     0
 10
1.142846970772071
 20
0.2788357858399459
 30
0.0
 11
1.1415478147472551
 21
0.2836843021315189
 31
0.0
  0
LINE
  5
19F61
  8
0
 62
     0
 10
1.200159249944182
 20
0.0649434480720537
 30
0.0
 11
1.1995552510610761
 21
0.06719760259152
 31
0.0
  0
LINE
  5
19F62
  8
0
 62
     0
 10
1.131254446767338
 20
0.2738033830991169
 30
0.0
 11
1.12993385297058
 21
0.2787319062447802
 31
0.0
  0
LINE
  5
19F63
  8
0
 62
     0
 10
1.1870467674893419
 20
0.0655836074924192
 30
0.0
 11
1.1869996294085829
 21
0.0657595292047848
 31
0.0
  0
LINE
  5
19F64
  8
0
 62
     0
 10
1.1200553375883819
 20
0.2673027362400386
 30
0.0
 11
1.1186939700332941
 21
0.272383429123404
 31
0.0
  0
LINE
  5
19F65
  8
0
 62
     0
 10
1.1741058152342161
 20
0.0655836074924183
 30
0.0
 11
1.174050592930312
 21
0.0657896999362997
 31
0.0
  0
LINE
  5
19F66
  8
0
 62
     0
 10
1.1092898106617211
 20
0.2591839383861352
 30
0.0
 11
1.1078626679054371
 21
0.2645101076622387
 31
0.0
  0
LINE
  5
19F67
  8
0
 62
     0
 10
1.1613425152568919
 20
0.0649206001655802
 30
0.0
 11
1.1606679741997461
 21
0.0674380216626416
 31
0.0
  0
LINE
  5
19F68
  8
0
 62
     0
 10
1.0990290491694981
 20
0.2491813302850048
 30
0.0
 11
1.0974998373324441
 21
0.2548884265564233
 31
0.0
  0
LINE
  5
19F69
  8
0
 62
     0
 10
1.1508775278279371
 20
0.0556801736365573
 30
0.0
 11
1.146780590034743
 21
0.0709701536362069
 31
0.0
  0
LINE
  5
19F6A
  8
0
 62
     0
 10
1.1346338225221559
 20
0.0680062158264567
 30
0.0
 11
1.132260687853895
 21
0.0768628749816092
 31
0.0
  0
LINE
  5
19F6B
  8
0
 62
     0
 10
1.089400805693119
 20
0.23681813281204
 30
0.0
 11
1.087709261417239
 21
0.2431310619928784
 31
0.0
  0
LINE
  5
19F6C
  8
0
 62
     0
 10
1.142517586664479
 20
0.0385836074924173
 30
0.0
 11
1.1407809616837981
 21
0.0450647801540134
 31
0.0
  0
LINE
  5
19F6D
  8
0
 62
     0
 10
1.080659745890447
 20
0.2211439207931569
 30
0.0
 11
1.0786853133687131
 21
0.2285126032803841
 31
0.0
  0
LINE
  5
19F6E
  8
0
 62
     0
 10
1.1188280345210739
 20
0.0786979283857008
 30
0.0
 11
1.11685360199934
 21
0.0860666108729298
 31
0.0
  0
LINE
  5
19F6F
  8
0
 62
     0
 10
1.0734605852091641
 20
0.1997152629131058
 30
0.0
 11
1.0708654453979061
 21
0.2094004565414629
 31
0.0
  0
LINE
  5
19F70
  8
0
 62
     0
 10
1.1024997568346551
 20
0.0913395989970596
 30
0.0
 11
1.099904617023397
 21
0.1010247926254193
 31
0.0
  0
LINE
  5
19F71
  8
0
 62
     0
 10
1.073508040382418
 20
0.1512418664809845
 30
0.0
 11
1.065857997789414
 21
0.1797922141181392
 31
0.0
  0
LINE
  5
19F72
  8
0
 62
     0
 10
1.0833590587859201
 20
0.114477365292819
 30
0.0
 11
1.0757090161929159
 21
0.1430277129299764
 31
0.0
  0
ENDBLK
  5
19F74
  8
0
 62
     1
  0
BLOCK
  8
0
 62
     1
  2
*U33
 70
     1
 10
0.0
 20
0.0
 30
0.0
  3
*U33
  1

  0
TEXT
  5
19F76
  8
PART
 10
1.160397844707602
 20
0.3274158837931422
 30
0.0
 40
0.0133764205156287
  1
.230
  7
ROMANS
  0
ENDBLK
  5
19F78
  8
0
 62
     1
  0
BLOCK
  8
0
 62
     1
  2
*U34
 70
     1
 10
0.0
 20
0.0
 30
0.0
  3
*U34
  1

  0
TEXT
  5
19F7A
  8
PART
 10
1.3609395550332819
 20
0.1338953972346049
 30
0.0
 40
0.0133764205156287
  1
.300
  7
ROMANS
  0
ENDBLK
  5
19F7C
  8
0
 62
     1
  0
BLOCK
  8
0
 62
     1
  2
*U35
 70
     1
 10
0.0
 20
0.0
 30
0.0
  3
*U35
  1

  0
TEXT
  5
19F7E
  8
PART
 10
0.9629482045016807
 20
-0.0021046027653969
 30
0.0
 40
0.0133764205156287
  1
.028
  7
ROMANS
  0
ENDBLK
  5
19F80
  8
0
 62
     1
  0
BLOCK
  8
0
 62
     1
  2
*U36
 70
     1
 10
0.0
 20
0.0
 30
0.0
  3
*U36
  1

  0
TEXT
  5
19F82
  8
PART
 10
1.1603978447076011
 20
-0.0620754423596817
 30
0.0
 40
0.0133764205156287
  1
.270
  7
ROMANS
  0
ENDBLK
  5
19F84
  8
0
 62
     1
  0
BLOCK
  8
0
 62
     1
  2
*U37
 70
     1
 10
0.0
 20
0.0
 30
0.0
  3
*U37
  1

  0
TEXT
  5
19F86
  8
PART
 10
1.2446740299975561
 20
0.0259894145341135
 30
0.0
 40
0.0133764205156287
  1
.070
  7
ROMANS
  0
ENDBLK
  5
19F88
  8
0
 62
     1
  0
ENDSEC
  0
SECTION
  2
ENTITIES
  0
CIRCLE
  5
19D5E
  8
PART
 10
1.1807809616837981
 20
0.1755836074924206
 30
0.0
 40
0.11
1001
ACAD
1000
ASC_BOUNDS
1002
{
1070
    19
1005
19D7E
1002
}
  0
CIRCLE
  5
19D5F
  8
HATCH
 10
1.2050103673293171
 20
0.2349722003995691
 30
0.0
 40
0.009
  0
CIRCLE
  5
19D60
  8
HATCH
 10
1.1113478034866751
 20
0.2381998998658308
 30
0.0
 40
0.009
  0
CIRCLE
  5
19D61
  8
HATCH
 10
1.1896690760960831
 20
0.0945669063124062
 30
0.0
 40
0.009
  0
CIRCLE
  5
19D62
  8
HATCH
 10
1.1526723415654221
 20
0.2071191890181503
 30
0.0
 40
0.0045
  0
CIRCLE
  5
19D63
  8
HATCH
 10
1.1734605934002771
 20
0.1655585535741617
 30
0.0
 40
0.0045
  0
LINE
  5
19D64
  8
HATCH
 10
1.1716026296209801
 20
0.1960669336208689
 30
0.0
 11
1.1716026296209801
 21
0.1960669336208689
 31
0.0
  0
LINE
  5
19D65
  8
HATCH
 10
1.1716026296209801
 20
0.0710669336208689
 30
0.0
 11
1.1716026296209801
 21
0.0710669336208689
 31
0.0
  0
CIRCLE
  5
19D66
  8
HATCH
 10
1.1232223085137061
 20
0.1482416045244224
 30
0.0
 40
0.0045
  0
LINE
  5
19D67
  8
HATCH
 10
1.1091026296209801
 20
0.1960669336208689
 30
0.0
 11
1.1091026296209801
 21
0.1960669336208689
 31
0.0
  0
LINE
  5
19D68
  8
HATCH
 10
1.0834313043100059
 20
0.1351076440576027
 30
0.0
 11
1.0834313043100059
 21
0.1351076440576027
 31
0.0
  0
CIRCLE
  5
19D69
  8
HATCH
 10
1.103699521188267
 20
0.1184462778283601
 30
0.0
 40
0.009
  0
CIRCLE
  5
19D6A
  8
HATCH
 10
1.0851105231021489
 20
0.1620951637642138
 30
0.0
 40
0.0045
  0
CIRCLE
  5
19D6B
  8
HATCH
 10
1.14054584209041
 20
0.0823412244946502
 30
0.0
 40
0.0045
  0
LINE
  5
19D6C
  8
HATCH
 10
1.1238947035224409
 20
0.0957331542231093
 30
0.0
 11
1.1238947035224409
 21
0.0957331542231093
 31
0.0
  0
CIRCLE
  5
19D6D
  8
HATCH
 10
1.1573716474629041
 20
0.1260370548166254
 30
0.0
 40
0.009
  0
LINE
  5
19D6E
  8
HATCH
 10
1.2649897175647471
 20
0.2099911097541398
 30
0.0
 11
1.2649897175647471
 21
0.2099911097541398
 31
0.0
  0
CIRCLE
  5
19D6F
  8
HATCH
 10
1.2508691185183229
 20
0.1083428047939139
 30
0.0
 40
0.0045
  0
LINE
  5
19D70
  8
HATCH
 10
1.2653526296209801
 20
0.1335669336208689
 30
0.0
 11
1.2653526296209801
 21
0.1335669336208689
 31
0.0
  0
CIRCLE
  5
19D71
  8
HATCH
 10
1.2707638076175589
 20
0.1695942811621445
 30
0.0
 40
0.0045
  0
LINE
  5
19D72
  8
HATCH
 10
1.2341026296209801
 20
0.1960669336208689
 30
0.0
 11
1.2341026296209801
 21
0.1960669336208689
 31
0.0
  0
LINE
  5
19D73
  8
HATCH
 10
1.2226512030461429
 20
0.0850332198359294
 30
0.0
 11
1.2226512030461429
 21
0.0850332198359294
 31
0.0
  0
LINE
  5
19D74
  8
HATCH
 10
1.2028526296209801
 20
0.1335669336208689
 30
0.0
 11
1.2028526296209801
 21
0.1335669336208689
 31
0.0
  0
CIRCLE
  5
19D75
  8
HATCH
 10
1.229762084738822
 20
0.1196686544456222
 30
0.0
 40
0.00675
  0
CIRCLE
  5
19D76
  8
HATCH
 10
1.221966504729262
 20
0.1776803862024405
 30
0.0
 40
0.009
  0
CIRCLE
  5
19D77
  8
HATCH
 10
1.1673973580912811
 20
0.2755210902048131
 30
0.0
 40
0.00675
  0
LINE
  5
19D78
  8
HATCH
 10
1.1403526296209801
 20
0.2585669336208689
 30
0.0
 11
1.1403526296209801
 21
0.2585669336208689
 31
0.0
  0
CIRCLE
  5
19D79
  8
HATCH
 10
1.2488822469845171
 20
0.2483384405764293
 30
0.0
 40
0.0045
  0
LINE
  5
19D7A
  8
HATCH
 10
1.2028526296209801
 20
0.2585669336208689
 30
0.0
 11
1.2028526296209801
 21
0.2585669336208689
 31
0.0
  0
INSERT
  5
19D7B
  8
HATCH
  6
CONTINUOUS
  2
*X31
 10
0.0
 20
0.0
 30
0.0
1001
ACAD
1000
HATCH
1002
{
1070
    19
1000
ANSI31
1040
0.25
1040
0.0
1000
ASC_BOUNDS
1070
     1
1070
     2
1070
     1
1005
19D7C
1000
ASC_SEEDPOINT
1011
-1.803815435088733
1021
0.0
1031
0.0
1021
-4.8568792359449589
1031
0.0
1000
R14_HATCH_DATA
1000
19D7B
1011
1.0
1021
0.0
1031
0.0
1021
0.0
1031
0.0
1011
0.0
1021
0.0
1031
0.0
1021
1.0
1031
0.0
1011
0.0
1021
0.0
1031
0.0
1021
0.0
1031
1.0
1040
0.0
1010
0.0
1020
0.0
1030
1.0
1000
ANSI31
1070
     0
1070
     1
1071
        1
1071
        1
1071
       18
1070
     1
1040
1.215780961683798
1040
0.0185836074924171
1040
1.3057809616837981
1040
0.0185836074924171
1070
     2
1040
1.305780961683797
1040
0.0085836074924173
1040
0.0099999999999998
1040
4.7123889803847003
1040
6.2831853071795862
1070
     0
1070
     1
1040
1.315780961683797
1040
0.0085836074924173
1040
1.315780961683797
1040
0.0005836074924173
1070
     2
1040
1.3057809616837981
1040
0.0005836074924173
1040
0.0099999999999997
1040
6.2831853071795862
1040
7.8539816339744926
1070
     0
1070
     1
1040
1.3057809616837981
1040
-0.0094163925075825
1040
1.0557809616837981
1040
-0.0094163925075825
1070
     2
1040
1.0557809616837981
1040
0.0005836074924173
1040
0.0099999999999998
1040
1.570796326794907
1040
3.1415926535897931
1070
     0
1070
     1
1040
1.0457809616837981
1040
0.0005836074924173
1040
1.0457809616837981
1040
0.0085836074924173
1070
     2
1040
1.055780961683797
1040
0.0085836074924173
1040
0.0099999999999997
1040
3.1415926535897931
1040
4.7123889803847003
1070
     0
1070
     1
1040
1.0557809616837981
1040
0.0185836074924171
1040
1.1457809616837971
1040
0.0185836074924171
1070
     1
1040
1.1457809616837971
1040
0.0185836074924171
1040
1.1457809616837971
1040
0.0464414718686863
1070
     2
1040
1.1557809616837971
1040
0.0464414718686854
1040
0.0100000000000001
1040
3.141592653589881
1040
3.9269908169872809
1070
     0
1070
     1
1040
1.148709893871932
1040
0.0535125396805516
1040
1.157852029495664
1040
0.062654675304284
1070
     2
1040
1.1649230973075291
1040
0.0555836074924197
1040
0.0099999999999989
1040
3.9269908169872019
1040
4.7123889803846337
1070
     0
1070
     1
1040
1.1649230973075291
1040
0.0655836074924186
1040
1.196638826060068
1040
0.0655836074924186
1070
     2
1040
1.196638826060068
1040
0.0555836074924197
1040
0.0099999999999989
1040
4.7123889803846559
1040
5.4977871437820509
1070
     0
1070
     1
1040
1.2037098938719331
1040
0.0626546753042849
1040
1.2128520294956631
1040
0.0535125396805543
1070
     2
1040
1.2057809616837969
1040
0.046441471868689
1040
0.0100000000000001
1040
5.497787143782177
1040
6.2831853071795862
1070
     0
1070
     1
1040
1.215780961683798
1040
0.046441471868689
1040
1.215780961683798
1040
0.0185836074924171
1071
        1
1005
19D7C
1070
     0
1070
     1
1040
0.0
1040
0.25
1070
     0
1070
     1
1040
0.7853981633974483
1040
-1.803815435088733
1040
-4.8568792359449589
1040
-0.0220970869120796
1040
0.0220970869120796
1070
     0
1071
        1
1040
-1.803815435088733
1040
-4.8568792359449589
1040
0.0
1002
}
  0
POLYLINE
  5
19D7C
  8
PART
 66
     1
 10
0.0
 20
0.0
 30
0.0
 70
     1
1001
ACAD
1000
ASC_BOUNDS
1002
{
1070
    19
1005
19D7B
1002
}
  0
VERTEX
  5
19F29
  8
PART
 10
1.215780961683798
 20
0.0185836074924171
 30
0.0
  0
VERTEX
  5
19F2A
  8
PART
 10
1.3057809616837981
 20
0.0185836074924171
 30
0.0
 42
-0.4142135623730904
  0
VERTEX
  5
19F2B
  8
PART
 10
1.315780961683797
 20
0.0085836074924173
 30
0.0
  0
VERTEX
  5
19F2C
  8
PART
 10
1.315780961683797
 20
0.0005836074924173
 30
0.0
 42
-0.4142135623731003
  0
VERTEX
  5
19F2D
  8
PART
 10
1.3057809616837981
 20
-0.0094163925075825
 30
0.0
  0
VERTEX
  5
19F2E
  8
PART
 10
1.0557809616837981
 20
-0.0094163925075825
 30
0.0
 42
-0.4142135623730905
  0
VERTEX
  5
19F2F
  8
PART
 10
1.0457809616837981
 20
0.0005836074924173
 30
0.0
  0
VERTEX
  5
19F30
  8
PART
 10
1.0457809616837981
 20
0.0085836074924173
 30
0.0
 42
-0.4142135623730987
  0
VERTEX
  5
19F31
  8
PART
 10
1.0557809616837981
 20
0.0185836074924171
 30
0.0
  0
VERTEX
  5
19F32
  8
PART
 10
1.1457809616837971
 20
0.0185836074924171
 30
0.0
  0
VERTEX
  5
19F33
  8
PART
 10
1.1457809616837971
 20
0.0464414718686863
 30
0.0
 42
-0.1989123673796493
  0
VERTEX
  5
19F34
  8
PART
 10
1.148709893871932
 20
0.0535125396805516
 30
0.0
  0
VERTEX
  5
19F35
  8
PART
 10
1.157852029495664
 20
0.062654675304284
 30
0.0
 42
-0.198912367379658
  0
VERTEX
  5
19F36
  8
PART
 10
1.1649230973075291
 20
0.0655836074924186
 30
0.0
  0
VERTEX
  5
19F37
  8
PART
 10
1.196638826060068
 20
0.0655836074924186
 30
0.0
 42
-0.1989123673796486
  0
VERTEX
  5
19F38
  8
PART
 10
1.2037098938719331
 20
0.0626546753042849
 30
0.0
  0
VERTEX
  5
19F39
  8
PART
 10
1.2128520294956631
 20
0.0535125396805543
 30
0.0
 42
-0.1989123673796466
  0
VERTEX
  5
19F3A
  8
PART
 10
1.215780961683798
 20
0.046441471868689
 30
0.0
  0
SEQEND
  5
19F3B
  8
PART
  0
POLYLINE
  5
19D7D
  8
PART
 66
     1
 10
0.0
 20
0.0
 30
0.0
 70
     1
1001
ACAD
1000
ASC_BOUNDS
1002
{
1070
    19
1005
19D7E
1002
}
  0
VERTEX
  5
19F3C
  8
PART
 10
1.157852029495664
 20
0.062654675304284
 30
0.0
 42
-0.1989123673796537
  0
VERTEX
  5
19F3D
  8
PART
 10
1.1649230973075291
 20
0.0655836074924186
 30
0.0
  0
VERTEX
  5
19F3E
  8
PART
 10
1.196638826060068
 20
0.0655836074924186
 30
0.0
 42
-0.1989123673796441
  0
VERTEX
  5
19F3F
  8
PART
 10
1.2037098938719331
 20
0.0626546753042849
 30
0.0
  0
VERTEX
  5
19F40
  8
PART
 10
1.2128520294956631
 20
0.0535125396805543
 30
0.0
 42
-0.1989123673796478
  0
VERTEX
  5
19F41
  8
PART
 10
1.215780961683798
 20
0.046441471868689
 30
0.0
  0
VERTEX
  5
19F42
  8
PART
 10
1.215780961683798
 20
0.0385836074924166
 30
0.0
  0
VERTEX
  5
19F43
  8
PART
 10
1.2207809616837979
 20
0.0385836074924166
 30
0.0
  0
VERTEX
  5
19F44
  8
PART
 10
1.2207809616837979
 20
0.0515876398160604
 30
0.0
 42
-0.2789039971402809
  0
VERTEX
  5
19F45
  8
PART
 10
1.2341738188266591
 20
0.0737297769011163
 30
0.0
 42
4.0614764257899791
  0
VERTEX
  5
19F46
  8
PART
 10
1.127388104540936
 20
0.0737297769011172
 30
0.0
 42
-0.2789039971402843
  0
VERTEX
  5
19F47
  8
PART
 10
1.1407809616837981
 20
0.0515876398160604
 30
0.0
  0
VERTEX
  5
19F48
  8
PART
 10
1.1407809616837969
 20
0.0385836074924166
 30
0.0
  0
VERTEX
  5
19F49
  8
PART
 10
1.1457809616837971
 20
0.0385836074924166
 30
0.0
  0
VERTEX
  5
19F4A
  8
PART
 10
1.1457809616837971
 20
0.0464414718686863
 30
0.0
 42
-0.1989123673796452
  0
VERTEX
  5
19F4B
  8
PART
 10
1.148709893871932
 20
0.0535125396805516
 30
0.0
  0
SEQEND
  5
19F4C
  8
PART
  0
INSERT
  5
19D7E
  8
HATCH
  6
CONTINUOUS
  2
*X32
 10
0.0
 20
0.0
 30
0.0
1001
ACAD
1000
HATCH
1002
{
1070
    19
1000
ANSI31
1040
0.1
1040
1.047197551196597
1000
ASC_BOUNDS
1070
     2
1070
     2
1070
     1
1005
19D7D
1070
     2
1070
     1
1005
19D5E
1000
ASC_SEEDPOINT
1011
0.3193752774070226
1021
0.0
1031
0.0
1021
-5.5344436177863523
1031
0.0
1000
R14_HATCH_DATA
1000
19D7E
1011
1.0
1021
0.0
1031
0.0
1021
0.0
1031
0.0
1011
0.0
1021
0.0
1031
0.0
1021
1.0
1031
0.0
1011
0.0
1021
0.0
1031
0.0
1021
0.0
1031
1.0
1040
0.0
1010
0.0
1020
0.0
1030
1.0
1000
ANSI31
1070
     0
1070
     1
1071
        2
1071
       16
1071
        1
1070
     2
1040
1.1807809616837981
1040
0.1755836074924206
1040
0.11
1040
0.0
1040
6.2831853071795862
1070
     1
1071
        1
1005
19D5E
1071
        1
1071
       16
1070
     2
1040
1.1649230973075291
1040
0.0555836074924197
1040
0.0099999999999989
1040
3.9269908169872019
1040
4.7123889803846337
1070
     0
1070
     1
1040
1.1649230973075291
1040
0.0655836074924186
1040
1.196638826060068
1040
0.0655836074924186
1070
     2
1040
1.196638826060068
1040
0.0555836074924197
1040
0.0099999999999989
1040
4.7123889803846559
1040
5.4977871437820509
1070
     0
1070
     1
1040
1.2037098938719331
1040
0.0626546753042849
1040
1.2128520294956631
1040
0.0535125396805543
1070
     2
1040
1.205780961683798
1040
0.046441471868689
1040
0.0100000000000001
1040
5.497787143782169
1040
6.2831853071795862
1070
     0
1070
     1
1040
1.215780961683798
1040
0.046441471868689
1040
1.215780961683798
1040
0.0385836074924166
1070
     1
1040
1.215780961683798
1040
0.0385836074924166
1040
1.2207809616837979
1040
0.0385836074924166
1070
     1
1040
1.2207809616837979
1040
0.0385836074924166
1040
1.2207809616837979
1040
0.0515876398160604
1070
     2
1040
1.245780961683792
1040
0.0515876398160515
1040
0.0249999999999943
1040
3.1415926535901479
1040
4.2295610176399894
1070
     0
1070
     2
1040
1.1807809616837981
1040
0.1755836074924206
1040
0.1150000000000002
1040
5.1952169431297408
1040
10.512746324819201
1070
     1
1070
     2
1040
1.115780961683803
1040
0.0515876398160515
1040
0.0249999999999948
1040
5.1952169431293846
1040
6.2831853071792301
1070
     0
1070
     1
1040
1.1407809616837981
1040
0.0515876398160604
1040
1.1407809616837969
1040
0.0385836074924166
1070
     1
1040
1.1407809616837969
1040
0.0385836074924166
1040
1.1457809616837971
1040
0.0385836074924166
1070
     1
1040
1.1457809616837971
1040
0.0385836074924166
1040
1.1457809616837971
1040
0.0464414718686863
1070
     2
1040
1.155780961683798
1040
0.0464414718686854
1040
0.0100000000000006
1040
3.141592653589881
1040
3.926990816987272
1070
     0
1070
     1
1040
1.148709893871932
1040
0.0535125396805516
1040
1.157852029495664
1040
0.062654675304284
1071
        1
1005
19D7D
1070
     0
1070
     1
1040
1.047197551196597
1040
0.1
1070
     0
1070
     1
1040
1.832595714594045
1040
0.3193752774070226
1040
-5.5344436177863523
1040
-0.0120740728286134
1040
-0.0032352380637815
1070
     0
1071
        1
1040
0.3193752774070226
1040
-5.5344436177863523
1040
0.0
1002
}
  0
VIEWPORT
  5
B94C
 67
     1
  8
0
 10
4.2500000197906047
 20
5.499999966006726
 30
0.0
 40
22.896723563831479
 41
11.072807056794691
 68
     1
 69
     1
1001
ACAD
1000
MVIEW
1002
{
1070
    16
1010
0.0
1020
0.0
1030
0.0
1010
0.0
1020
0.0
1030
1.0
1040
0.0
1040
11.072807056794691
1040
4.2500000197906047
1040
5.499999966006726
1040
50.0
1040
0.0
1040
0.0
1070
     0
1070
   500
1070
     1
1070
     1
1070
     0
1070
     0
1070
     0
1070
     0
1040
0.0
1040
0.0
1040
0.0
1040
0.5
1040
0.5
1040
0.5
1040
0.5
1070
     0
1002
{
1002
}
1002
}
  0
ENDSEC
  0
EOF
