  0
SECTION
  2
HEADER
  9
$ACADVER
  1
AC1009
  9
$INSBASE
 10
0.0
 20
0.0
 30
0.0
  9
$EXTMIN
 10
8.4325495003048623
 20
5.5232550031286296
 30
0.0
  9
$EXTMAX
 10
8.7877439660273797
 20
6.0704059223270228
 30
0.0
  9
$LIMMIN
 10
0.0
 20
0.0
  9
$LIMMAX
 10
12.0
 20
9.0
  9
$ORTHOMODE
 70
     0
  9
$REGENMODE
 70
     1
  9
$FILLMODE
 70
     1
  9
$QTEXTMODE
 70
     0
  9
$MIRRTEXT
 70
     1
  9
$DRAGMODE
 70
     2
  9
$LTSCALE
 40
1.0
  9
$OSMODE
 70
    39
  9
$ATTMODE
 70
     1
  9
$TEXTSIZE
 40
0.2
  9
$TRACEWID
 40
0.05
  9
$TEXTSTYLE
  7
STANDARD
  9
$CLAYER
  8
0
  9
$CELTYPE
  6
BYLAYER
  9
$CECOLOR
 62
   256
  9
$DIMSCALE
 40
1.0
  9
$DIMASZ
 40
0.18
  9
$DIMEXO
 40
0.0625
  9
$DIMDLI
 40
0.38
  9
$DIMRND
 40
0.0
  9
$DIMDLE
 40
0.0
  9
$DIMEXE
 40
0.18
  9
$DIMTP
 40
0.0
  9
$DIMTM
 40
0.0
  9
$DIMTXT
 40
0.18
  9
$DIMCEN
 40
0.09
  9
$DIMTSZ
 40
0.0
  9
$DIMTOL
 70
     0
  9
$DIMLIM
 70
     0
  9
$DIMTIH
 70
     1
  9
$DIMTOH
 70
     1
  9
$DIMSE1
 70
     0
  9
$DIMSE2
 70
     0
  9
$DIMTAD
 70
     0
  9
$DIMZIN
 70
     0
  9
$DIMBLK
  1

  9
$DIMASO
 70
     1
  9
$DIMSHO
 70
     1
  9
$DIMPOST
  1

  9
$DIMAPOST
  1

  9
$DIMALT
 70
     0
  9
$DIMALTD
 70
     2
  9
$DIMALTF
 40
25.399999999999999
  9
$DIMLFAC
 40
1.0
  9
$DIMTOFL
 70
     0
  9
$DIMTVP
 40
0.0
  9
$DIMTIX
 70
     0
  9
$DIMSOXD
 70
     0
  9
$DIMSAH
 70
     0
  9
$DIMBLK1
  1

  9
$DIMBLK2
  1

  9
$DIMSTYLE
  2
STANDARD
  9
$DIMCLRD
 70
     0
  9
$DIMCLRE
 70
     0
  9
$DIMCLRT
 70
     0
  9
$DIMTFAC
 40
1.0
  9
$DIMGAP
 40
0.09
  9
$LUNITS
 70
     2
  9
$LUPREC
 70
     4
  9
$SKETCHINC
 40
0.1
  9
$FILLETRAD
 40
0.5
  9
$AUNITS
 70
     0
  9
$AUPREC
 70
     0
  9
$MENU
  1
.
  9
$ELEVATION
 40
0.0
  9
$PELEVATION
 40
0.0
  9
$THICKNESS
 40
0.0
  9
$LIMCHECK
 70
     0
  9
$BLIPMODE
 70
     0
  9
$CHAMFERA
 40
0.5
  9
$CHAMFERB
 40
0.5
  9
$SKPOLY
 70
     0
  9
$TDCREATE
 40
2451969.4014964122
  9
$TDUPDATE
 40
2451982.5499421288
  9
$TDINDWG
 40
1.0699371527999999
  9
$TDUSRTIMER
 40
1.0699371527999999
  9
$USRTIMER
 70
     1
  9
$ANGBASE
 50
0.0
  9
$ANGDIR
 70
     0
  9
$PDMODE
 70
     0
  9
$PDSIZE
 40
0.0
  9
$PLINEWID
 40
0.0
  9
$COORDS
 70
     0
  9
$SPLFRAME
 70
     0
  9
$SPLINETYPE
 70
     6
  9
$SPLINESEGS
 70
     8
  9
$ATTDIA
 70
     0
  9
$ATTREQ
 70
     1
  9
$HANDLING
 70
  4097
  9
$HANDSEED
  5
84
  9
$SURFTAB1
 70
     6
  9
$SURFTAB2
 70
     6
  9
$SURFTYPE
 70
     6
  9
$SURFU
 70
     6
  9
$SURFV
 70
     6
  9
$UCSNAME
  2

  9
$UCSORG
 10
0.0
 20
0.0
 30
0.0
  9
$UCSXDIR
 10
1.0
 20
0.0
 30
0.0
  9
$UCSYDIR
 10
0.0
 20
1.0
 30
0.0
  9
$PUCSNAME
  2

  9
$PUCSORG
 10
0.0
 20
0.0
 30
0.0
  9
$PUCSXDIR
 10
1.0
 20
0.0
 30
0.0
  9
$PUCSYDIR
 10
0.0
 20
1.0
 30
0.0
  9
$USERI1
 70
     0
  9
$USERI2
 70
     0
  9
$USERI3
 70
     0
  9
$USERI4
 70
     0
  9
$USERI5
 70
     0
  9
$USERR1
 40
0.0
  9
$USERR2
 40
0.0
  9
$USERR3
 40
0.0
  9
$USERR4
 40
0.0
  9
$USERR5
 40
0.0
  9
$WORLDVIEW
 70
     1
  9
$SHADEDGE
 70
     3
  9
$SHADEDIF
 70
    70
  9
$TILEMODE
 70
     1
  9
$MAXACTVP
 70
    48
  9
$PLIMCHECK
 70
     0
  9
$PEXTMIN
 10
1.0000000000000000E+020
 20
1.0000000000000000E+020
 30
1.0000000000000000E+020
  9
$PEXTMAX
 10
-1.0000000000000000E+020
 20
-1.0000000000000000E+020
 30
-1.0000000000000000E+020
  9
$PLIMMIN
 10
0.0
 20
0.0
  9
$PLIMMAX
 10
12.0
 20
9.0
  9
$UNITMODE
 70
     0
  9
$VISRETAIN
 70
     1
  9
$PLINEGEN
 70
     0
  9
$PSLTSCALE
 70
     1
  0
ENDSEC
  0
SECTION
  2
TABLES
  0
TABLE
  2
VPORT
 70
     2
  0
VPORT
  2
*ACTIVE
 70
     0
 10
0.0
 20
0.0
 11
1.0
 21
1.0
 12
8.6274307296747743
 22
5.9701231760310023
 13
0.0
 23
0.0
 14
0.5
 24
0.5
 15
0.5
 25
0.5
 16
0.0
 26
0.0
 36
1.0
 17
0.0
 27
0.0
 37
0.0
 40
1.7146350185822561
 41
1.878980891719745
 42
50.0
 43
0.0
 44
0.0
 50
0.0
 51
0.0
 71
     0
 72
   100
 73
     1
 74
     2
 75
     0
 76
     0
 77
     0
 78
     0
  0
ENDTAB
  0
TABLE
  2
LTYPE
 70
     1
  0
LTYPE
  2
CONTINUOUS
 70
     0
  3
Solid line
 72
    65
 73
     0
 40
0.0
  0
ENDTAB
  0
TABLE
  2
LAYER
 70
     1
  0
LAYER
  2
0
 70
     0
 62
     1
  6
CONTINUOUS
  0
ENDTAB
  0
TABLE
  2
STYLE
 70
     1
  0
STYLE
  2
STANDARD
 70
     0
 40
0.0
 41
1.0
 50
0.0
 71
     0
 42
0.2
  3
txt
  4

  0
ENDTAB
  0
TABLE
  2
VIEW
 70
     0
  0
ENDTAB
  0
TABLE
  2
UCS
 70
     0
  0
ENDTAB
  0
TABLE
  2
APPID
 70
     1
  0
APPID
  2
ACAD
 70
     0
  0
ENDTAB
  0
TABLE
  2
DIMSTYLE
 70
     1
  0
DIMSTYLE
  2
STANDARD
 70
     0
  3

  4

  5

  6

  7

 40
1.0
 41
0.18
 42
0.0625
 43
0.38
 44
0.18
 45
0.0
 46
0.0
 47
0.0
 48
0.0
140
0.18
141
0.09
142
0.0
143
25.399999999999999
144
1.0
145
0.0
146
1.0
147
0.09
 71
     0
 72
     0
 73
     1
 74
     1
 75
     0
 76
     0
 77
     0
 78
     0
170
     0
171
     2
172
     0
173
     0
174
     0
175
     0
176
     0
177
     0
178
     0
  0
ENDTAB
  0
ENDSEC
  0
SECTION
  2
BLOCKS
  0
BLOCK
  8
0
  2
$MODEL_SPACE
 70
     0
 10
0.0
 20
0.0
 30
0.0
  3
$MODEL_SPACE
  1

  0
ENDBLK
  5
9
  8
0
  0
BLOCK
 67
     1
  8
0
  2
$PAPER_SPACE
 70
     0
 10
0.0
 20
0.0
 30
0.0
  3
$PAPER_SPACE
  1

  0
ENDBLK
  5
E
 67
     1
  8
0
  0
ENDSEC
  0
SECTION
  2
ENTITIES
  0
LINE
  5
24
  8
0
 10
8.4740606639273803
 20
5.9982092653286303
 30
0.0
 11
8.5140645691273793
 21
5.7442550031286297
 31
0.0
  0
LINE
  5
25
  8
0
 10
8.4483773619273794
 20
5.99416352742863
 30
0.0
 11
8.4877439660273808
 21
5.7442550031286297
 31
0.0
  0
LINE
  5
26
  8
0
 10
8.5195392069273801
 20
6.019111706228629
 30
0.0
 11
8.6183118609273794
 21
5.9031205496286301
 31
0.0
  0
LINE
  5
27
  8
0
 10
8.7877439660273797
 20
5.7442550031286297
 30
0.0
 11
8.5393344478273807
 21
6.0359684092286301
 31
0.0
  0
LINE
  5
28
  8
0
 10
8.6516371334273803
 20
5.528868207128629
 30
0.0
 11
8.7659460069273791
 21
5.6392550031286302
 31
0.0
  0
LINE
  5
29
  8
0
 10
8.5159460069273791
 20
5.6330706532286303
 30
0.0
 11
8.6238507986273802
 21
5.528868207128629
 31
0.0
  0
ARC
  5
2A
  8
0
 10
8.6377439660273794
 20
5.5432550031286301
 30
0.0
 40
0.02
 50
226.0
 51
314.0
  0
LINE
  5
2B
  8
0
 10
8.4877439660273808
 20
5.7142550031286294
 30
0.0
 11
8.7877439660273797
 21
5.7142550031286294
 31
0.0
  0
LINE
  5
2C
  8
0
 10
8.7877439660273797
 20
5.7442550031286297
 30
0.0
 11
8.4877439660273808
 21
5.7442550031286297
 31
0.0
  0
LINE
  5
2D
  8
0
 10
8.6183118609273794
 20
5.9031205496286301
 30
0.0
 11
8.5757439660273782
 21
5.7442550031286297
 31
0.0
  0
LINE
  5
2E
  8
0
 10
8.4877439660273808
 20
5.7442550031286297
 30
0.0
 11
8.4877439660273808
 21
5.7142550031286294
 31
0.0
  0
LINE
  5
2F
  8
0
 10
8.5627439660273801
 20
5.6330706532286303
 30
0.0
 11
8.5159460069273791
 21
5.6330706532286303
 31
0.0
  0
LINE
  5
30
  8
0
 10
8.5627439660273801
 20
5.7142550031286294
 30
0.0
 11
8.5627439660273801
 21
5.6330706532286303
 31
0.0
  0
LINE
  5
31
  8
0
 10
8.7877439660273797
 20
5.7142550031286294
 30
0.0
 11
8.7877439660273797
 21
5.7442550031286297
 31
0.0
  0
LINE
  5
32
  8
0
 10
8.6727439660273795
 20
5.7142550031286294
 30
0.0
 11
8.6727439660273795
 21
5.6132550031286303
 31
0.0
  0
LINE
  5
33
  8
0
 10
8.6027439660273792
 20
5.6132550031286303
 30
0.0
 11
8.6027439660273792
 21
5.7142550031286294
 31
0.0
  0
ARC
  5
34
  8
0
 10
8.6377439660273794
 20
5.6132550031286303
 30
0.0
 40
0.035
 50
180.0
 51
0.0
  0
LINE
  5
35
  8
0
 10
8.7659460069273791
 20
5.6392550031286302
 30
0.0
 11
8.7127439660273804
 21
5.6392550031286302
 31
0.0
  0
LINE
  5
36
  8
0
 10
8.7127439660273804
 20
5.6392550031286302
 30
0.0
 11
8.7127439660273804
 21
5.7142550031286294
 31
0.0
  0
LINE
  5
37
  8
0
 10
8.6387865041273795
 20
5.8790766725286288
 30
0.0
 11
8.7535943437273804
 21
5.7442550031286297
 31
0.0
  0
LINE
  5
38
  8
0
 10
8.6026611467273781
 20
5.7442550031286297
 30
0.0
 11
8.6387865041273795
 21
5.8790766725286288
 31
0.0
  0
ARC
  5
39
  8
0
 10
8.4997439660273795
 20
6.0022550031286288
 30
0.0
 40
0.052
 50
40.416165161699979
 51
188.9519035427999
  0
ARC
  5
3A
  8
0
 10
8.4997439660273795
 20
6.0022550031286288
 30
0.0
 40
0.026
 50
40.416165161699979
 51
188.9519035427999
  0
ENDSEC
  0
EOF
