  0
SECTION
  2
HEADER
  9
$ACADVER
  1
AC1009
  9
$INSBASE
 10
0.0
 20
0.0
 30
0.0
  9
$EXTMIN
 10
-0.2848882897859837
 20
-0.0849903357999673
 30
-0.0000000349181948
  9
$EXTMAX
 10
-0.0298653601684875
 20
0.3951451648686293
 30
0.0000000814935746
  9
$LIMMIN
 10
0.0
 20
0.0
  9
$LIMMAX
 10
1.1999999999999991
 20
1.0
  9
$ORTHOMODE
 70
     0
  9
$REGENMODE
 70
     1
  9
$FILLMODE
 70
     1
  9
$QTEXTMODE
 70
     0
  9
$MIRRTEXT
 70
     1
  9
$DRAGMODE
 70
     2
  9
$LTSCALE
 40
1.0
  9
$OSMODE
 70
    49
  9
$ATTMODE
 70
     1
  9
$TEXTSIZE
 40
0.125
  9
$TRACEWID
 40
0.05
  9
$TEXTSTYLE
  7
STANDARD
  9
$CLAYER
  8
DIM
  9
$CELTYPE
  6
BYLAYER
  9
$CECOLOR
 62
     1
  9
$DIMSCALE
 40
0.0
  9
$DIMASZ
 40
0.125
  9
$DIMEXO
 40
0.05
  9
$DIMDLI
 40
0.02
  9
$DIMRND
 40
0.0
  9
$DIMDLE
 40
0.0
  9
$DIMEXE
 40
0.05
  9
$DIMTP
 40
0.005
  9
$DIMTM
 40
0.005
  9
$DIMTXT
 40
0.125
  9
$DIMCEN
 40
0.02
  9
$DIMTSZ
 40
0.0
  9
$DIMTOL
 70
     0
  9
$DIMLIM
 70
     0
  9
$DIMTIH
 70
     1
  9
$DIMTOH
 70
     1
  9
$DIMSE1
 70
     0
  9
$DIMSE2
 70
     0
  9
$DIMTAD
 70
     0
  9
$DIMZIN
 70
     4
  9
$DIMBLK
  1

  9
$DIMASO
 70
     1
  9
$DIMSHO
 70
     1
  9
$DIMPOST
  1

  9
$DIMAPOST
  1

  9
$DIMALT
 70
     0
  9
$DIMALTD
 70
     1
  9
$DIMALTF
 40
25.399999999999999
  9
$DIMLFAC
 40
1.0
  9
$DIMTOFL
 70
     0
  9
$DIMTVP
 40
0.0
  9
$DIMTIX
 70
     0
  9
$DIMSOXD
 70
     0
  9
$DIMSAH
 70
     0
  9
$DIMBLK1
  1

  9
$DIMBLK2
  1

  9
$DIMSTYLE
  2
SCOTTG
  9
$DIMCLRD
 70
   256
  9
$DIMCLRE
 70
   256
  9
$DIMCLRT
 70
   256
  9
$DIMTFAC
 40
1.0
  9
$DIMGAP
 40
0.02
  9
$LUNITS
 70
     2
  9
$LUPREC
 70
     5
  9
$SKETCHINC
 40
0.1
  9
$FILLETRAD
 40
0.01
  9
$AUNITS
 70
     0
  9
$AUPREC
 70
     0
  9
$MENU
  1
.
  9
$ELEVATION
 40
0.0
  9
$PELEVATION
 40
0.0
  9
$THICKNESS
 40
0.0
  9
$LIMCHECK
 70
     0
  9
$BLIPMODE
 70
     0
  9
$CHAMFERA
 40
0.0
  9
$CHAMFERB
 40
0.0
  9
$SKPOLY
 70
     0
  9
$TDCREATE
 40
2450919.3750775461
  9
$TDUPDATE
 40
2455804.4873687732
  9
$TDINDWG
 40
2.4002485880000002
  9
$TDUSRTIMER
 40
2.4002485880000002
  9
$USRTIMER
 70
     1
  9
$ANGBASE
 50
0.0
  9
$ANGDIR
 70
     0
  9
$PDMODE
 70
     0
  9
$PDSIZE
 40
0.0
  9
$PLINEWID
 40
0.0
  9
$COORDS
 70
     1
  9
$SPLFRAME
 70
     0
  9
$SPLINETYPE
 70
     6
  9
$SPLINESEGS
 70
     8
  9
$ATTDIA
 70
     0
  9
$ATTREQ
 70
     1
  9
$HANDLING
 70
     1
  9
$HANDSEED
  5
19F2B
  9
$SURFTAB1
 70
     6
  9
$SURFTAB2
 70
     6
  9
$SURFTYPE
 70
     6
  9
$SURFU
 70
     6
  9
$SURFV
 70
     6
  9
$UCSNAME
  2

  9
$UCSORG
 10
0.0
 20
0.0
 30
0.0
  9
$UCSXDIR
 10
1.0
 20
0.0
 30
0.0
  9
$UCSYDIR
 10
0.0
 20
1.0
 30
0.0
  9
$PUCSNAME
  2

  9
$PUCSORG
 10
0.0
 20
0.0
 30
0.0
  9
$PUCSXDIR
 10
1.0
 20
0.0
 30
0.0
  9
$PUCSYDIR
 10
0.0
 20
1.0
 30
0.0
  9
$USERI1
 70
     0
  9
$USERI2
 70
     0
  9
$USERI3
 70
     0
  9
$USERI4
 70
     0
  9
$USERI5
 70
     0
  9
$USERR1
 40
0.0
  9
$USERR2
 40
0.0
  9
$USERR3
 40
0.0
  9
$USERR4
 40
0.0
  9
$USERR5
 40
0.0
  9
$WORLDVIEW
 70
     1
  9
$SHADEDGE
 70
     3
  9
$SHADEDIF
 70
    70
  9
$TILEMODE
 70
     1
  9
$MAXACTVP
 70
    48
  9
$PLIMCHECK
 70
     0
  9
$PEXTMIN
 10
-0.0002593796237598
 20
-0.0003357869613225
 30
-0.0015258207003583
  9
$PEXTMAX
 10
8.5002594192049692
 20
11.000335718974769
 30
0.0000000349246037
  9
$PLIMMIN
 10
0.0000001811605737
 20
-0.0000001192092895
  9
$PLIMMAX
 10
8.4999999408646811
 20
10.999999640494821
  9
$UNITMODE
 70
     0
  9
$VISRETAIN
 70
     1
  9
$PLINEGEN
 70
     0
  9
$PSLTSCALE
 70
     1
  0
ENDSEC
  0
SECTION
  2
TABLES
  0
TABLE
  2
VPORT
 70
     1
  0
VPORT
  2
*ACTIVE
 70
     0
 10
0.0
 20
0.0
 11
1.0
 21
1.0
 12
-19.879363870972579
 22
-0.4841004341787274
 13
0.0
 23
0.0
 14
0.5
 24
0.5
 15
0.5
 25
0.5
 16
0.0
 26
0.0
 36
5.6148375865943736
 17
19.721987045995348
 27
0.6391778487130584
 37
0.0
 40
0.4832839301811776
 41
2.067833698030634
 42
50.0
 43
0.0
 44
0.0
 50
0.0
 51
0.0
 71
     0
 72
 20000
 73
     1
 74
     0
 75
     0
 76
     0
 77
     0
 78
     0
  0
ENDTAB
  0
TABLE
  2
LTYPE
 70
     1
  0
LTYPE
  2
CONTINUOUS
 70
     0
  3
Solid line
 72
    65
 73
     0
 40
0.0
  0
ENDTAB
  0
TABLE
  2
LAYER
 70
     6
  0
LAYER
  2
0
 70
     0
 62
     7
  6
CONTINUOUS
  0
LAYER
  2
DEFPOINTS
 70
     0
 62
     7
  6
CONTINUOUS
  0
LAYER
  2
HATCH
 70
     0
 62
     7
  6
CONTINUOUS
  0
LAYER
  2
PART
 70
     0
 62
     7
  6
CONTINUOUS
  0
LAYER
  2
HIDDEN
 70
     0
 62
     7
  6
CONTINUOUS
  0
LAYER
  2
DIM
 70
     0
 62
     7
  6
CONTINUOUS
  0
ENDTAB
  0
TABLE
  2
STYLE
 70
     3
  0
STYLE
  2
STANDARD
 70
     0
 40
0.0
 41
1.0
 50
0.0
 71
     0
 42
0.125
  3
txt
  4

  0
STYLE
  2
ROMANS
 70
     0
 40
0.0
 41
1.0
 50
0.0
 71
     0
 42
0.1
  3
SIMPLEX.shx
  4

  0
ENDTAB
  0
TABLE
  2
VIEW
 70
     0
  0
ENDTAB
  0
TABLE
  2
UCS
 70
     0
  0
ENDTAB
  0
TABLE
  2
APPID
 70
    16
  0
APPID
  2
ACAD
 70
     0
  0
APPID
  2
ADP_SK
 70
     0
  0
APPID
  2
ADP_SOL
 70
     0
  0
APPID
  2
ACIS_LNK
 70
     0
  0
APPID
  2
AME_SOL
 70
     0
  0
APPID
  2
ACAD_MLEADERVER
 70
     0
  0
APPID
  2
ACAD_EXEMPT_FROM_CAD_STANDARDS
 70
     0
  0
APPID
  2
ACAD_PSEXT
 70
     0
  0
APPID
  2
ACDBDYNAMICBLOCKGUID
 70
     0
  0
APPID
  2
ACDBBLOCKREPETAG
 70
     0
  0
APPID
  2
ACDBDYNAMICBLOCKTRUENAME
 70
     0
  0
APPID
  2
ACAD_DSTYLE_DIMJAG
 70
     0
  0
APPID
  2
ACAD_DSTYLE_DIMTALN
 70
     0
  0
APPID
  2
ACAECLAYERSTANDARD
 70
     0
  0
APPID
  2
ACAUTHENVIRON
 70
     0
  0
APPID
  2
ACADANNOPO
 70
     0
  0
ENDTAB
  0
TABLE
  2
DIMSTYLE
 70
     2
  0
DIMSTYLE
  2
SCOTTG
 70
     0
  3

  4

  5

  6

  7

 40
0.15
 41
0.125
 42
0.1
 43
0.25
 44
0.1
 45
0.0
 46
0.0
 47
0.01
 48
0.01
140
0.125
141
0.06
142
0.0
143
25.399999999999999
144
1.0
145
0.0
146
1.0
147
0.09
 71
     1
 72
     0
 73
     1
 74
     1
 75
     0
 76
     0
 77
     0
 78
     4
170
     0
171
     1
172
     0
173
     0
174
     1
175
     0
176
   256
177
   256
178
   256
  0
ENDTAB
  0
ENDSEC
  0
SECTION
  2
BLOCKS
  0
BLOCK
  8
0
  2
$MODEL_SPACE
 70
     0
 10
0.0
 20
0.0
 30
0.0
  3
$MODEL_SPACE
  1

  0
ENDBLK
  5
1A
  8
0
  0
BLOCK
 67
     1
  8
0
  2
$PAPER_SPACE
 70
     0
 10
0.0
 20
0.0
 30
0.0
  3
$PAPER_SPACE
  1

  0
ENDBLK
  5
B932
 67
     1
  8
0
  0
BLOCK
  8
0
 62
     1
  2
*D4
 70
     1
 10
0.0
 20
0.0
 30
0.0
  3
*D4
  1

  0
LINE
  5
19CA6
  8
DIM
 10
-0.7137696498282722
 20
-0.3568003526488883
 30
0.0
 11
-0.7137696498282722
 21
-0.5005429178505954
 31
0.0
  0
LINE
  5
19CA7
  8
DIM
 10
-0.6737696498282713
 20
-0.3457235498186814
 30
0.0
 11
-0.6737696498282713
 21
-0.5005429178505954
 31
0.0
  0
LINE
  5
19CA8
  8
DIM
 10
-0.751607131967705
 20
-0.4854079249948223
 30
0.0
 11
-0.7894446141071377
 21
-0.4854079249948223
 31
0.0
  0
LINE
  5
19CA9
  8
DIM
 10
-0.6359321676888385
 20
-0.4854079249948223
 30
0.0
 11
-0.5789963118899568
 21
-0.4854079249948223
 31
0.0
  0
SOLID
  5
19CAA
  8
DIM
 10
-0.751607131967705
 20
-0.4791016779715834
 30
0.0
 11
-0.751607131967705
 21
-0.4917141720180611
 31
0.0
 12
-0.7137696498282722
 22
-0.4854079249948223
 32
0.0
 13
-0.7137696498282722
 23
-0.4854079249948223
 33
0.0
  0
SOLID
  5
19CAB
  8
DIM
 10
-0.6359321676888385
 20
-0.4791016779715834
 30
0.0
 11
-0.6359321676888385
 21
-0.4917141720180611
 31
0.0
 12
-0.6737696498282713
 22
-0.4854079249948223
 32
0.0
 13
-0.6737696498282713
 23
-0.4854079249948223
 33
0.0
  0
INSERT
  5
19CAC
  8
DIM
 62
     1
  2
*U25
 10
0.0
 20
0.0
 30
0.0
  0
POINT
  5
19CAD
  8
DEFPOINTS
 62
     0
 10
-0.7137696498282722
 20
-0.3416653597931152
 30
0.0
  0
POINT
  5
19CAE
  8
DEFPOINTS
 62
     0
 10
-0.6737696498282713
 20
-0.3305885569629083
 30
0.0
  0
POINT
  5
19CAF
  8
DEFPOINTS
 62
     0
 10
-0.6737696498282713
 20
-0.4854079249948223
 30
0.0
  0
ENDBLK
  5
19270
  8
0
 62
     1
  0
BLOCK
  8
0
 62
     1
  2
*D5
 70
     1
 10
0.0
 20
0.0
 30
0.0
  3
*D5
  1

  0
LINE
  5
19CB0
  8
DIM
 10
-0.6737696498282713
 20
-0.3457235498186814
 30
0.0
 11
-0.6737696498282713
 21
-0.5624185288255315
 31
0.0
  0
LINE
  5
19CB1
  8
DIM
 10
-0.8288058449562399
 20
-0.3056184518678477
 30
0.0
 11
-0.8288058449562399
 21
-0.5624185288255315
 31
0.0
  0
LINE
  5
19CB2
  8
DIM
 10
-0.6359321676888385
 20
-0.5472835359697584
 30
0.0
 11
-0.5980946855494059
 21
-0.5472835359697584
 31
0.0
  0
LINE
  5
19CB3
  8
DIM
 10
-0.8666433270956726
 20
-0.5472835359697584
 30
0.0
 11
-0.9044808092351054
 21
-0.5472835359697584
 31
0.0
  0
SOLID
  5
19CB4
  8
DIM
 10
-0.6359321676888385
 20
-0.5409772889465195
 30
0.0
 11
-0.6359321676888385
 21
-0.5535897829929972
 31
0.0
 12
-0.6737696498282713
 22
-0.5472835359697584
 32
0.0
 13
-0.6737696498282713
 23
-0.5472835359697584
 33
0.0
  0
SOLID
  5
19CB5
  8
DIM
 10
-0.8666433270956726
 20
-0.5409772889465195
 30
0.0
 11
-0.8666433270956726
 21
-0.5535897829929972
 31
0.0
 12
-0.8288058449562399
 22
-0.5472835359697584
 32
0.0
 13
-0.8288058449562399
 23
-0.5472835359697584
 33
0.0
  0
INSERT
  5
19CB6
  8
DIM
 62
     1
  2
*U26
 10
0.0
 20
0.0
 30
0.0
  0
POINT
  5
19CB7
  8
DEFPOINTS
 62
     0
 10
-0.6737696498282713
 20
-0.3305885569629083
 30
0.0
  0
POINT
  5
19CB8
  8
DEFPOINTS
 62
     0
 10
-0.8288058449562399
 20
-0.2904834590120746
 30
0.0
  0
POINT
  5
19CB9
  8
DEFPOINTS
 62
     0
 10
-0.8288058449562399
 20
-0.5472835359697584
 30
0.0
  0
ENDBLK
  5
1927E
  8
0
 62
     1
  0
BLOCK
  8
0
 62
     1
  2
*D6
 70
     1
 10
0.0
 20
0.0
 30
0.0
  3
*D6
  1

  0
LINE
  5
19CBA
  8
DIM
 10
-0.7089046426840575
 20
-0.361665359793127
 30
0.0
 11
-1.3998460963576329
 21
-0.3616653597931267
 31
0.0
  0
LINE
  5
19CBB
  8
DIM
 10
-1.0192863598411339
 20
-0.0116653597931169
 30
0.0
 11
-1.3998460963576329
 21
-0.0116653597931168
 31
0.0
  0
LINE
  5
19CBC
  8
DIM
 10
-1.38471110350186
 20
-0.323827877653694
 30
0.0
 11
-1.38471110350186
 21
-0.2116380980051474
 31
0.0
  0
LINE
  5
19CBD
  8
DIM
 10
-1.38471110350186
 20
-0.0495028419325495
 30
0.0
 11
-1.38471110350186
 21
-0.1616926215810962
 31
0.0
  0
SOLID
  5
19CBE
  8
DIM
 10
-1.3910173505250989
 20
-0.323827877653694
 30
0.0
 11
-1.3784048564786211
 21
-0.323827877653694
 31
0.0
 12
-1.38471110350186
 22
-0.3616653597931267
 32
0.0
 13
-1.38471110350186
 23
-0.3616653597931267
 33
0.0
  0
SOLID
  5
19CBF
  8
DIM
 10
-1.3910173505250989
 20
-0.0495028419325495
 30
0.0
 11
-1.3784048564786211
 21
-0.0495028419325495
 31
0.0
 12
-1.38471110350186
 22
-0.0116653597931168
 32
0.0
 13
-1.38471110350186
 23
-0.0116653597931168
 33
0.0
  0
INSERT
  5
19CC0
  8
DIM
 62
     1
  2
*U27
 10
0.0
 20
0.0
 30
0.0
  0
POINT
  5
19CC1
  8
DEFPOINTS
 62
     0
 10
-0.6937696498282844
 20
-0.361665359793127
 30
0.0
  0
POINT
  5
19CC2
  8
DEFPOINTS
 62
     0
 10
-1.004151366985361
 20
-0.0116653597931169
 30
0.0
  0
POINT
  5
19CC3
  8
DEFPOINTS
 62
     0
 10
-1.38471110350186
 20
-0.0116653597931168
 30
0.0
  0
ENDBLK
  5
1928C
  8
0
 62
     1
  0
BLOCK
  8
0
 62
     1
  2
*D7
 70
     1
 10
0.0
 20
0.0
 30
0.0
  3
*D7
  1

  0
LINE
  5
19CC4
  8
DIM
 10
-1.019286359828351
 20
-0.0116653597931169
 30
0.0
 11
-1.3998460963448509
 21
-0.0116653597931168
 31
0.0
  0
LINE
  5
19CC5
  8
DIM
 10
-0.9182053222880618
 20
0.6383346371180387
 30
0.0
 11
-1.39984609634485
 21
0.6383346371180388
 31
0.0
  0
LINE
  5
19CC6
  8
DIM
 10
-1.38471110350186
 20
0.0261721223143589
 30
0.0
 11
-1.38471110350186
 21
0.2883619004715271
 31
0.0
  0
LINE
  5
19CC7
  8
DIM
 10
-1.38471110350186
 20
0.6004971550105632
 30
0.0
 11
-1.38471110350186
 21
0.338307376853395
 31
0.0
  0
SOLID
  5
19CC8
  8
DIM
 10
-1.3910173505197729
 20
0.0261721223143589
 30
0.0
 11
-1.3784048564839479
 21
0.0261721223143589
 31
0.0
 12
-1.38471110350186
 22
-0.0116653597931168
 32
0.0
 13
-1.38471110350186
 23
-0.0116653597931168
 33
0.0
  0
SOLID
  5
19CC9
  8
DIM
 10
-1.3910173505197729
 20
0.6004971550105632
 30
0.0
 11
-1.3784048564839471
 21
0.6004971550105632
 31
0.0
 12
-1.38471110350186
 22
0.6383346371180388
 32
0.0
 13
-1.38471110350186
 23
0.6383346371180388
 33
0.0
  0
INSERT
  5
19CCA
  8
DIM
 62
     1
  2
*U28
 10
0.0
 20
0.0
 30
0.0
  0
POINT
  5
19CCB
  8
DEFPOINTS
 62
     0
 10
-1.004151366985361
 20
-0.0116653597931169
 30
0.0
  0
POINT
  5
19CCC
  8
DEFPOINTS
 62
     0
 10
-0.9030703294450717
 20
0.6383346371180387
 30
0.0
  0
POINT
  5
19CCD
  8
DEFPOINTS
 62
     0
 10
-1.38471110350186
 20
0.6383346371180388
 30
0.0
  0
ENDBLK
  5
1929A
  8
0
 62
     1
  0
BLOCK
  8
0
 62
     1
  2
*D8
 70
     1
 10
0.0
 20
0.0
 30
0.0
  3
*D8
  1

  0
LINE
  5
19CCE
  8
DIM
 10
-0.9615020932476515
 20
0.6078622918644897
 30
0.0
 11
-1.1045239672149829
 21
0.4648404178971574
 31
0.0
  0
LINE
  5
19CCF
  8
DIM
 10
-0.8660426777874681
 20
0.5124028764043063
 30
0.0
 11
-1.0090645517548
 21
0.3693810024369739
 31
0.0
  0
LINE
  5
19CD0
  8
DIM
 10
-1.067066770961274
 20
0.4487873337884251
 30
0.0
 11
-1.0251176358635321
 21
0.406838198690683
 31
0.0
  0
LINE
  5
19CD1
  8
DIM
 10
-0.9983624956823121
 20
0.3800830585094622
 30
0.0
 11
-0.9716073555010915
 21
0.3533279183282416
 31
0.0
  0
LINE
  5
19CD2
  8
DIM
 10
-0.9716073555010915
 20
0.3533279183282416
 30
0.0
 11
-0.9337698733936157
 21
0.3533279183282416
 31
0.0
  0
SOLID
  5
19CD3
  8
DIM
 10
-1.0626075809310711
 20
0.4532465238186285
 30
0.0
 11
-1.071525960991478
 21
0.4443281437582217
 31
0.0
 12
-1.0938219111424949
 22
0.4755424739696457
 32
0.0
 13
-1.0938219111424949
 23
0.4755424739696457
 33
0.0
  0
SOLID
  5
19CD4
  8
DIM
 10
-1.020658445833329
 20
0.4112973887208864
 30
0.0
 11
-1.0295768258937359
 21
0.4023790086604795
 31
0.0
 12
-0.9983624956823121
 22
0.3800830585094622
 32
0.0
 13
-0.9983624956823121
 23
0.3800830585094622
 33
0.0
  0
INSERT
  5
19CD5
  8
DIM
 62
     1
  2
*U29
 10
0.0
 20
0.0
 30
0.0
  0
POINT
  5
19CD6
  8
DEFPOINTS
 62
     0
 10
-0.9508000371751633
 20
0.618564347936978
 30
0.0
  0
POINT
  5
19CD7
  8
DEFPOINTS
 62
     0
 10
-0.8553406217149797
 20
0.5231049324767945
 30
0.0
  0
POINT
  5
19CD8
  8
DEFPOINTS
 62
     0
 10
-0.9983624956823121
 20
0.3800830585094622
 30
0.0
  0
ENDBLK
  5
192A8
  8
0
 62
     1
  0
BLOCK
  8
0
 62
     1
  2
*D9
 70
     1
 10
0.0
 20
0.0
 30
0.0
  3
*D9
  1

  0
LINE
  5
19CD9
  8
DIM
 10
-0.6737872975767356
 20
0.0692089388407653
 30
0.0
 11
-0.6737872975767356
 21
0.8255327480763819
 31
0.0
  0
LINE
  5
19CDA
  8
DIM
 10
-1.2352617179844341
 20
0.2452878574105497
 30
0.0
 11
-1.2352617179844341
 21
0.8255327480763819
 31
0.0
  0
LINE
  5
19CDB
  8
DIM
 10
-0.7116247796842112
 20
0.8103977552333915
 30
0.0
 11
-0.8987419485305904
 21
0.8103977552333915
 31
0.0
  0
LINE
  5
19CDC
  8
DIM
 10
-1.197424235876958
 20
0.8103977552333915
 30
0.0
 11
-1.0099481102293231
 21
0.8103977552333915
 31
0.0
  0
SOLID
  5
19CDD
  8
DIM
 10
-0.7116247796842112
 20
0.8167040022513042
 30
0.0
 11
-0.7116247796842112
 21
0.8040915082154789
 31
0.0
 12
-0.6737872975767356
 22
0.8103977552333915
 32
0.0
 13
-0.6737872975767356
 23
0.8103977552333915
 33
0.0
  0
SOLID
  5
19CDE
  8
DIM
 10
-1.197424235876958
 20
0.8167040022513042
 30
0.0
 11
-1.197424235876958
 21
0.8040915082154789
 31
0.0
 12
-1.2352617179844341
 22
0.8103977552333915
 32
0.0
 13
-1.2352617179844341
 23
0.8103977552333915
 33
0.0
  0
INSERT
  5
19CDF
  8
DIM
 62
     1
  2
*U30
 10
0.0
 20
0.0
 30
0.0
  0
POINT
  5
19CE0
  8
DEFPOINTS
 62
     0
 10
-0.6737872975767356
 20
0.0540739459977751
 30
0.0
  0
POINT
  5
19CE1
  8
DEFPOINTS
 62
     0
 10
-1.2352617179844341
 20
0.2301528645675595
 30
0.0
  0
POINT
  5
19CE2
  8
DEFPOINTS
 62
     0
 10
-1.2352617179844341
 20
0.8103977552333915
 30
0.0
  0
ENDBLK
  5
192CE
  8
0
 62
     1
  0
BLOCK
  8
0
 62
     1
  2
*D10
 70
     1
 10
0.0
 20
0.0
 30
0.0
  3
*D10
  1

  0
LINE
  5
19CE3
  8
DIM
 10
-1.2352617179844341
 20
0.2452878574105497
 30
0.0
 11
-1.2352617179844341
 21
0.7365856368069944
 31
0.0
  0
LINE
  5
19CE4
  8
DIM
 10
-0.8355703325339192
 20
0.5859696299610291
 30
0.0
 11
-0.8355703325339192
 21
0.7365856368069944
 31
0.0
  0
LINE
  5
19CE5
  8
DIM
 10
-1.197424235876958
 20
0.7214506439640041
 30
0.0
 11
-1.099127137988716
 21
0.7214506439640041
 31
0.0
  0
LINE
  5
19CE6
  8
DIM
 10
-0.8734078146413947
 20
0.7214506439640041
 30
0.0
 11
-0.9717049125296366
 21
0.7214506439640041
 31
0.0
  0
SOLID
  5
19CE7
  8
DIM
 10
-1.197424235876958
 20
0.7277568909819167
 30
0.0
 11
-1.197424235876958
 21
0.7151443969460916
 31
0.0
 12
-1.2352617179844341
 22
0.7214506439640041
 32
0.0
 13
-1.2352617179844341
 23
0.7214506439640041
 33
0.0
  0
SOLID
  5
19CE8
  8
DIM
 10
-0.8734078146413947
 20
0.7277568909819167
 30
0.0
 11
-0.8734078146413947
 21
0.7151443969460916
 31
0.0
 12
-0.8355703325339192
 22
0.7214506439640041
 32
0.0
 13
-0.8355703325339192
 23
0.7214506439640041
 33
0.0
  0
INSERT
  5
19CE9
  8
DIM
 62
     1
  2
*U31
 10
0.0
 20
0.0
 30
0.0
  0
POINT
  5
19CEA
  8
DEFPOINTS
 62
     0
 10
-1.2352617179844341
 20
0.2301528645675595
 30
0.0
  0
POINT
  5
19CEB
  8
DEFPOINTS
 62
     0
 10
-0.8355703325339192
 20
0.570834637118039
 30
0.0
  0
POINT
  5
19CEC
  8
DEFPOINTS
 62
     0
 10
-0.8355703325339192
 20
0.7214506439640041
 30
0.0
  0
ENDBLK
  5
19722
  8
0
 62
     1
  0
BLOCK
  8
0
 62
     1
  2
*D11
 70
     1
 10
0.0
 20
0.0
 30
0.0
  3
*D11
  1

  0
LINE
  5
19CED
  8
DIM
 10
-0.821175927582127
 20
-0.1593607547614305
 30
0.0
 11
-0.9049933833549484
 21
-0.1201547896392012
 31
0.0
  0
LINE
  5
19CEE
  8
DIM
 10
-0.8338867448460426
 20
-0.1865348942203926
 30
0.0
 11
-0.917704200618864
 21
-0.1473289290981633
 31
0.0
  0
LINE
  5
19CEF
  8
DIM
 10
-0.8752525047927001
 20
-0.0922940070632973
 30
0.0
 11
-0.8592209827824529
 21
-0.0580206156832945
 31
0.0
  0
LINE
  5
19CF0
  8
DIM
 10
-0.9200263660771101
 20
-0.188014929282265
 30
0.0
 11
-0.9360578880873574
 21
-0.2222883206622678
 31
0.0
  0
LINE
  5
19CF1
  8
DIM
 10
-0.9360578880873574
 20
-0.2222883206622678
 30
0.0
 11
-0.9738953702267901
 21
-0.2222883206622678
 31
0.0
  0
SOLID
  5
19CF2
  8
DIM
 10
-0.8809647366893671
 20
-0.0896220867282561
 30
0.0
 11
-0.8695402728960329
 21
-0.0949659273983385
 31
0.0
 12
-0.8912840268029473
 22
-0.1265673984433
 32
0.0
 13
-0.8912840268029473
 23
-0.1265673984433
 33
0.0
  0
SOLID
  5
19CF3
  8
DIM
 10
-0.9257385979737772
 20
-0.1853430089472238
 30
0.0
 11
-0.9143141341804431
 21
-0.1906868496173062
 31
0.0
 12
-0.9039948440668632
 22
-0.1537415379022622
 32
0.0
 13
-0.9039948440668632
 23
-0.1537415379022622
 33
0.0
  0
INSERT
  5
19CF4
  8
DIM
 62
     1
  2
*U32
 10
0.0
 20
0.0
 30
0.0
  0
POINT
  5
19CF5
  8
DEFPOINTS
 62
     0
 10
-0.8074665710301259
 20
-0.1657733635655294
 30
0.0
  0
POINT
  5
19CF6
  8
DEFPOINTS
 62
     0
 10
-0.8201773882940415
 20
-0.1929475030244915
 30
0.0
  0
POINT
  5
19CF7
  8
DEFPOINTS
 62
     0
 10
-0.9039948440668632
 20
-0.1537415379022622
 30
0.0
  0
ENDBLK
  5
19B4E
  8
0
 62
     1
  0
BLOCK
  8
0
 62
     1
  2
*D12
 70
     1
 10
0.0
 20
0.0
 30
0.0
  3
*D12
  1

  0
LINE
  5
19CF8
  8
DIM
 10
-0.6737696498282713
 20
-0.3457235498186814
 30
0.0
 11
-0.6737696498282713
 21
-0.4431510435695305
 31
0.0
  0
LINE
  5
19CF9
  8
DIM
 10
-0.6557485664940554
 20
-0.3495915156979805
 30
0.0
 11
-0.6557485664940554
 21
-0.4431510435695305
 31
0.0
  0
LINE
  5
19CFA
  8
DIM
 10
-0.7116071319677041
 20
-0.4280160507137574
 30
0.0
 11
-0.7494446141071367
 21
-0.4280160507137574
 31
0.0
  0
LINE
  5
19CFB
  8
DIM
 10
-0.6179110843546228
 20
-0.4280160507137574
 30
0.0
 11
-0.5800736022151901
 21
-0.4280160507137574
 31
0.0
  0
SOLID
  5
19CFC
  8
DIM
 10
-0.7116071319677041
 20
-0.4217098036905186
 30
0.0
 11
-0.7116071319677041
 21
-0.4343222977369962
 31
0.0
 12
-0.6737696498282713
 22
-0.4280160507137574
 32
0.0
 13
-0.6737696498282713
 23
-0.4280160507137574
 33
0.0
  0
SOLID
  5
19CFD
  8
DIM
 10
-0.6179110843546228
 20
-0.4217098036905186
 30
0.0
 11
-0.6179110843546228
 21
-0.4343222977369962
 31
0.0
 12
-0.6557485664940554
 22
-0.4280160507137574
 32
0.0
 13
-0.6557485664940554
 23
-0.4280160507137574
 33
0.0
  0
INSERT
  5
19CFE
  8
DIM
 62
     1
  2
*U33
 10
0.0
 20
0.0
 30
0.0
  0
POINT
  5
19CFF
  8
DEFPOINTS
 62
     0
 10
-0.6737696498282713
 20
-0.3305885569629083
 30
0.0
  0
POINT
  5
19D00
  8
DEFPOINTS
 62
     0
 10
-0.6557485664940554
 20
-0.3344565228422074
 30
0.0
  0
POINT
  5
19D01
  8
DEFPOINTS
 62
     0
 10
-0.6557485664940554
 20
-0.4280160507137574
 30
0.0
  0
ENDBLK
  5
19B7B
  8
0
 62
     1
  0
BLOCK
  8
0
 62
     1
  2
*D14
 70
     1
 10
0.0
 20
0.0
 30
0.0
  3
*D14
  1

  0
LINE
  5
19D8A
  8
DIM
 10
-0.1723786344652414
 20
-0.0769194700524372
 30
0.0
 11
-0.1723786344652414
 21
-0.1287008181203247
 31
0.0
  0
LINE
  5
19D8B
  8
DIM
 10
-0.1423786344652402
 20
-0.0769194700524372
 30
0.0
 11
-0.1423786344652402
 21
-0.1287008181203247
 31
0.0
  0
LINE
  5
19D8C
  8
DIM
 10
-0.189835605874755
 20
-0.1217180295565192
 30
0.0
 11
-0.2072925772842687
 21
-0.1217180295565192
 31
0.0
  0
LINE
  5
19D8D
  8
DIM
 10
-0.1249216630557266
 20
-0.1217180295565192
 30
0.0
 11
-0.1074646916462129
 21
-0.1217180295565192
 31
0.0
  0
SOLID
  5
19D8E
  8
DIM
 10
-0.189835605874755
 20
-0.1188085343216003
 30
0.0
 11
-0.189835605874755
 21
-0.1246275247914382
 31
0.0
 12
-0.1723786344652414
 22
-0.1217180295565192
 32
0.0
 13
-0.1723786344652414
 23
-0.1217180295565192
 33
0.0
  0
SOLID
  5
19D8F
  8
DIM
 10
-0.1249216630557266
 20
-0.1188085343216003
 30
0.0
 11
-0.1249216630557266
 21
-0.1246275247914382
 31
0.0
 12
-0.1423786344652402
 22
-0.1217180295565192
 32
0.0
 13
-0.1423786344652402
 23
-0.1217180295565192
 33
0.0
  0
INSERT
  5
19D90
  8
DIM
 62
     1
  2
*U39
 10
0.0
 20
0.0
 30
0.0
  0
POINT
  5
19D91
  8
DEFPOINTS
 62
     0
 10
-0.1723786344652414
 20
-0.0699366814886318
 30
0.0
  0
POINT
  5
19D92
  8
DEFPOINTS
 62
     0
 10
-0.1423786344652402
 20
-0.0699366814886318
 30
0.0
  0
POINT
  5
19D93
  8
DEFPOINTS
 62
     0
 10
-0.1423786344652402
 20
-0.1217180295565192
 30
0.0
  0
ENDBLK
  5
19D05
  8
0
 62
     1
  0
BLOCK
  8
0
 62
     1
  2
*D15
 70
     1
 10
0.0
 20
0.0
 30
0.0
  3
*D15
  1

  0
LINE
  5
19D80
  8
DIM
 10
-0.2074783998066792
 20
-0.0531866083123652
 30
0.0
 11
-0.2074783998066792
 21
-0.1573011226342423
 31
0.0
  0
LINE
  5
19D81
  8
DIM
 10
-0.1072788691237989
 20
-0.0531866083123652
 30
0.0
 11
-0.1072788691237989
 21
-0.1573011226342423
 31
0.0
  0
LINE
  5
19D82
  8
DIM
 10
-0.1900214283971655
 20
-0.1503183340704368
 30
0.0
 11
-0.1851102804757807
 21
-0.1503183340704368
 31
0.0
  0
LINE
  5
19D83
  8
DIM
 10
-0.1247358405333126
 20
-0.1503183340704368
 30
0.0
 11
-0.1296469884546973
 21
-0.1503183340704368
 31
0.0
  0
SOLID
  5
19D84
  8
DIM
 10
-0.1900214283971655
 20
-0.1474088388355179
 30
0.0
 11
-0.1900214283971655
 21
-0.1532278293053558
 31
0.0
 12
-0.2074783998066792
 22
-0.1503183340704368
 32
0.0
 13
-0.2074783998066792
 23
-0.1503183340704368
 33
0.0
  0
SOLID
  5
19D85
  8
DIM
 10
-0.1247358405333126
 20
-0.1474088388355179
 30
0.0
 11
-0.1247358405333126
 21
-0.1532278293053558
 31
0.0
 12
-0.1072788691237989
 22
-0.1503183340704368
 32
0.0
 13
-0.1072788691237989
 23
-0.1503183340704368
 33
0.0
  0
INSERT
  5
19D86
  8
DIM
 62
     1
  2
*U38
 10
0.0
 20
0.0
 30
0.0
  0
POINT
  5
19D87
  8
DEFPOINTS
 62
     0
 10
-0.2074783998066792
 20
-0.0462038197485597
 30
0.0
  0
POINT
  5
19D88
  8
DEFPOINTS
 62
     0
 10
-0.1072788691237989
 20
-0.0462038197485597
 30
0.0
  0
POINT
  5
19D89
  8
DEFPOINTS
 62
     0
 10
-0.1072788691237989
 20
-0.1503183340704368
 30
0.0
  0
ENDBLK
  5
19D13
  8
0
 62
     1
  0
BLOCK
  8
0
 62
     1
  2
*D16
 70
     1
 10
0.0
 20
0.0
 30
0.0
  3
*D16
  1

  0
LINE
  5
19D76
  8
DIM
 10
-0.1643614230290463
 20
-0.0849366814886328
 30
0.0
 11
-0.3460320146822709
 21
-0.0849366814886327
 31
0.0
  0
LINE
  5
19D77
  8
DIM
 10
-0.1643614230290445
 20
0.1450633185113677
 30
0.0
 11
-0.3460320146822708
 21
0.1450633185113678
 31
0.0
  0
LINE
  5
19D78
  8
DIM
 10
-0.3390492261184654
 20
-0.067479710079119
 30
0.0
 11
-0.3390492261184654
 21
0.0185417173810885
 31
0.0
  0
LINE
  5
19D79
  8
DIM
 10
-0.3390492261184654
 20
0.1276063471018541
 30
0.0
 11
-0.3390492261184654
 21
0.0415849196416466
 31
0.0
  0
SOLID
  5
19D7A
  8
DIM
 10
-0.3419587213533844
 20
-0.067479710079119
 30
0.0
 11
-0.3361397308835465
 21
-0.067479710079119
 31
0.0
 12
-0.3390492261184654
 22
-0.0849366814886327
 32
0.0
 13
-0.3390492261184654
 23
-0.0849366814886327
 33
0.0
  0
SOLID
  5
19D7B
  8
DIM
 10
-0.3419587213533843
 20
0.1276063471018541
 30
0.0
 11
-0.3361397308835464
 21
0.1276063471018541
 31
0.0
 12
-0.3390492261184654
 22
0.1450633185113678
 32
0.0
 13
-0.3390492261184654
 23
0.1450633185113678
 33
0.0
  0
INSERT
  5
19D7C
  8
DIM
 62
     1
  2
*U37
 10
0.0
 20
0.0
 30
0.0
  0
POINT
  5
19D7D
  8
DEFPOINTS
 62
     0
 10
-0.1573786344652408
 20
-0.0849366814886328
 30
0.0
  0
POINT
  5
19D7E
  8
DEFPOINTS
 62
     0
 10
-0.1573786344652391
 20
0.1450633185113677
 30
0.0
  0
POINT
  5
19D7F
  8
DEFPOINTS
 62
     0
 10
-0.3390492261184654
 20
0.1450633185113678
 30
0.0
  0
ENDBLK
  5
19D21
  8
0
 62
     1
  0
BLOCK
  8
0
 62
     1
  2
*D17
 70
     1
 10
0.0
 20
0.0
 30
0.0
  3
*D17
  1

  0
LINE
  5
19D6C
  8
DIM
 10
-0.2848786344652391
 20
0.2745461070751732
 30
0.0
 11
-0.2848786344652391
 21
0.4703594658398102
 31
0.0
  0
LINE
  5
19D6D
  8
DIM
 10
-0.029878634465239
 20
0.2745461070751732
 30
0.0
 11
-0.029878634465239
 21
0.4703594658398102
 31
0.0
  0
LINE
  5
19D6E
  8
DIM
 10
-0.2674216630557254
 20
0.4633766772760046
 30
0.0
 11
-0.1867728491814487
 21
0.4633766772760046
 31
0.0
  0
LINE
  5
19D6F
  8
DIM
 10
-0.0473356058747527
 20
0.4633766772760046
 30
0.0
 11
-0.1279844197490293
 21
0.4633766772760046
 31
0.0
  0
SOLID
  5
19D70
  8
DIM
 10
-0.2674216630557254
 20
0.4662861725109237
 30
0.0
 11
-0.2674216630557254
 21
0.4604671820410857
 31
0.0
 12
-0.2848786344652391
 22
0.4633766772760046
 32
0.0
 13
-0.2848786344652391
 23
0.4633766772760046
 33
0.0
  0
SOLID
  5
19D71
  8
DIM
 10
-0.0473356058747527
 20
0.4662861725109237
 30
0.0
 11
-0.0473356058747527
 21
0.4604671820410857
 31
0.0
 12
-0.029878634465239
 22
0.4633766772760046
 32
0.0
 13
-0.029878634465239
 23
0.4633766772760046
 33
0.0
  0
INSERT
  5
19D72
  8
DIM
 62
     1
  2
*U36
 10
0.0
 20
0.0
 30
0.0
  0
POINT
  5
19D73
  8
DEFPOINTS
 62
     0
 10
-0.2848786344652391
 20
0.2675633185113678
 30
0.0
  0
POINT
  5
19D74
  8
DEFPOINTS
 62
     0
 10
-0.029878634465239
 20
0.2675633185113678
 30
0.0
  0
POINT
  5
19D75
  8
DEFPOINTS
 62
     0
 10
-0.029878634465239
 20
0.4633766772760046
 30
0.0
  0
ENDBLK
  5
19D2F
  8
0
 62
     1
  0
BLOCK
  8
0
 62
     1
  2
*D18
 70
     1
 10
0.0
 20
0.0
 30
0.0
  3
*D18
  1

  0
LINE
  5
19D62
  8
DIM
 10
-0.1643614230290463
 20
-0.0849366814886328
 30
0.0
 11
-0.4040755876410657
 21
-0.0849366814886327
 31
0.0
  0
LINE
  5
19D63
  8
DIM
 10
-0.1643614230290445
 20
0.3950633185113678
 30
0.0
 11
-0.4040755876410655
 21
0.3950633185113679
 31
0.0
  0
LINE
  5
19D64
  8
DIM
 10
-0.3970927990772602
 20
-0.067479710079119
 30
0.0
 11
-0.3970927990772601
 21
0.1435417173810886
 31
0.0
  0
LINE
  5
19D65
  8
DIM
 10
-0.3970927990772601
 20
0.3776063471018542
 30
0.0
 11
-0.3970927990772601
 21
0.1665849196416466
 31
0.0
  0
SOLID
  5
19D66
  8
DIM
 10
-0.4000022943121792
 20
-0.067479710079119
 30
0.0
 11
-0.3941833038423412
 21
-0.067479710079119
 31
0.0
 12
-0.3970927990772602
 22
-0.0849366814886327
 32
0.0
 13
-0.3970927990772602
 23
-0.0849366814886327
 33
0.0
  0
SOLID
  5
19D67
  8
DIM
 10
-0.400002294312179
 20
0.3776063471018542
 30
0.0
 11
-0.3941833038423411
 21
0.3776063471018542
 31
0.0
 12
-0.3970927990772601
 22
0.3950633185113679
 32
0.0
 13
-0.3970927990772601
 23
0.3950633185113679
 33
0.0
  0
INSERT
  5
19D68
  8
DIM
 62
     1
  2
*U35
 10
0.0
 20
0.0
 30
0.0
  0
POINT
  5
19D69
  8
DEFPOINTS
 62
     0
 10
-0.1573786344652408
 20
-0.0849366814886328
 30
0.0
  0
POINT
  5
19D6A
  8
DEFPOINTS
 62
     0
 10
-0.157378634465239
 20
0.3950633185113678
 30
0.0
  0
POINT
  5
19D6B
  8
DEFPOINTS
 62
     0
 10
-0.3970927990772601
 20
0.3950633185113679
 30
0.0
  0
ENDBLK
  5
19D3D
  8
0
 62
     1
  0
BLOCK
  8
0
 62
     1
  2
*D19
 70
     1
 10
0.0
 20
0.0
 30
0.0
  3
*D19
  1

  0
LINE
  5
19D57
  8
DIM
 10
-0.116231596838287
 20
0.0432533284913859
 30
0.0
 11
-0.06207237734204
 21
0.0745221684466451
 31
0.0
  0
LINE
  5
19D58
  8
DIM
 10
-0.1062315968382872
 20
0.0259328204156979
 30
0.0
 11
-0.0520723773420402
 21
0.0572016603709571
 31
0.0
  0
LINE
  5
19D59
  8
DIM
 10
-0.076848135332308
 20
0.0861489548785196
 30
0.0
 11
-0.085576621037065
 21
0.101267135592297
 31
0.0
  0
LINE
  5
19D5A
  8
DIM
 10
-0.0493911639227941
 20
0.0385920853752769
 30
0.0
 11
-0.0406626782180371
 21
0.0234739046614995
 31
0.0
  0
LINE
  5
19D5B
  8
DIM
 10
-0.0406626782180371
 20
0.0234739046614995
 30
0.0
 11
-0.0232057068085234
 21
0.0234739046614995
 31
0.0
  0
SOLID
  5
19D5C
  8
DIM
 10
-0.0743284385466784
 20
0.0876037024959791
 30
0.0
 11
-0.0793678321179375
 21
0.0846942072610601
 31
0.0
 12
-0.0681196496275509
 22
0.0710307741647422
 32
0.0
 13
-0.0681196496275509
 23
0.0710307741647422
 33
0.0
  0
SOLID
  5
19D5D
  8
DIM
 10
-0.0468714671371645
 20
0.0400468329927364
 30
0.0
 11
-0.0519108607084237
 21
0.0371373377578174
 31
0.0
 12
-0.0581196496275511
 22
0.0537102660890543
 32
0.0
 13
-0.0581196496275511
 23
0.0537102660890543
 33
0.0
  0
INSERT
  5
19D5E
  8
DIM
 62
     1
  2
*U34
 10
0.0
 20
0.0
 30
0.0
  0
POINT
  5
19D5F
  8
DEFPOINTS
 62
     0
 10
-0.122278869123798
 20
0.039761934209483
 30
0.0
  0
POINT
  5
19D60
  8
DEFPOINTS
 62
     0
 10
-0.1122788691237982
 20
0.0224414261337951
 30
0.0
  0
POINT
  5
19D61
  8
DEFPOINTS
 62
     0
 10
-0.0581196496275511
 20
0.0537102660890543
 30
0.0
  0
ENDBLK
  5
19D4B
  8
0
 62
     1
  0
BLOCK
  8
0
 62
     1
  2
*X21
 70
     1
 10
0.0
 20
0.0
 30
0.0
  3
*X21
  1

  0
LINE
  5
19E4D
  8
0
 62
     0
 10
0.1157194508714756
 20
0.0056875277294148
 30
0.0
 11
0.1424786154848245
 21
0.0324466923427638
 31
0.0
  0
LINE
  5
19E4E
  8
0
 62
     0
 10
0.1124786154848234
 20
0.0466408661669222
 30
0.0
 11
0.1424786154848245
 21
0.0766408661669234
 31
0.0
  0
LINE
  5
19E4F
  8
0
 62
     0
 10
0.1124786154848238
 20
0.0908350399910818
 30
0.0
 11
0.1424786154848245
 21
0.120835039991082
 31
0.0
  0
LINE
  5
19E50
  8
0
 62
     0
 10
0.1124786154848243
 20
0.1350292138152414
 30
0.0
 11
0.1424786154848245
 21
0.1650292138152416
 31
0.0
  0
LINE
  5
19E51
  8
0
 62
     0
 10
0.1124786154848247
 20
0.1792233876394014
 30
0.0
 11
0.1424786154848245
 21
0.2092233876394012
 31
0.0
  0
ENDBLK
  5
19E53
  8
0
 62
     1
  0
BLOCK
  8
0
 62
     1
  2
*X22
 70
     1
 10
0.0
 20
0.0
 30
0.0
  3
*X22
  1

  0
LINE
  5
19E64
  8
0
 62
     0
 10
0.2306934443416386
 20
0.4184768781535038
 30
0.0
 11
0.2270254441788031
 21
0.4321660411233763
 31
0.0
  0
LINE
  5
19E65
  8
0
 62
     0
 10
0.2535217210366971
 20
0.3332805896783046
 30
0.0
 11
0.2498537208738616
 21
0.3469697526481781
 31
0.0
  0
LINE
  5
19E66
  8
0
 62
     0
 10
0.2115600519545995
 20
0.4415873793486309
 30
0.0
 11
0.209209889474105
 21
0.4503583051318785
 31
0.0
  0
LINE
  5
19E67
  8
0
 62
     0
 10
0.2471891300841682
 20
0.3086178495422391
 30
0.0
 11
0.2448389676036737
 21
0.3173887753254867
 31
0.0
  0
LINE
  5
19E68
  8
0
 62
     0
 10
0.1951247099742355
 20
0.4546286193446676
 30
0.0
 11
0.1932176946748798
 21
0.4617456973326739
 31
0.0
  0
LINE
  5
19E69
  8
0
 62
     0
 10
0.2390331792261673
 20
0.2907599812138812
 30
0.0
 11
0.2371261639268116
 21
0.2978770592018875
 31
0.0
  0
LINE
  5
19E6A
  8
0
 62
     0
 10
0.1798799764970349
 20
0.4632264479149724
 30
0.0
 11
0.178205859631831
 21
0.4694743371137209
 31
0.0
  0
LINE
  5
19E6B
  8
0
 62
     0
 10
0.2298968686119891
 20
0.2765608653052718
 30
0.0
 11
0.2282227517467852
 21
0.2828087545040203
 31
0.0
  0
LINE
  5
19E6C
  8
0
 62
     0
 10
0.1653963226271125
 20
0.4689838887223106
 30
0.0
 11
0.1638653362231244
 21
0.4746976077676912
 31
0.0
  0
LINE
  5
19E6D
  8
0
 62
     0
 10
0.2200892463634687
 20
0.2648671185237381
 30
0.0
 11
0.2185582599594806
 21
0.2705808375691197
 31
0.0
  0
LINE
  5
19E6E
  8
0
 62
     0
 10
0.1514795262327677
 20
0.4726257886301433
 30
0.0
 11
0.1500428701289826
 21
0.4779874622024734
 31
0.0
  0
LINE
  5
19E6F
  8
0
 62
     0
 10
0.2097635668003843
 20
0.2551067879613926
 30
0.0
 11
0.2083269106965992
 21
0.2604684615337218
 31
0.0
  0
LINE
  5
19E70
  8
0
 62
     0
 10
0.1380242612327043
 20
0.4745452299252291
 30
0.0
 11
0.1366511845588487
 21
0.4796696218347467
 31
0.0
  0
LINE
  5
19E71
  8
0
 62
     0
 10
0.1990071067132912
 20
0.2469541522015568
 30
0.0
 11
0.1976340300394357
 21
0.2520785441110735
 31
0.0
  0
LINE
  5
19E72
  8
0
 62
     0
 10
0.1249683474563796
 20
0.4749742721632586
 30
0.0
 11
0.1236372182639573
 21
0.4799421139408162
 31
0.0
  0
LINE
  5
19E73
  8
0
 62
     0
 10
0.1880887926469559
 20
0.2394055637156605
 30
0.0
 11
0.1865417981585333
 21
0.2451790257454824
 31
0.0
  0
LINE
  5
19E74
  8
0
 62
     0
 10
0.1122743088011882
 20
0.4740527780632231
 30
0.0
 11
0.1109683973100963
 21
0.4789265060981656
 31
0.0
  0
LINE
  5
19E75
  8
0
 62
     0
 10
0.1771976736820029
 20
0.2317554817296887
 30
0.0
 11
0.1750876911564987
 21
0.2396300437179537
 31
0.0
  0
LINE
  5
19E76
  8
0
 62
     0
 10
0.0999208969009877
 20
0.4718600476071435
 30
0.0
 11
0.0986260442695275
 21
0.476692503416067
 31
0.0
  0
LINE
  5
19E77
  8
0
 62
     0
 10
0.1663065547170492
 20
0.2241053997437188
 30
0.0
 11
0.1632929573994721
 21
0.2353522980464708
 31
0.0
  0
LINE
  5
19E78
  8
0
 62
     0
 10
0.0878990868487959
 20
0.4684297622064122
 30
0.0
 11
0.0866021791515077
 21
0.4732698876254187
 31
0.0
  0
LINE
  5
19E79
  8
0
 62
     0
 10
0.1560093673280554
 20
0.2142387349400483
 30
0.0
 11
0.151166621794437
 21
0.2323121073196397
 31
0.0
  0
LINE
  5
19E7A
  8
0
 62
     0
 10
0.141307544913986
 20
0.2208103918387581
 30
0.0
 11
0.1387070205703402
 21
0.2305156808155635
 31
0.0
  0
LINE
  5
19E7B
  8
0
 62
     0
 10
0.0762105424156665
 20
0.4637557125829251
 30
0.0
 11
0.0748982752305214
 21
0.4686531603909918
 31
0.0
  0
LINE
  5
19E7C
  8
0
 62
     0
 10
0.1524149990550225
 20
0.1793568086416686
 30
0.0
 11
0.1423600180720197
 21
0.2168825085393742
 31
0.0
  0
LINE
  5
19E7D
  8
0
 62
     0
 10
0.1259258391098685
 20
0.2299194080923472
 30
0.0
 11
0.1259015255967903
 21
0.230010147358465
 31
0.0
  0
LINE
  5
19E7E
  8
0
 62
     0
 10
0.0648678917319894
 20
0.4577907699124602
 30
0.0
 11
0.0635254833392134
 21
0.4628007062388067
 31
0.0
  0
LINE
  5
19E7F
  8
0
 62
     0
 10
0.1445250671465994
 20
0.1605061440777078
 30
0.0
 11
0.1424786154848803
 21
0.1681436056544774
 31
0.0
  0
LINE
  5
19E80
  8
0
 62
     0
 10
0.053896927207346
 20
0.4504386756120109
 30
0.0
 11
0.0525064092116112
 21
0.4556281594209324
 31
0.0
  0
LINE
  5
19E81
  8
0
 62
     0
 10
0.1148244025481204
 20
0.2230542420633403
 30
0.0
 11
0.1127243444642068
 21
0.2308917655313518
 31
0.0
  0
LINE
  5
19E82
  8
0
 62
     0
 10
0.043341709284441
 20
0.4415349938708016
 30
0.0
 11
0.0418791621200478
 21
0.4469932941967825
 31
0.0
  0
LINE
  5
19E83
  8
0
 62
     0
 10
0.1124786154848247
 20
0.1835125472528451
 30
0.0
 11
0.0991314167298856
 21
0.2333249711449987
 31
0.0
  0
LINE
  5
19E84
  8
0
 62
     0
 10
0.0332753129958734
 20
0.4308070049544038
 30
0.0
 11
0.0317056137152301
 21
0.4366652024223692
 31
0.0
  0
LINE
  5
19E85
  8
0
 62
     0
 10
0.0886631979045627
 20
0.2240966043513977
 30
0.0
 11
0.085049667361226
 21
0.2375824839338323
 31
0.0
  0
LINE
  5
19E86
  8
0
 62
     0
 10
0.0238239489463001
 20
0.4177836844737879
 30
0.0
 11
0.0220890251025532
 21
0.4242585084059139
 31
0.0
  0
LINE
  5
19E87
  8
0
 62
     0
 10
0.0727219133770882
 20
0.2352939968313903
 30
0.0
 11
0.0703528857535725
 21
0.2441353282868857
 31
0.0
  0
LINE
  5
19E88
  8
0
 62
     0
 10
0.0152307273833574
 20
0.4015577326329343
 30
0.0
 11
0.0132169678512662
 21
0.4090731855209251
 31
0.0
  0
LINE
  5
19E89
  8
0
 62
     0
 10
0.0568117211913801
 20
0.246375351112186
 30
0.0
 11
0.0547979616592891
 21
0.2538908040001759
 31
0.0
  0
LINE
  5
19E8A
  8
0
 62
     0
 10
0.0080871914276346
 20
0.3799214804509328
 30
0.0
 11
0.0054946958639934
 21
0.3895968056128378
 31
0.0
  0
LINE
  5
19E8B
  8
0
 62
     0
 10
0.0403858475214261
 20
0.2593812548927081
 30
0.0
 11
0.0377933519577849
 21
0.2690565800546141
 31
0.0
  0
LINE
  5
19E8C
  8
0
 62
     0
 10
0.0054900525676089
 20
0.3413178433164061
 30
0.0
 11
0.0002531374944461
 21
0.3608622764443732
 31
0.0
  0
LINE
  5
19E8D
  8
0
 62
     0
 10
0.0214792602337464
 20
0.2816453079336112
 30
0.0
 11
0.0162423451605836
 21
0.3011897410615782
 31
0.0
  0
ENDBLK
  5
19E8F
  8
0
 62
     1
  0
BLOCK
  8
0
 62
     1
  2
*X23
 70
     1
 10
0.0
 20
0.0
 30
0.0
  3
*X23
  1

  0
LINE
  5
19EAC
  8
0
 62
     0
 10
-0.1691377990785892
 20
-0.0792491488091756
 30
0.0
 11
-0.1423786344652402
 21
-0.0524899841958266
 31
0.0
  0
LINE
  5
19EAD
  8
0
 62
     0
 10
-0.1723786344652409
 20
-0.0382958103716677
 30
0.0
 11
-0.1423786344652402
 21
-0.008295810371667
 31
0.0
  0
LINE
  5
19EAE
  8
0
 62
     0
 10
-0.1723786344652409
 20
0.0058983634524914
 30
0.0
 11
-0.1423786344652402
 21
0.0358983634524917
 31
0.0
  0
LINE
  5
19EAF
  8
0
 62
     0
 10
-0.17237863446524
 20
0.0500925372766514
 30
0.0
 11
-0.1423786344652402
 21
0.0800925372766512
 31
0.0
  0
LINE
  5
19EB0
  8
0
 62
     0
 10
-0.17237863446524
 20
0.094286711100811
 30
0.0
 11
-0.1423786344652402
 21
0.1242867111008108
 31
0.0
  0
ENDBLK
  5
19EB2
  8
0
 62
     1
  0
BLOCK
  8
0
 62
     1
  2
*X24
 70
     1
 10
0.0
 20
0.0
 30
0.0
  3
*X24
  1

  0
LINE
  5
19EC3
  8
0
 62
     0
 10
-0.0541638056084262
 20
0.3335402016149134
 30
0.0
 11
-0.0578318057712617
 21
0.3472293645847859
 31
0.0
  0
LINE
  5
19EC4
  8
0
 62
     0
 10
-0.0313355289133677
 20
0.2483439131397143
 30
0.0
 11
-0.0350035290762032
 21
0.2620330761095877
 31
0.0
  0
LINE
  5
19EC5
  8
0
 62
     0
 10
-0.0732971979954653
 20
0.3566507028100414
 30
0.0
 11
-0.0756473604759598
 21
0.365421628593289
 31
0.0
  0
LINE
  5
19EC6
  8
0
 62
     0
 10
-0.0376681198658966
 20
0.2236811730036496
 30
0.0
 11
-0.0400182823463911
 21
0.2324520987868972
 31
0.0
  0
LINE
  5
19EC7
  8
0
 62
     0
 10
-0.0897325399758293
 20
0.3696919428060772
 30
0.0
 11
-0.091639555275185
 21
0.3768090207940835
 31
0.0
  0
LINE
  5
19EC8
  8
0
 62
     0
 10
-0.0458240707238975
 20
0.2058233046752909
 30
0.0
 11
-0.0477310860232532
 21
0.2129403826632972
 31
0.0
  0
LINE
  5
19EC9
  8
0
 62
     0
 10
-0.1049772734530299
 20
0.378289771376382
 30
0.0
 11
-0.1066513903182338
 21
0.3845376605751305
 31
0.0
  0
LINE
  5
19ECA
  8
0
 62
     0
 10
-0.0549603813380757
 20
0.1916241887666814
 30
0.0
 11
-0.0566344982032796
 21
0.1978720779654299
 31
0.0
  0
LINE
  5
19ECB
  8
0
 62
     0
 10
-0.1194609273229523
 20
0.3840472121837202
 30
0.0
 11
-0.1209919137269404
 21
0.3897609312291008
 31
0.0
  0
LINE
  5
19ECC
  8
0
 62
     0
 10
-0.0647680035865961
 20
0.1799304419851477
 30
0.0
 11
-0.0662989899905842
 21
0.1856441610305293
 31
0.0
  0
LINE
  5
19ECD
  8
0
 62
     0
 10
-0.1333777237172971
 20
0.3876891120915529
 30
0.0
 11
-0.1348143798210821
 21
0.3930507856638829
 31
0.0
  0
LINE
  5
19ECE
  8
0
 62
     0
 10
-0.0750936831496805
 20
0.1701701114228022
 30
0.0
 11
-0.0765303392534655
 21
0.1755317849951314
 31
0.0
  0
LINE
  5
19ECF
  8
0
 62
     0
 10
-0.1468329887173605
 20
0.3896085533866387
 30
0.0
 11
-0.1482060653912161
 21
0.3947329452961563
 31
0.0
  0
LINE
  5
19ED0
  8
0
 62
     0
 10
-0.0858501432367735
 20
0.1620174756629664
 30
0.0
 11
-0.0872232199106291
 21
0.1671418675724832
 31
0.0
  0
LINE
  5
19ED1
  8
0
 62
     0
 10
-0.1598889024936851
 20
0.3900375956246682
 30
0.0
 11
-0.1612200316861074
 21
0.3950054374022258
 31
0.0
  0
LINE
  5
19ED2
  8
0
 62
     0
 10
-0.0967684573031089
 20
0.1544688871770701
 30
0.0
 11
-0.0983154517915315
 21
0.1602423492068921
 31
0.0
  0
LINE
  5
19ED3
  8
0
 62
     0
 10
-0.1725829411488766
 20
0.3891161015246327
 30
0.0
 11
-0.1738888526399684
 21
0.3939898295595752
 31
0.0
  0
LINE
  5
19ED4
  8
0
 62
     0
 10
-0.1076595762680619
 20
0.1468188051910984
 30
0.0
 11
-0.1097695587935661
 21
0.1546933671793633
 31
0.0
  0
LINE
  5
19ED5
  8
0
 62
     0
 10
-0.1849363530490771
 20
0.3869233710685531
 30
0.0
 11
-0.1862312056805373
 21
0.3917558268774766
 31
0.0
  0
LINE
  5
19ED6
  8
0
 62
     0
 10
-0.1185506952330155
 20
0.1391687232051284
 30
0.0
 11
-0.1215642925505926
 21
0.1504156215078805
 31
0.0
  0
LINE
  5
19ED7
  8
0
 62
     0
 10
-0.1969581631012689
 20
0.3834930856678218
 30
0.0
 11
-0.1982550707985571
 21
0.3883332110868283
 31
0.0
  0
LINE
  5
19ED8
  8
0
 62
     0
 10
-0.1288478826220094
 20
0.1293020584014579
 30
0.0
 11
-0.1336906281556278
 21
0.1473754307810493
 31
0.0
  0
LINE
  5
19ED9
  8
0
 62
     0
 10
-0.1435497050360788
 20
0.1358737153001668
 30
0.0
 11
-0.1461502293797245
 21
0.1455790042769722
 31
0.0
  0
LINE
  5
19EDA
  8
0
 62
     0
 10
-0.2086467075343983
 20
0.3788190360443338
 30
0.0
 11
-0.2099589747195434
 21
0.3837164838524005
 31
0.0
  0
LINE
  5
19EDB
  8
0
 62
     0
 10
-0.1324422508950422
 20
0.0944201321030773
 30
0.0
 11
-0.1424972318780451
 21
0.1319458320007829
 31
0.0
  0
LINE
  5
19EDC
  8
0
 62
     0
 10
-0.1589314108401962
 20
0.1449827315537568
 30
0.0
 11
-0.1589557243532744
 21
0.1450734708198746
 31
0.0
  0
LINE
  5
19EDD
  8
0
 62
     0
 10
-0.2199893582180754
 20
0.3728540933738698
 30
0.0
 11
-0.2213317666108514
 21
0.3778640297002163
 31
0.0
  0
LINE
  5
19EDE
  8
0
 62
     0
 10
-0.1403321828034654
 20
0.0755694675391174
 30
0.0
 11
-0.1423786344651845
 21
0.083206929115887
 31
0.0
  0
LINE
  5
19EDF
  8
0
 62
     0
 10
-0.2309603227427188
 20
0.3655019990734205
 30
0.0
 11
-0.2323508407384536
 21
0.370691482882342
 31
0.0
  0
LINE
  5
19EE0
  8
0
 62
     0
 10
-0.1700328474019443
 20
0.13811756552475
 30
0.0
 11
-0.172132905485858
 21
0.1459550889927614
 31
0.0
  0
LINE
  5
19EE1
  8
0
 62
     0
 10
-0.2415155406656237
 20
0.3565983173322103
 30
0.0
 11
-0.2429780878300169
 21
0.3620566176581912
 31
0.0
  0
LINE
  5
19EE2
  8
0
 62
     0
 10
-0.1723786344652403
 20
0.0985758707142548
 30
0.0
 11
-0.1857258332201792
 21
0.1483882946064075
 31
0.0
  0
LINE
  5
19EE3
  8
0
 62
     0
 10
-0.2515819369541914
 20
0.3458703284158133
 30
0.0
 11
-0.2531516362348347
 21
0.3517285258837788
 31
0.0
  0
LINE
  5
19EE4
  8
0
 62
     0
 10
-0.1961940520455021
 20
0.1391599278128073
 30
0.0
 11
-0.1998075825888388
 21
0.1526458073952419
 31
0.0
  0
LINE
  5
19EE5
  8
0
 62
     0
 10
-0.2610333010037646
 20
0.3328470079351975
 30
0.0
 11
-0.2627682248475116
 21
0.3393218318673234
 31
0.0
  0
LINE
  5
19EE6
  8
0
 62
     0
 10
-0.2121353365729766
 20
0.1503573202927999
 30
0.0
 11
-0.2145043641964923
 21
0.1591986517482953
 31
0.0
  0
LINE
  5
19EE7
  8
0
 62
     0
 10
-0.2696265225667074
 20
0.3166210560943439
 30
0.0
 11
-0.2716402820987986
 21
0.3241365089823347
 31
0.0
  0
LINE
  5
19EE8
  8
0
 62
     0
 10
-0.2280455287586847
 20
0.1614386745735956
 30
0.0
 11
-0.2300592882907757
 21
0.1689541274615856
 31
0.0
  0
LINE
  5
19EE9
  8
0
 62
     0
 10
-0.2767700585224302
 20
0.2949848039123424
 30
0.0
 11
-0.2793625540860714
 21
0.3046601290742474
 31
0.0
  0
LINE
  5
19EEA
  8
0
 62
     0
 10
-0.2444714024286387
 20
0.1744445783541177
 30
0.0
 11
-0.2470638979922799
 21
0.1841199035160237
 31
0.0
  0
LINE
  5
19EEB
  8
0
 62
     0
 10
-0.2793671973824559
 20
0.2563811667778157
 30
0.0
 11
-0.2846041124556187
 21
0.2759255999057828
 31
0.0
  0
LINE
  5
19EEC
  8
0
 62
     0
 10
-0.2633779897163184
 20
0.1967086313950208
 30
0.0
 11
-0.2686149047894812
 21
0.2162530645229879
 31
0.0
  0
ENDBLK
  5
19EEE
  8
0
 62
     1
  0
BLOCK
  8
0
 62
     1
  2
*U25
 70
     1
 10
0.0
 20
0.0
 30
0.0
  3
*U25
  1

  0
TEXT
  5
19EF0
  8
DIM
 10
-0.5729423147476476
 20
-0.5043266660645386
 30
0.0
 40
0.0378374821394327
  1
.040
  7
ROMANS
  0
ENDBLK
  5
19EF2
  8
0
 62
     1
  0
BLOCK
  8
0
 62
     1
  2
*U26
 70
     1
 10
0.0
 20
0.0
 30
0.0
  3
*U26
  1

  0
TEXT
  5
19EF4
  8
DIM
 10
-0.8053412933057309
 20
-0.5662022770394747
 30
0.0
 40
0.0378374821394327
  1
.155
  7
ROMANS
  0
ENDBLK
  5
19EF6
  8
0
 62
     1
  0
BLOCK
  8
0
 62
     1
  2
*U27
 70
     1
 10
0.0
 20
0.0
 30
0.0
  3
*U27
  1

  0
TEXT
  5
19EF8
  8
DIM
 10
-1.442368219142901
 20
-0.2055841008628384
 30
0.0
 40
0.0378374821394327
  1
.350
  7
ROMANS
  0
ENDBLK
  5
19EFA
  8
0
 62
     1
  0
BLOCK
  8
0
 62
     1
  2
*U28
 70
     1
 10
0.0
 20
0.0
 30
0.0
  3
*U28
  1

  0
TEXT
  5
19EFC
  8
DIM
 10
-1.442368219094204
 20
0.294415897608723
 30
0.0
 40
0.0378374821074757
  1
.650
  7
ROMANS
  0
ENDBLK
  5
19EFE
  8
0
 62
     1
  0
BLOCK
  8
0
 62
     1
  2
*U29
 70
     1
 10
0.0
 20
0.0
 30
0.0
  3
*U29
  1

  0
TEXT
  5
19F00
  8
DIM
 10
-0.9277158762564196
 20
0.3344091772745035
 30
0.0
 40
0.0378374821074757
  1
.135
  7
ROMANS
  0
ENDBLK
  5
19F02
  8
0
 62
     1
  0
BLOCK
  8
0
 62
     1
  2
*U30
 70
     1
 10
0.0
 20
0.0
 30
0.0
  3
*U30
  1

  0
TEXT
  5
19F04
  8
DIM
 10
-1.0038941130921271
 20
0.7914790141796538
 30
0.0
 40
0.0378374821074757
  1
.561
  7
ROMANS
  0
ENDBLK
  5
19F06
  8
0
 62
     1
  0
BLOCK
  8
0
 62
     1
  2
*U31
 70
     1
 10
0.0
 20
0.0
 30
0.0
  3
*U31
  1

  0
TEXT
  5
19F08
  8
DIM
 10
-1.09307314085152
 20
0.7025319029102664
 30
0.0
 40
0.0378374821074757
  1
.400
  7
ROMANS
  0
ENDBLK
  5
19F0A
  8
0
 62
     1
  0
BLOCK
  8
0
 62
     1
  2
*U32
 70
     1
 10
0.0
 20
0.0
 30
0.0
  3
*U32
  1

  0
TEXT
  5
19F0C
  8
DIM
 10
-1.0952635986511801
 20
-0.2412070617319843
 30
0.0
 40
0.0378374821394327
  1
.030
  7
ROMANS
  0
ENDBLK
  5
19F0E
  8
0
 62
     1
  0
BLOCK
  8
0
 62
     1
  2
*U33
 70
     1
 10
0.0
 20
0.0
 30
0.0
  3
*U33
  1

  0
TEXT
  5
19F10
  8
DIM
 10
-0.5740196050728808
 20
-0.4469347917834737
 30
0.0
 40
0.0378374821394327
  1
.018
  7
ROMANS
  0
ENDBLK
  5
19F12
  8
0
 62
     1
  0
BLOCK
  8
0
 62
     1
  2
*U34
 70
     1
 10
0.0
 20
0.0
 30
0.0
  3
*U34
  1

  0
TEXT
  5
19F14
  8
DIM
 10
-0.0204125913830012
 20
0.0147454189567427
 30
0.0
 40
0.0174569714095137
  1
.020
  7
ROMANS
  0
ENDBLK
  5
19F16
  8
0
 62
     1
  0
BLOCK
  8
0
 62
     1
  2
*U35
 70
     1
 10
0.0
 20
0.0
 30
0.0
  3
*U35
  1

  0
TEXT
  5
19F18
  8
DIM
 10
-0.4236938983679478
 20
0.1463348328066107
 30
0.0
 40
0.0174569714095137
  1
.480
  7
ROMANS
  0
ENDBLK
  5
19F1A
  8
0
 62
     1
  0
BLOCK
  8
0
 62
     1
  2
*U36
 70
     1
 10
0.0
 20
0.0
 30
0.0
  3
*U36
  1

  0
TEXT
  5
19F1C
  8
DIM
 10
-0.1839797337559265
 20
0.4546481915712478
 30
0.0
 40
0.0174569714095137
  1
.255
  7
ROMANS
  0
ENDBLK
  5
19F1E
  8
0
 62
     1
  0
BLOCK
  8
0
 62
     1
  2
*U37
 70
     1
 10
0.0
 20
0.0
 30
0.0
  3
*U37
  1

  0
TEXT
  5
19F20
  8
DIM
 10
-0.365650325409153
 20
0.0213348328066106
 30
0.0
 40
0.0174569714095137
  1
.230
  7
ROMANS
  0
ENDBLK
  5
19F22
  8
0
 62
     1
  0
BLOCK
  8
0
 62
     1
  2
*U38
 70
     1
 10
0.0
 20
0.0
 30
0.0
  3
*U38
  1

  0
TEXT
  5
19F24
  8
DIM
 10
-0.1823171650502586
 20
-0.1590468197751937
 30
0.0
 40
0.0174569714095137
  1
.100
  7
ROMANS
  0
ENDBLK
  5
19F26
  8
0
 62
     1
  0
BLOCK
  8
0
 62
     1
  2
*U39
 70
     1
 10
0.0
 20
0.0
 30
0.0
  3
*U39
  1

  0
TEXT
  5
19F28
  8
DIM
 10
-0.1046715762206907
 20
-0.1304465152612761
 30
0.0
 40
0.0174569714095137
  1
.030
  7
ROMANS
  0
ENDBLK
  5
19F2A
  8
0
 62
     1
  0
ENDSEC
  0
SECTION
  2
ENTITIES
  0
CIRCLE
  5
19C75
  8
PART
 10
-0.157378634465239
 20
0.2675633185113677
 30
0.0
 40
0.1225
  0
POLYLINE
  5
19C76
  8
PART
 66
     1
 10
0.0
 20
0.0
 30
0.0
 70
     1
  0
VERTEX
  5
19E90
  8
PART
 10
-0.1423786344652402
 20
-0.0699366814886318
 30
0.0
  0
VERTEX
  5
19E91
  8
PART
 10
-0.1423786344652402
 20
0.1300633185113684
 30
0.0
 42
0.9999999999999998
  0
VERTEX
  5
19E92
  8
PART
 10
-0.1723786344652396
 20
0.1300633185113684
 30
0.0
  0
VERTEX
  5
19E93
  8
PART
 10
-0.1723786344652414
 20
-0.0699366814886318
 30
0.0
 42
1.0000000000000291
  0
SEQEND
  5
19E94
  8
PART
  0
POLYLINE
  5
19C77
  8
PART
 66
     1
 10
0.0
 20
0.0
 30
0.0
 70
     1
  0
VERTEX
  5
19E95
  8
PART
 10
-0.1721823236301585
 20
-0.0723555215223104
 30
0.0
 42
-0.0405129375551967
  0
VERTEX
  5
19E96
  8
PART
 10
-0.1723786344652414
 20
-0.0699366814886318
 30
0.0
  0
VERTEX
  5
19E97
  8
PART
 10
-0.1723786344652378
 20
-0.0491481706412456
 30
0.0
  0
VERTEX
  5
19E98
  8
PART
 10
-0.1924783998066797
 20
-0.0375435657107157
 30
0.0
 42
0.9999999999999998
  0
VERTEX
  5
19E99
  8
PART
 10
-0.2024783998066795
 20
-0.0548640737864037
 30
0.0
  0
SEQEND
  5
19E9A
  8
PART
  0
POLYLINE
  5
19C78
  8
PART
 66
     1
 10
0.0
 20
0.0
 30
0.0
 70
     1
  0
VERTEX
  5
19E9B
  8
PART
 10
-0.1425749453003231
 20
-0.0723555215223113
 30
0.0
  0
VERTEX
  5
19E9C
  8
PART
 10
-0.1122788691237986
 20
-0.0548640737864037
 30
0.0
 42
0.9999999999999998
  0
VERTEX
  5
19E9D
  8
PART
 10
-0.1222788691237984
 20
-0.0375435657107157
 30
0.0
  0
VERTEX
  5
19E9E
  8
PART
 10
-0.1423786344652402
 20
-0.0491481706412456
 30
0.0
  0
VERTEX
  5
19E9F
  8
PART
 10
-0.1423786344652402
 20
-0.0699366814886318
 30
0.0
 42
-0.0405129375551779
  0
SEQEND
  5
19EA0
  8
PART
  0
POLYLINE
  5
19C79
  8
PART
 66
     1
 10
0.0
 20
0.0
 30
0.0
 70
     1
  0
VERTEX
  5
19EA1
  8
PART
 10
-0.1723786344652378
 20
0.0281573292789539
 30
0.0
  0
VERTEX
  5
19EA2
  8
PART
 10
-0.1924783998066797
 20
0.0397619342094828
 30
0.0
 42
0.9999999999999998
  0
VERTEX
  5
19EA3
  8
PART
 10
-0.2024783998066795
 20
0.0224414261337949
 30
0.0
  0
VERTEX
  5
19EA4
  8
PART
 10
-0.1723786344652378
 20
0.0050633185113684
 30
0.0
  0
SEQEND
  5
19EA5
  8
PART
  0
POLYLINE
  5
19C7A
  8
PART
 66
     1
 10
0.0
 20
0.0
 30
0.0
 70
     1
  0
VERTEX
  5
19EA6
  8
PART
 10
-0.1423786344652402
 20
0.0050633185113684
 30
0.0
  0
VERTEX
  5
19EA7
  8
PART
 10
-0.1122788691237986
 20
0.0224414261337949
 30
0.0
 42
0.9999999999999998
  0
VERTEX
  5
19EA8
  8
PART
 10
-0.1222788691237984
 20
0.0397619342094828
 30
0.0
  0
VERTEX
  5
19EA9
  8
PART
 10
-0.1423786344652402
 20
0.0281573292789539
 30
0.0
  0
SEQEND
  5
19EAA
  8
PART
  0
CIRCLE
  5
19C7B
  8
HATCH
 10
-0.1464653400788318
 20
0.2421342695313478
 30
0.0
 40
0.009
  0
LINE
  5
19C7C
  8
HATCH
 10
-0.0943976123107149
 20
0.2041063080698209
 30
0.0
 11
-0.0943976123107149
 21
0.2041063080698209
 31
0.0
  0
CIRCLE
  5
19C7D
  8
HATCH
 10
-0.0867976085931037
 20
0.1978116984432552
 30
0.0
 40
0.0045
  0
CIRCLE
  5
19C7E
  8
HATCH
 10
-0.0902930746240731
 20
0.2234173232627097
 30
0.0
 40
0.009
  0
LINE
  5
19C7F
  8
HATCH
 10
-0.1505698777654736
 20
0.2228232543384607
 30
0.0
 11
-0.1505698777654736
 21
0.2228232543384607
 31
0.0
  0
CIRCLE
  5
19C80
  8
HATCH
 10
-0.1429698740478624
 20
0.2165286447118941
 30
0.0
 40
0.0045
  0
LINE
  5
19C81
  8
HATCH
 10
-0.1607830107821044
 20
0.1700754808874436
 30
0.0
 11
-0.1607830107821044
 21
0.1700754808874436
 31
0.0
  0
CIRCLE
  5
19C82
  8
HATCH
 10
-0.1781130873892138
 20
0.1748005108542234
 30
0.0
 40
0.00675
  0
CIRCLE
  5
19C83
  8
HATCH
 10
-0.1531830070644933
 20
0.163780871260877
 30
0.0
 40
0.0045
  0
CIRCLE
  5
19C84
  8
HATCH
 10
-0.1566784730954627
 20
0.1893864960803306
 30
0.0
 40
0.009
  0
CIRCLE
  5
19C85
  8
HATCH
 10
-0.167899954372583
 20
0.2275482843052405
 30
0.0
 40
0.00675
  0
LINE
  5
19C86
  8
HATCH
 10
-0.2220618258135349
 20
0.2109124635843902
 30
0.0
 11
-0.2220618258135349
 21
0.2109124635843902
 31
0.0
  0
CIRCLE
  5
19C87
  8
HATCH
 10
-0.2144618220959256
 20
0.2046178539578236
 30
0.0
 40
0.0045
  0
CIRCLE
  5
19C88
  8
HATCH
 10
-0.2179572881268932
 20
0.2302234787772772
 30
0.0
 40
0.009
  0
CIRCLE
  5
19C89
  8
HATCH
 10
-0.1117276889178242
 20
0.2088313380366025
 30
0.0
 40
0.00675
  0
CIRCLE
  5
19C8A
  8
HATCH
 10
-0.2393919024206443
 20
0.21563749355117
 30
0.0
 40
0.00675
  0
CIRCLE
  5
19C8B
  8
HATCH
 10
-0.0715689974269154
 20
0.28126970714846
 30
0.0
 40
0.009
  0
LINE
  5
19C8C
  8
HATCH
 10
-0.0756735351135571
 20
0.261958691955573
 30
0.0
 11
-0.0756735351135571
 21
0.261958691955573
 31
0.0
  0
CIRCLE
  5
19C8D
  8
HATCH
 10
-0.0680735313959478
 20
0.2556640823290064
 30
0.0
 40
0.0045
  0
CIRCLE
  5
19C8E
  8
HATCH
 10
-0.0930036117206665
 20
0.2666837219223528
 30
0.0
 40
0.00675
  0
CIRCLE
  5
19C8F
  8
HATCH
 10
-0.1594257908718539
 20
0.3688034803504021
 30
0.0
 40
0.009
  0
LINE
  5
19C90
  8
HATCH
 10
-0.1114195176034105
 20
0.3181095431638738
 30
0.0
 11
-0.1114195176034105
 21
0.3181095431638738
 31
0.0
  0
CIRCLE
  5
19C91
  8
HATCH
 10
-0.1287495942105199
 20
0.3228345731306537
 30
0.0
 40
0.00675
  0
LINE
  5
19C92
  8
HATCH
 10
-0.172698332634841
 20
0.2806756506265959
 30
0.0
 11
-0.172698332634841
 21
0.2806756506265959
 31
0.0
  0
CIRCLE
  5
19C93
  8
HATCH
 10
-0.1650983289172299
 20
0.2743810410000294
 30
0.0
 40
0.0045
  0
CIRCLE
  5
19C94
  8
HATCH
 10
-0.1685937949481993
 20
0.299986665819483
 30
0.0
 40
0.009
  0
LINE
  5
19C95
  8
HATCH
 10
-0.1635303285584957
 20
0.3494924651575151
 30
0.0
 11
-0.1635303285584957
 21
0.3494924651575151
 31
0.0
  0
CIRCLE
  5
19C96
  8
HATCH
 10
-0.1559303248408863
 20
0.3431978555309485
 30
0.0
 40
0.0045
  0
LINE
  5
19C97
  8
HATCH
 10
-0.2220618258135349
 20
0.3181095431638738
 30
0.0
 11
-0.2220618258135349
 21
0.3181095431638738
 31
0.0
  0
CIRCLE
  5
19C98
  8
HATCH
 10
-0.2144618220959256
 20
0.3118149335373073
 30
0.0
 40
0.0045
  0
CIRCLE
  5
19C99
  8
HATCH
 10
-0.2179572881268932
 20
0.3374205583567609
 30
0.0
 40
0.009
  0
CIRCLE
  5
19C9A
  8
HATCH
 10
-0.1900284092419504
 20
0.2854006805933757
 30
0.0
 40
0.00675
  0
CIRCLE
  5
19C9B
  8
HATCH
 10
-0.1808604051656051
 20
0.3542174951242949
 30
0.0
 40
0.00675
  0
CIRCLE
  5
19C9C
  8
HATCH
 10
-0.1038195138858011
 20
0.3118149335373073
 30
0.0
 40
0.0045
  0
CIRCLE
  5
19C9D
  8
HATCH
 10
-0.1073149799167687
 20
0.3374205583567609
 30
0.0
 40
0.009
  0
LINE
  5
19C9E
  8
HATCH
 10
-0.2424881087784403
 20
0.2755710277894778
 30
0.0
 11
-0.2424881087784403
 21
0.2755710277894778
 31
0.0
  0
CIRCLE
  5
19C9F
  8
HATCH
 10
-0.2598181853855497
 20
0.2802960577562576
 30
0.0
 40
0.00675
  0
CIRCLE
  5
19CA0
  8
HATCH
 10
-0.2393919024206443
 20
0.3228345731306537
 30
0.0
 40
0.00675
  0
CIRCLE
  5
19CA1
  8
HATCH
 10
-0.2348881050608309
 20
0.2692764181629113
 30
0.0
 40
0.0045
  0
CIRCLE
  5
19CA2
  8
HATCH
 10
-0.2383835710917985
 20
0.2948820429823649
 30
0.0
 40
0.009
  0
INSERT
  5
19CA3
  8
HATCH
  6
CONTINUOUS
  2
*X23
 10
0.0
 20
0.0
 30
0.0
1001
ACAD
1000
HATCH
1002
{
1070
    19
1000
ANSI31
1040
0.25
1040
0.0
1000
R14_HATCH_DATA
1000
19CA3
1011
1.0
1021
0.0
1031
0.0
1021
0.0
1031
0.0
1011
0.0
1021
0.0
1031
0.0
1021
1.0
1031
0.0
1011
0.0
1021
0.0
1031
0.0
1021
0.0
1031
1.0
1040
0.0
1010
0.0
1020
0.0
1030
1.0
1000
ANSI31
1070
     0
1070
     0
1071
        1
1071
        1
1071
        4
1070
     1
1040
-0.1423786344652402
1040
-0.0699366814886318
1040
-0.1423786344652402
1040
0.1300633185113684
1070
     2
1040
-0.1573786344652399
1040
0.1300633185113684
1040
0.0149999999999997
1040
0.0
1040
3.1415926535897931
1070
     1
1070
     1
1040
-0.1723786344652396
1040
0.1300633185113684
1040
-0.1723786344652414
1040
-0.0699366814886318
1070
     2
1040
-0.1573786344652408
1040
-0.0699366814886326
1040
0.0150000000000006
1040
3.1415926535897341
1040
6.2831853071796449
1070
     1
1071
        0
1070
     0
1070
     1
1040
0.0
1040
0.25
1070
     0
1070
     1
1040
0.7853981633974483
1040
-0.9906028014504695
1040
-5.5411024027177733
1040
-0.0220970869120796
1040
0.0220970869120796
1070
     0
1071
        1
1040
-0.9906028014504695
1040
-5.5411024027177733
1040
0.0
1002
}
  0
POLYLINE
  5
19CA4
  8
PART
 66
     1
 10
0.0
 20
0.0
 30
0.0
 70
     1
  0
VERTEX
  5
19EB3
  8
PART
 10
-0.1323786344652387
 20
0.1164930231691292
 30
0.0
 42
-0.255665003995647
  0
VERTEX
  5
19EB4
  8
PART
 10
-0.1208606617274004
 20
0.1375461687987578
 30
0.0
  0
VERTEX
  5
19EB5
  8
PART
 10
-0.0886202954282385
 20
0.160192275800249
 30
0.0
 42
3.4158917449231709
  0
VERTEX
  5
19EB6
  8
PART
 10
-0.2261369735022396
 20
0.160192275800249
 30
0.0
  0
VERTEX
  5
19EB7
  8
PART
 10
-0.1938966072030776
 20
0.1375461687987569
 30
0.0
 42
-0.2556650039956474
  0
VERTEX
  5
19EB8
  8
PART
 10
-0.1823786344652394
 20
0.1164930231691283
 30
0.0
  0
VERTEX
  5
19EB9
  8
PART
 10
-0.1823786344652394
 20
0.0962024829215127
 30
0.0
 42
0.1460827327656097
  0
VERTEX
  5
19EBA
  8
PART
 10
-0.178287093134168
 20
0.0824971424992651
 30
0.0
 42
-0.0603256905793174
  0
VERTEX
  5
19EBB
  8
PART
 10
-0.1723786344652414
 20
0.0705633185113668
 30
0.0
  0
VERTEX
  5
19EBC
  8
PART
 10
-0.1723786344652396
 20
0.1300633185113684
 30
0.0
 42
-0.9999999999999998
  0
VERTEX
  5
19EBD
  8
PART
 10
-0.1423786344652402
 20
0.1300633185113684
 30
0.0
  0
VERTEX
  5
19EBE
  8
PART
 10
-0.1423786344651692
 20
0.0705633185115631
 30
0.0
 42
-0.0603256905784034
  0
VERTEX
  5
19EBF
  8
PART
 10
-0.1364701757963118
 20
0.0824971424992704
 30
0.0
 42
0.1460827327656318
  0
VERTEX
  5
19EC0
  8
PART
 10
-0.1323786344652391
 20
0.0962024829215198
 30
0.0
  0
SEQEND
  5
19EC1
  8
PART
  0
INSERT
  5
19CA5
  8
HATCH
  6
CONTINUOUS
  2
*X24
 10
0.0
 20
0.0
 30
0.0
1001
ACAD
1000
HATCH
1002
{
1070
    19
1000
ANSI31
1040
0.1
1040
1.047197551196597
1000
R14_HATCH_DATA
1000
19CA5
1011
1.0
1021
0.0
1031
0.0
1021
0.0
1031
0.0
1011
0.0
1021
0.0
1031
0.0
1021
1.0
1031
0.0
1011
0.0
1021
0.0
1031
0.0
1021
0.0
1031
1.0
1040
0.0
1010
0.0
1020
0.0
1030
1.0
1000
ANSI31
1070
     0
1070
     0
1071
        2
1071
       16
1071
        1
1070
     2
1040
-0.157378634465239
1040
0.2675633185113677
1040
0.1225
1040
0.0
1040
6.2831853071795862
1070
     1
1071
        0
1071
        1
1071
       14
1070
     2
1040
-0.1073786344652401
1040
0.1164930231691301
1040
0.0249999999999986
1040
3.1415926535897571
1040
4.1428057887660996
1070
     0
1070
     1
1040
-0.1208606617274004
1040
0.1375461687987578
1040
-0.0886202954282385
1040
0.160192275800249
1070
     2
1040
-0.157378634465239
1040
0.2675633185113677
1040
0.1275
1040
5.2819721720030923
1040
10.42599109594587
1070
     1
1070
     1
1040
-0.2261369735022396
1040
0.160192275800249
1040
-0.1938966072030776
1040
0.1375461687987569
1070
     2
1040
-0.207378634465238
1040
0.1164930231691301
1040
0.024999999999998
1040
5.2819721720032913
1040
6.2831853071796573
1070
     0
1070
     1
1040
-0.1823786344652394
1040
0.1164930231691283
1040
-0.1823786344652394
1040
0.0962024829215127
1070
     2
1040
-0.157378634465239
1040
0.0962024829215136
1040
0.0250000000000006
1040
3.1415926535898282
1040
3.7218194350152141
1070
     1
1070
     2
1040
-0.2246086965062934
1040
0.0521336731889799
1040
0.0553862005153009
1040
5.702958525754128
1040
5.9439692101145152
1070
     0
1070
     1
1040
-0.1723786344652414
1040
0.0705633185113668
1040
-0.1723786344652396
1040
0.1300633185113684
1070
     2
1040
-0.1573786344652399
1040
0.1300633185113684
1040
0.0149999999999997
1040
3.1415926535897931
1040
6.2831853071795862
1070
     0
1070
     1
1040
-0.1423786344652402
1040
0.1300633185113684
1040
-0.1423786344651692
1040
0.0705633185115631
1070
     2
1040
-0.0901485724241882
1040
0.052133673188995
1040
0.0553862005152941
1040
3.480808750658376
1040
3.721819435015119
1070
     0
1070
     2
1040
-0.1573786344652399
1040
0.0962024829215198
1040
0.0250000000000002
1040
5.7029585257541058
1040
6.2831853071795862
1070
     1
1070
     1
1040
-0.1323786344652391
1040
0.0962024829215198
1040
-0.1323786344652387
1040
0.1164930231691292
1071
        0
1070
     0
1070
     1
1040
1.047197551196597
1040
0.1
1070
     0
1070
     1
1040
1.832595714594045
1040
-0.9906028014504695
1040
-5.5411024027177733
1040
-0.0120740728286134
1040
-0.0032352380637815
1070
     0
1071
        1
1040
-0.9906028014504695
1040
-5.5411024027177733
1040
0.0
1002
}
  0
VIEWPORT
  5
B94C
 67
     1
  8
0
 10
4.2500000197906047
 20
5.499999966006726
 30
0.0
 40
22.896723563831479
 41
11.072807056794691
 68
     1
 69
     1
1001
ACAD
1000
MVIEW
1002
{
1070
    16
1010
0.0
1020
0.0
1030
0.0
1010
0.0
1020
0.0
1030
1.0
1040
0.0
1040
11.072807056794691
1040
4.2500000197906047
1040
5.499999966006726
1040
50.0
1040
0.0
1040
0.0
1070
     0
1070
   500
1070
     1
1070
     1
1070
     0
1070
     0
1070
     0
1070
     0
1040
0.0
1040
0.0
1040
0.0
1040
0.5
1040
0.5
1040
0.5
1040
0.5
1070
     0
1002
{
1002
}
1002
}
  0
ENDSEC
  0
EOF
