  0
SECTION
  2
HEADER
  9
$ACADVER
  1
AC1009
  9
$INSBASE
 10
0.0
 20
0.0
 30
0.0
  9
$EXTMIN
 10
4.0243630489027717
 20
0.8597947058856744
 30
0.0
  9
$EXTMAX
 10
4.218505184526502
 20
1.2407947058856741
 30
0.0
  9
$LIMMIN
 10
0.0
 20
0.0
  9
$LIMMAX
 10
12.0
 20
9.0
  9
$ORTHOMODE
 70
     1
  9
$REGENMODE
 70
     1
  9
$FILLMODE
 70
     1
  9
$QTEXTMODE
 70
     0
  9
$MIRRTEXT
 70
     1
  9
$DRAGMODE
 70
     2
  9
$LTSCALE
 40
1.0
  9
$OSMODE
 70
    39
  9
$ATTMODE
 70
     1
  9
$TEXTSIZE
 40
0.2
  9
$TRACEWID
 40
0.05
  9
$TEXTSTYLE
  7
STANDARD
  9
$CLAYER
  8
0
  9
$CELTYPE
  6
BYLAYER
  9
$CECOLOR
 62
   256
  9
$DIMSCALE
 40
1.0
  9
$DIMASZ
 40
0.18
  9
$DIMEXO
 40
0.2
  9
$DIMDLI
 40
0.38
  9
$DIMRND
 40
0.0
  9
$DIMDLE
 40
0.0
  9
$DIMEXE
 40
0.18
  9
$DIMTP
 40
0.0
  9
$DIMTM
 40
0.0
  9
$DIMTXT
 40
0.18
  9
$DIMCEN
 40
0.09
  9
$DIMTSZ
 40
0.0
  9
$DIMTOL
 70
     0
  9
$DIMLIM
 70
     0
  9
$DIMTIH
 70
     1
  9
$DIMTOH
 70
     1
  9
$DIMSE1
 70
     0
  9
$DIMSE2
 70
     0
  9
$DIMTAD
 70
     0
  9
$DIMZIN
 70
     0
  9
$DIMBLK
  1

  9
$DIMASO
 70
     1
  9
$DIMSHO
 70
     1
  9
$DIMPOST
  1

  9
$DIMAPOST
  1

  9
$DIMALT
 70
     1
  9
$DIMALTD
 70
     2
  9
$DIMALTF
 40
25.399999999999999
  9
$DIMLFAC
 40
0.1
  9
$DIMTOFL
 70
     0
  9
$DIMTVP
 40
0.0
  9
$DIMTIX
 70
     0
  9
$DIMSOXD
 70
     0
  9
$DIMSAH
 70
     0
  9
$DIMBLK1
  1

  9
$DIMBLK2
  1

  9
$DIMSTYLE
  2
STANDARD
  9
$DIMCLRD
 70
     0
  9
$DIMCLRE
 70
     0
  9
$DIMCLRT
 70
     0
  9
$DIMTFAC
 40
1.0
  9
$DIMGAP
 40
0.09
  9
$LUNITS
 70
     2
  9
$LUPREC
 70
     3
  9
$SKETCHINC
 40
0.1
  9
$FILLETRAD
 40
0.0
  9
$AUNITS
 70
     0
  9
$AUPREC
 70
     0
  9
$MENU
  1
acad
  9
$ELEVATION
 40
0.0
  9
$PELEVATION
 40
0.0
  9
$THICKNESS
 40
0.0
  9
$LIMCHECK
 70
     0
  9
$BLIPMODE
 70
     0
  9
$CHAMFERA
 40
0.0
  9
$CHAMFERB
 40
0.0
  9
$SKPOLY
 70
     0
  9
$TDCREATE
 40
2450128.6706217588
  9
$TDUPDATE
 40
2451982.5693274299
  9
$TDINDWG
 40
0.0030226852
  9
$TDUSRTIMER
 40
0.0030226852
  9
$USRTIMER
 70
     1
  9
$ANGBASE
 50
0.0
  9
$ANGDIR
 70
     0
  9
$PDMODE
 70
     0
  9
$PDSIZE
 40
0.0
  9
$PLINEWID
 40
0.0
  9
$COORDS
 70
     0
  9
$SPLFRAME
 70
     0
  9
$SPLINETYPE
 70
     6
  9
$SPLINESEGS
 70
     8
  9
$ATTDIA
 70
     0
  9
$ATTREQ
 70
     1
  9
$HANDLING
 70
  4097
  9
$HANDSEED
  5
96
  9
$SURFTAB1
 70
     6
  9
$SURFTAB2
 70
     6
  9
$SURFTYPE
 70
     6
  9
$SURFU
 70
     6
  9
$SURFV
 70
     6
  9
$UCSNAME
  2

  9
$UCSORG
 10
0.0
 20
0.0
 30
0.0
  9
$UCSXDIR
 10
1.0
 20
0.0
 30
0.0
  9
$UCSYDIR
 10
0.0
 20
1.0
 30
0.0
  9
$PUCSNAME
  2

  9
$PUCSORG
 10
0.0
 20
0.0
 30
0.0
  9
$PUCSXDIR
 10
1.0
 20
0.0
 30
0.0
  9
$PUCSYDIR
 10
0.0
 20
1.0
 30
0.0
  9
$USERI1
 70
     0
  9
$USERI2
 70
     0
  9
$USERI3
 70
     0
  9
$USERI4
 70
     0
  9
$USERI5
 70
     0
  9
$USERR1
 40
0.0
  9
$USERR2
 40
0.0
  9
$USERR3
 40
0.0
  9
$USERR4
 40
0.0
  9
$USERR5
 40
0.0
  9
$WORLDVIEW
 70
     1
  9
$SHADEDGE
 70
     3
  9
$SHADEDIF
 70
    70
  9
$TILEMODE
 70
     1
  9
$MAXACTVP
 70
    16
  9
$PLIMCHECK
 70
     0
  9
$PEXTMIN
 10
1.0000000000000000E+020
 20
1.0000000000000000E+020
 30
1.0000000000000000E+020
  9
$PEXTMAX
 10
-1.0000000000000000E+020
 20
-1.0000000000000000E+020
 30
-1.0000000000000000E+020
  9
$PLIMMIN
 10
0.0
 20
0.0
  9
$PLIMMAX
 10
12.0
 20
9.0
  9
$UNITMODE
 70
     0
  9
$VISRETAIN
 70
     0
  9
$PLINEGEN
 70
     0
  9
$PSLTSCALE
 70
     1
  0
ENDSEC
  0
SECTION
  2
TABLES
  0
TABLE
  2
VPORT
 70
     2
  0
VPORT
  2
*ACTIVE
 70
     0
 10
0.0
 20
0.0
 11
1.0
 21
1.0
 12
4.2642104421907394
 22
1.082669202034688
 13
0.0
 23
0.0
 14
1.0
 24
1.0
 15
0.0
 25
0.0
 16
0.0
 26
0.0
 36
1.0
 17
0.0
 27
0.0
 37
0.0
 40
1.532163743292702
 41
1.9220489977728279
 42
50.0
 43
0.0
 44
0.0
 50
0.0
 51
0.0
 71
     0
 72
   100
 73
     1
 74
     0
 75
     0
 76
     0
 77
     0
 78
     0
  0
ENDTAB
  0
TABLE
  2
LTYPE
 70
     2
  0
LTYPE
  2
CONTINUOUS
 70
     0
  3
Solid line
 72
    65
 73
     0
 40
0.0
  0
LTYPE
  2
HIDDEN2
 70
     0
  3
_ _ _ _ _ _ _ _ _ _ _ _ _ _ _ _ _ _ _ _ _ _ _ _
 72
    65
 73
     2
 40
0.1875
 49
0.125
 49
-0.0625
  0
ENDTAB
  0
TABLE
  2
LAYER
 70
     1
  0
LAYER
  2
0
 70
     0
 62
     1
  6
CONTINUOUS
  0
ENDTAB
  0
TABLE
  2
STYLE
 70
     1
  0
STYLE
  2
STANDARD
 70
     0
 40
0.0
 41
1.0
 50
0.0
 71
     0
 42
0.2
  3
txt
  4

  0
ENDTAB
  0
TABLE
  2
VIEW
 70
     0
  0
ENDTAB
  0
TABLE
  2
UCS
 70
     0
  0
ENDTAB
  0
TABLE
  2
APPID
 70
     1
  0
APPID
  2
ACAD
 70
     0
  0
ENDTAB
  0
TABLE
  2
DIMSTYLE
 70
     1
  0
DIMSTYLE
  2
STANDARD
 70
     0
  3

  4

  5

  6

  7

 40
1.0
 41
0.18
 42
0.0625
 43
0.38
 44
0.18
 45
0.0
 46
0.0
 47
0.0
 48
0.0
140
0.18
141
0.09
142
0.0
143
25.399999999999999
144
1.0
145
0.0
146
1.0
147
0.09
 71
     0
 72
     0
 73
     1
 74
     1
 75
     0
 76
     0
 77
     0
 78
     0
170
     0
171
     2
172
     0
173
     0
174
     0
175
     0
176
     0
177
     0
178
     0
  0
ENDTAB
  0
ENDSEC
  0
SECTION
  2
BLOCKS
  0
BLOCK
  8
0
  2
$MODEL_SPACE
 70
     0
 10
0.0
 20
0.0
 30
0.0
  3
$MODEL_SPACE
  1

  0
ENDBLK
  5
9
  8
0
  0
BLOCK
 67
     1
  8
0
  2
$PAPER_SPACE
 70
     0
 10
0.0
 20
0.0
 30
0.0
  3
$PAPER_SPACE
  1

  0
ENDBLK
  5
E
 67
     1
  8
0
  0
ENDSEC
  0
SECTION
  2
ENTITIES
  0
LINE
  5
24
  8
0
 10
4.0903337867277134
 20
0.8657947058856748
 30
0.0
 11
4.2064341167146369
 21
0.8657947058856748
 31
0.0
  0
LINE
  5
26
  8
0
 10
4.1564351167146363
 20
0.8597947058856744
 30
0.0
 11
4.0864341167146376
 21
0.8597947058856744
 31
0.0
  0
ARC
  5
27
  8
0
 10
4.1214346167146356
 20
1.1457947058856739
 30
0.0
 40
0.095
 50
345.81815267093481
 51
194.18184732906499
  0
ARC
  5
28
  8
0
 10
4.1214346167146356
 20
1.1457947058856739
 30
0.0
 40
0.088
 50
345.81815267093481
 51
194.18184732906499
  0
LINE
  5
29
  8
0
 10
4.0649505747168941
 20
0.8907947058856746
 30
0.0
 11
4.2064341167146369
 21
0.8907947058856746
 31
0.0
  0
LINE
  5
2A
  8
0
 10
4.0938616417854652
 20
0.8727947058856749
 30
0.0
 11
4.2064341167146369
 21
0.8727947058856747
 31
0.0
  0
LINE
  5
2F
  8
0
 10
4.0293299297694709
 20
1.1225196840224589
 30
0.0
 11
4.080932232904189
 21
0.9183173419664852
 31
0.0
  0
LINE
  5
30
  8
0
 10
4.0361165909127994
 20
1.124234685633432
 30
0.0
 11
4.0877188940475158
 21
0.920032343577459
 31
0.0
  0
LINE
  5
31
  8
0
 10
4.026434116714638
 20
0.8757947058856747
 30
0.0
 11
4.026434116714638
 21
0.8877947058856746
 31
0.0
  0
LINE
  5
32
  8
0
 10
4.0364341167146369
 20
0.8977947058856745
 30
0.0
 11
4.0664569649201283
 21
0.8977947058856743
 31
0.0
  0
LINE
  5
33
  8
0
 10
4.0864341167146376
 20
0.8597947058856744
 30
0.0
 11
4.0804351167146349
 21
0.8657947058856748
 31
0.0
  0
LINE
  5
34
  8
0
 10
4.0938616417854652
 20
0.8657947058856748
 30
0.0
 11
4.0938616417854652
 21
0.8727947058856749
 31
0.0
  0
LINE
  5
35
  8
0
 10
4.0364341167146369
 20
0.8657947058856748
 30
0.0
 11
4.0804351167146349
 21
0.8657947058856748
 31
0.0
  0
ARC
  5
36
  8
0
 10
4.0364341167146369
 20
0.8877947058856746
 30
0.0
 40
0.01
 50
90.0
 51
180.0
  0
ARC
  5
37
  8
0
 10
4.0364341167146369
 20
0.8757947058856747
 30
0.0
 40
0.01
 50
180.0
 51
270.0
  0
ARC
  5
38
  8
0
 10
4.0649505747168941
 20
0.9142787478834156
 30
0.0
 40
0.0164840419977413
 50
270.0
 51
14.181847329064849
  0
ARC
  5
39
  8
0
 10
4.0649505747168941
 20
0.9142787478834156
 30
0.0
 40
0.0234840419977413
 50
270.0
 51
14.181847329064849
  0
LINE
  5
3A
  8
0
 10
4.0364341167146369
 20
0.8907947058856746
 30
0.0
 11
4.0664569649201283
 21
0.8907947058856746
 31
0.0
  0
ARC
  5
3B
  8
0
 10
4.0364341167146369
 20
0.8877947058856746
 30
0.0
 40
0.003
 50
90.0
 51
180.0
  0
LINE
  5
3C
  8
0
 10
4.0334341167146368
 20
0.8757947058856747
 30
0.0
 11
4.0334341167146368
 21
0.8877947058856746
 31
0.0
  0
ARC
  5
3D
  8
0
 10
4.0364341167146369
 20
0.8757947058856747
 30
0.0
 40
0.003
 50
180.0
 51
270.0
  0
LINE
  5
3E
  8
0
 10
4.0364341167146369
 20
0.8727947058856747
 30
0.0
 11
4.0833349533943784
 21
0.8727947058856749
 31
0.0
  0
LINE
  5
3F
  8
0
 10
4.0903337867277134
 20
0.8657947058856748
 30
0.0
 11
4.0833349533943784
 21
0.8727947058856749
 31
0.0
  0
LINE
  5
40
  8
0
 10
4.2135393036598012
 20
1.1225196840224589
 30
0.0
 11
4.1619370005250831
 21
0.9183173419664852
 31
0.0
  0
LINE
  5
41
  8
0
 10
4.2067526425164727
 20
1.124234685633432
 30
0.0
 11
4.1551503393817564
 21
0.920032343577459
 31
0.0
  0
LINE
  5
42
  8
0
 10
4.2164341167146366
 20
0.8877947058856744
 30
0.0
 11
4.2164341167146366
 21
0.8757947058856747
 31
0.0
  0
LINE
  5
43
  8
0
 10
4.1764122685091438
 20
0.8977947058856743
 30
0.0
 11
4.2064341167146369
 21
0.8977947058856743
 31
0.0
  0
LINE
  5
44
  8
0
 10
4.1564351167146363
 20
0.8597947058856744
 30
0.0
 11
4.1564351167146363
 21
0.8657947058856748
 31
0.0
  0
ARC
  5
45
  8
0
 10
4.2064341167146369
 20
0.8757947058856747
 30
0.0
 40
0.01
 50
270.0
 51
0.0
  0
ARC
  5
46
  8
0
 10
4.2064341167146369
 20
0.8877947058856744
 30
0.0
 40
0.01
 50
0.0
 51
90.0
  0
ARC
  5
47
  8
0
 10
4.1779186587123771
 20
0.9142787478834158
 30
0.0
 40
0.0164840419977414
 50
165.81815267093509
 51
270.0
  0
ARC
  5
48
  8
0
 10
4.2064341167146369
 20
0.8877947058856744
 30
0.0
 40
0.003
 50
0.0
 51
90.0
  0
LINE
  5
49
  8
0
 10
4.209434116714637
 20
0.8877947058856744
 30
0.0
 11
4.209434116714637
 21
0.8757947058856747
 31
0.0
  0
ARC
  5
4A
  8
0
 10
4.2064341167146369
 20
0.8757947058856747
 30
0.0
 40
0.003
 50
270.0
 51
0.0
  0
ARC
  5
4B
  8
0
 10
4.1779186587123771
 20
0.9142787478834158
 30
0.0
 40
0.0234840419977414
 50
165.81815267093509
 51
270.0
  0
ENDSEC
  0
EOF
