  0
SECTION
  2
HEADER
  9
$ACADVER
  1
AC1009
  9
$INSBASE
 10
0.0
 20
0.0
 30
0.0
  9
$EXTMIN
 10
1.8414663400178131
 20
1.0516215634264989
 30
0.0
  9
$EXTMAX
 10
2.2297902104736229
 20
1.651616876375551
 30
0.0
  9
$LIMMIN
 10
0.0
 20
0.0
  9
$LIMMAX
 10
12.0
 20
9.0
  9
$ORTHOMODE
 70
     1
  9
$REGENMODE
 70
     1
  9
$FILLMODE
 70
     1
  9
$QTEXTMODE
 70
     0
  9
$MIRRTEXT
 70
     1
  9
$DRAGMODE
 70
     2
  9
$LTSCALE
 40
1.0
  9
$OSMODE
 70
    39
  9
$ATTMODE
 70
     1
  9
$TEXTSIZE
 40
0.2
  9
$TRACEWID
 40
0.05
  9
$TEXTSTYLE
  7
STANDARD
  9
$CLAYER
  8
0
  9
$CELTYPE
  6
BYLAYER
  9
$CECOLOR
 62
   256
  9
$DIMSCALE
 40
1.0
  9
$DIMASZ
 40
0.18
  9
$DIMEXO
 40
0.2
  9
$DIMDLI
 40
0.38
  9
$DIMRND
 40
0.0
  9
$DIMDLE
 40
0.0
  9
$DIMEXE
 40
0.18
  9
$DIMTP
 40
0.0
  9
$DIMTM
 40
0.0
  9
$DIMTXT
 40
0.18
  9
$DIMCEN
 40
0.09
  9
$DIMTSZ
 40
0.0
  9
$DIMTOL
 70
     0
  9
$DIMLIM
 70
     0
  9
$DIMTIH
 70
     1
  9
$DIMTOH
 70
     0
  9
$DIMSE1
 70
     0
  9
$DIMSE2
 70
     0
  9
$DIMTAD
 70
     0
  9
$DIMZIN
 70
     0
  9
$DIMBLK
  1

  9
$DIMASO
 70
     1
  9
$DIMSHO
 70
     1
  9
$DIMPOST
  1

  9
$DIMAPOST
  1

  9
$DIMALT
 70
     1
  9
$DIMALTD
 70
     2
  9
$DIMALTF
 40
25.399999999999999
  9
$DIMLFAC
 40
0.25
  9
$DIMTOFL
 70
     0
  9
$DIMTVP
 40
0.0
  9
$DIMTIX
 70
     0
  9
$DIMSOXD
 70
     0
  9
$DIMSAH
 70
     0
  9
$DIMBLK1
  1

  9
$DIMBLK2
  1

  9
$DIMSTYLE
  2
STANDARD
  9
$DIMCLRD
 70
     0
  9
$DIMCLRE
 70
     0
  9
$DIMCLRT
 70
     0
  9
$DIMTFAC
 40
1.0
  9
$DIMGAP
 40
0.09
  9
$LUNITS
 70
     2
  9
$LUPREC
 70
     3
  9
$SKETCHINC
 40
0.1
  9
$FILLETRAD
 40
0.02
  9
$AUNITS
 70
     0
  9
$AUPREC
 70
     0
  9
$MENU
  1
acad
  9
$ELEVATION
 40
0.0
  9
$PELEVATION
 40
0.0
  9
$THICKNESS
 40
0.0
  9
$LIMCHECK
 70
     0
  9
$BLIPMODE
 70
     0
  9
$CHAMFERA
 40
0.0
  9
$CHAMFERB
 40
0.0
  9
$SKPOLY
 70
     0
  9
$TDCREATE
 40
2450129.3510069442
  9
$TDUPDATE
 40
2451982.579713773
  9
$TDINDWG
 40
0.0153519676
  9
$TDUSRTIMER
 40
0.0153519676
  9
$USRTIMER
 70
     1
  9
$ANGBASE
 50
0.0
  9
$ANGDIR
 70
     0
  9
$PDMODE
 70
     0
  9
$PDSIZE
 40
0.0
  9
$PLINEWID
 40
0.0
  9
$COORDS
 70
     0
  9
$SPLFRAME
 70
     0
  9
$SPLINETYPE
 70
     6
  9
$SPLINESEGS
 70
     8
  9
$ATTDIA
 70
     0
  9
$ATTREQ
 70
     1
  9
$HANDLING
 70
  4097
  9
$HANDSEED
  5
A8
  9
$SURFTAB1
 70
     6
  9
$SURFTAB2
 70
     6
  9
$SURFTYPE
 70
     6
  9
$SURFU
 70
     6
  9
$SURFV
 70
     6
  9
$UCSNAME
  2

  9
$UCSORG
 10
0.0
 20
0.0
 30
0.0
  9
$UCSXDIR
 10
1.0
 20
0.0
 30
0.0
  9
$UCSYDIR
 10
0.0
 20
1.0
 30
0.0
  9
$PUCSNAME
  2

  9
$PUCSORG
 10
0.0
 20
0.0
 30
0.0
  9
$PUCSXDIR
 10
1.0
 20
0.0
 30
0.0
  9
$PUCSYDIR
 10
0.0
 20
1.0
 30
0.0
  9
$USERI1
 70
     0
  9
$USERI2
 70
     0
  9
$USERI3
 70
     0
  9
$USERI4
 70
     0
  9
$USERI5
 70
     0
  9
$USERR1
 40
0.0
  9
$USERR2
 40
0.0
  9
$USERR3
 40
0.0
  9
$USERR4
 40
0.0
  9
$USERR5
 40
0.0
  9
$WORLDVIEW
 70
     1
  9
$SHADEDGE
 70
     3
  9
$SHADEDIF
 70
    70
  9
$TILEMODE
 70
     1
  9
$MAXACTVP
 70
    16
  9
$PLIMCHECK
 70
     0
  9
$PEXTMIN
 10
1.0000000000000000E+020
 20
1.0000000000000000E+020
 30
1.0000000000000000E+020
  9
$PEXTMAX
 10
-1.0000000000000000E+020
 20
-1.0000000000000000E+020
 30
-1.0000000000000000E+020
  9
$PLIMMIN
 10
0.0
 20
0.0
  9
$PLIMMAX
 10
12.0
 20
9.0
  9
$UNITMODE
 70
     0
  9
$VISRETAIN
 70
     0
  9
$PLINEGEN
 70
     0
  9
$PSLTSCALE
 70
     1
  0
ENDSEC
  0
SECTION
  2
TABLES
  0
TABLE
  2
VPORT
 70
     2
  0
VPORT
  2
*ACTIVE
 70
     0
 10
0.0
 20
0.0
 11
1.0
 21
1.0
 12
2.4956398591581048
 22
1.405404946257963
 13
0.0
 23
0.0
 14
1.0
 24
1.0
 15
0.0
 25
0.0
 16
0.0
 26
0.0
 36
1.0
 17
0.0
 27
0.0
 37
0.0
 40
1.532163759813322
 41
2.221238938053097
 42
50.0
 43
0.0
 44
0.0
 50
0.0
 51
0.0
 71
     0
 72
   100
 73
     1
 74
     0
 75
     0
 76
     0
 77
     0
 78
     0
  0
ENDTAB
  0
TABLE
  2
LTYPE
 70
     2
  0
LTYPE
  2
CONTINUOUS
 70
     0
  3
Solid line
 72
    65
 73
     0
 40
0.0
  0
LTYPE
  2
HIDDEN2
 70
     0
  3
_ _ _ _ _ _ _ _ _ _ _ _ _ _ _ _ _ _ _ _ _ _ _ _
 72
    65
 73
     2
 40
0.1875
 49
0.125
 49
-0.0625
  0
ENDTAB
  0
TABLE
  2
LAYER
 70
     1
  0
LAYER
  2
0
 70
     0
 62
     1
  6
CONTINUOUS
  0
ENDTAB
  0
TABLE
  2
STYLE
 70
     1
  0
STYLE
  2
STANDARD
 70
     0
 40
0.0
 41
1.0
 50
0.0
 71
     0
 42
0.2
  3
txt
  4

  0
ENDTAB
  0
TABLE
  2
VIEW
 70
     0
  0
ENDTAB
  0
TABLE
  2
UCS
 70
     0
  0
ENDTAB
  0
TABLE
  2
APPID
 70
     1
  0
APPID
  2
ACAD
 70
     0
  0
ENDTAB
  0
TABLE
  2
DIMSTYLE
 70
     1
  0
DIMSTYLE
  2
STANDARD
 70
     0
  3

  4

  5

  6

  7

 40
1.0
 41
0.18
 42
0.0625
 43
0.38
 44
0.18
 45
0.0
 46
0.0
 47
0.0
 48
0.0
140
0.18
141
0.09
142
0.0
143
25.399999999999999
144
1.0
145
0.0
146
1.0
147
0.09
 71
     0
 72
     0
 73
     1
 74
     1
 75
     0
 76
     0
 77
     0
 78
     0
170
     0
171
     2
172
     0
173
     0
174
     0
175
     0
176
     0
177
     0
178
     0
  0
ENDTAB
  0
ENDSEC
  0
SECTION
  2
BLOCKS
  0
BLOCK
  8
0
  2
$MODEL_SPACE
 70
     0
 10
0.0
 20
0.0
 30
0.0
  3
$MODEL_SPACE
  1

  0
ENDBLK
  5
9
  8
0
  0
BLOCK
 67
     1
  8
0
  2
$PAPER_SPACE
 70
     0
 10
0.0
 20
0.0
 30
0.0
  3
$PAPER_SPACE
  1

  0
ENDBLK
  5
E
 67
     1
  8
0
  0
ENDSEC
  0
SECTION
  2
ENTITIES
  0
LINE
  5
28
  8
0
 10
1.8474885477564691
 20
1.394114393351898
 30
0.0
 11
1.8474885477564691
 21
1.278590740527328
 31
0.0
  0
LINE
  5
2A
  8
0
 10
1.854488547756469
 20
1.394114393351898
 30
0.0
 11
1.854488547756469
 21
1.278590740527328
 31
0.0
  0
LINE
  5
2B
  8
0
 10
2.1946707999812491
 20
1.5306061890803759
 30
0.0
 11
2.0642270866294581
 21
1.317491000086509
 31
0.0
  0
LINE
  5
2C
  8
0
 10
2.1888183664333112
 20
1.534446634571067
 30
0.0
 11
2.0583746530815201
 21
1.3213314455772001
 31
0.0
  0
LINE
  5
2D
  8
0
 10
1.984050189400139
 20
1.271880714021367
 30
0.0
 11
2.0865529429703868
 21
1.271880714021367
 31
0.0
  0
LINE
  5
2E
  8
0
 10
1.9842931959281149
 20
1.0847890971141541
 30
0.0
 11
2.0517070752198658
 21
1.0953280285244109
 31
0.0
  0
LINE
  5
2F
  8
0
 10
2.0549451570237038
 20
1.083244819997256
 30
0.0
 11
1.9740499207591371
 21
1.0628985090590051
 31
0.0
  0
LINE
  5
30
  8
0
 10
1.9740499207591371
 20
1.0516215634264989
 30
0.0
 11
2.053564241959267
 21
1.071387975130188
 31
0.0
  0
LINE
  5
31
  8
0
 10
1.974049920759136
 20
1.0588346096661281
 30
0.0
 11
2.0518755134129738
 21
1.0781812214746791
 31
0.0
  0
LINE
  5
32
  8
0
 10
1.8615468985478889
 20
1.291881251303366
 30
0.0
 11
2.0865529429703868
 21
1.291881251303366
 31
0.0
  0
LINE
  5
33
  8
0
 10
1.878733467690711
 20
1.1690104530604291
 30
0.0
 11
1.878733467690711
 21
1.0909531334524989
 31
0.0
  0
LINE
  5
34
  8
0
 10
1.9640496521181401
 20
1.271880714021367
 30
0.0
 11
1.9640496521181401
 21
1.0847890971141541
 31
0.0
  0
LINE
  5
35
  8
0
 10
1.984050189400139
 20
1.271880714021367
 30
0.0
 11
1.984050189400139
 21
1.0847890971141541
 31
0.0
  0
LINE
  5
36
  8
0
 10
1.8857334676907109
 20
1.1690104530604291
 30
0.0
 11
1.8857334676907109
 21
1.0909531334524989
 31
0.0
  0
LINE
  5
37
  8
0
 10
1.8927334676907099
 20
1.170921773581429
 30
0.0
 11
1.8927334676907099
 21
1.1156140186518091
 31
0.0
  0
LINE
  5
38
  8
0
 10
1.9640496521181401
 20
1.0847890971141541
 30
0.0
 11
1.896183829012857
 21
1.094548359280906
 31
0.0
  0
LINE
  5
39
  8
0
 10
1.893154747641496
 20
1.0832450556359841
 30
0.0
 11
1.9740499207591371
 21
1.0628985090590051
 31
0.0
  0
LINE
  5
3A
  8
0
 10
1.974049920759136
 20
1.0516215634264989
 30
0.0
 11
1.8939085289870159
 21
1.0715438581825261
 31
0.0
  0
LINE
  5
3B
  8
0
 10
1.974049920759136
 20
1.0588346096661281
 30
0.0
 11
1.8955972575333091
 21
1.0783371045270169
 31
0.0
  0
LINE
  5
3C
  8
0
 10
1.8927338437881089
 20
1.11561401865181
 30
0.0
 11
1.8857336557394091
 21
1.11561401865181
 31
0.0
  0
LINE
  5
3D
  8
0
 10
1.893154747641496
 20
1.0832450556359841
 30
0.0
 11
1.896183829012857
 21
1.094548359280906
 31
0.0
  0
ARC
  5
3E
  8
0
 10
1.8987334676907111
 20
1.0909531334524989
 30
0.0
 40
0.013
 50
180.0
 51
256.03985283262472
  0
ARC
  5
3F
  8
0
 10
1.8987334676907111
 20
1.0909531334524989
 30
0.0
 40
0.02
 50
180.0
 51
256.03985283262472
  0
LINE
  5
40
  8
0
 10
1.8615468985478889
 20
1.271880714021367
 30
0.0
 11
1.9640496521181401
 21
1.271880714021367
 31
0.0
  0
LINE
  5
41
  8
0
 10
1.878733467690711
 20
1.239560642230741
 30
0.0
 11
1.878733467690711
 21
1.1808757718029761
 31
0.0
  0
LINE
  5
42
  8
0
 10
1.8615468985478889
 20
1.291881251303366
 30
0.0
 11
1.8615468985478889
 21
1.271880714021367
 31
0.0
  0
ARC
  5
43
  8
0
 10
1.8674885477564691
 20
1.278590740527328
 30
0.0
 40
0.02
 50
180.0
 51
257.3569175319721
  0
ARC
  5
44
  8
0
 10
1.858733467690711
 20
1.239560642230741
 30
0.0
 40
0.02
 50
0.000000000000007
 51
77.356917531970453
  0
ARC
  5
45
  8
0
 10
1.8674885477564691
 20
1.278590740527328
 30
0.0
 40
0.013
 50
180.0
 51
257.3569175319721
  0
LINE
  5
46
  8
0
 10
1.8927334676907099
 20
1.170921773581429
 30
0.0
 11
1.88573346769071
 21
1.1827867735814319
 31
0.0
  0
LINE
  5
47
  8
0
 10
1.8857334676907109
 20
1.239560642230741
 30
0.0
 11
1.8857334676907109
 21
1.1808757718029761
 31
0.0
  0
LINE
  5
48
  8
0
 10
1.8857336557394091
 20
1.1690104530604291
 30
0.0
 11
1.878733467690711
 21
1.1808757718029761
 31
0.0
  0
LINE
  5
49
  8
0
 10
1.8857336557394091
 20
1.1690104530604291
 30
0.0
 11
1.878733467690711
 21
1.1690104530604291
 31
0.0
  0
ARC
  5
4A
  8
0
 10
1.858733467690711
 20
1.239560642230741
 30
0.0
 40
0.027
 50
0.000000000000007
 51
77.356917531970453
  0
LINE
  5
4B
  8
0
 10
2.0687393032555721
 20
1.239858153204568
 30
0.0
 11
2.0687393032555721
 21
1.0907972504001611
 31
0.0
  0
LINE
  5
4C
  8
0
 10
2.0617393032555711
 20
1.239858153204568
 30
0.0
 11
2.061739303255572
 21
1.0907972504001611
 31
0.0
  0
LINE
  5
4D
  8
0
 10
2.0549451570237038
 20
1.083244819997256
 30
0.0
 11
2.0517070752198658
 21
1.0953280285244109
 31
0.0
  0
ARC
  5
4E
  8
0
 10
2.0487393032555721
 20
1.0907972504001611
 30
0.0
 40
0.02
 50
283.96014716737591
 51
0.0000000000001597
  0
ARC
  5
4F
  8
0
 10
2.0487393032555721
 20
1.0907972504001611
 30
0.0
 40
0.013
 50
283.96014716737591
 51
0.0000000000001597
  0
ARC
  5
50
  8
0
 10
2.0684073963065561
 20
1.3147478247360149
 30
0.0
 40
0.012
 50
146.72657662030531
 51
270.0
  0
LINE
  5
51
  8
0
 10
2.0865529429703868
 20
1.291881251303366
 30
0.0
 11
2.0865529429703868
 21
1.271880714021367
 31
0.0
  0
LINE
  5
52
  8
0
 10
2.0982174443619468
 20
1.2784494797614661
 30
0.0
 11
2.0982174443619468
 21
1.289747824736015
 31
0.0
  0
LINE
  5
53
  8
0
 10
2.0684073963065561
 20
1.309747824736015
 30
0.0
 11
2.0782174443619472
 21
1.309747824736015
 31
0.0
  0
ARC
  5
54
  8
0
 10
2.0684073963065561
 20
1.3147478247360149
 30
0.0
 40
0.005
 50
146.72657662030531
 51
270.0
  0
ARC
  5
55
  8
0
 10
2.0887393032555721
 20
1.239858153204568
 30
0.0
 40
0.02
 50
105.2509061211212
 51
180.0
  0
ARC
  5
56
  8
0
 10
2.0782174443619472
 20
1.289747824736015
 30
0.0
 40
0.02
 50
0.000000000000007
 51
90.0
  0
ARC
  5
57
  8
0
 10
2.0782174443619472
 20
1.2784494797614661
 30
0.0
 40
0.02
 50
285.25090612112029
 51
0.000000000000007
  0
LINE
  5
58
  8
0
 10
2.0684073963065561
 20
1.3027478247360149
 30
0.0
 11
2.0782174443619472
 21
1.3027478247360149
 31
0.0
  0
ARC
  5
59
  8
0
 10
2.0782174443619472
 20
1.289747824736015
 30
0.0
 40
0.013
 50
0.000000000000007
 51
90.0
  0
LINE
  5
5A
  8
0
 10
2.0912174443619471
 20
1.2784494797614661
 30
0.0
 11
2.0912174443619471
 21
1.289747824736015
 31
0.0
  0
ARC
  5
5B
  8
0
 10
2.0782174443619472
 20
1.2784494797614661
 30
0.0
 40
0.013
 50
285.25090612112029
 51
0.000000000000007
  0
ARC
  5
5C
  8
0
 10
2.0887393032555721
 20
1.239858153204568
 30
0.0
 40
0.027
 50
105.2509061211212
 51
180.0
  0
LINE
  5
5D
  8
0
 10
1.8694210156968061
 20
1.4438134684640751
 30
0.0
 11
2.1057674279255649
 21
1.614320638538677
 31
0.0
  0
LINE
  5
5E
  8
0
 10
1.873606059639026
 20
1.438202282564313
 30
0.0
 11
2.1099524718677851
 21
1.608709452638915
 31
0.0
  0
ARC
  5
5F
  8
0
 10
1.9067122112215611
 20
1.3976676688972449
 30
0.0
 40
0.0593301616492626
 50
128.9422595326588
 51
183.4334912966292
  0
ARC
  5
60
  8
0
 10
1.9067206506750161
 20
1.3976542037734141
 30
0.0
 40
0.0523519133663119
 50
129.2376440405084
 51
183.87705138364231
  0
ARC
  5
61
  8
0
 10
2.1428349599852279
 20
1.5646215634264991
 30
0.0
 40
0.062
 50
326.72657662030531
 51
126.7170291646194
  0
ARC
  5
62
  8
0
 10
2.1428349599852279
 20
1.5646215634264991
 30
0.0
 40
0.055
 50
326.72657662030531
 51
126.7170291646194
  0
ENDSEC
  0
EOF
