  0
SECTION
  2
HEADER
  9
$ACADVER
  1
AC1009
  9
$INSBASE
 10
0.0
 20
0.0
 30
0.0
  9
$EXTMIN
 10
4.0304190645786173
 20
1.1691327117953401
 30
0.0
  9
$EXTMAX
 10
4.283006792058309
 20
1.6396503236826869
 30
0.0
  9
$LIMMIN
 10
0.0
 20
0.0
  9
$LIMMAX
 10
12.0
 20
9.0
  9
$ORTHOMODE
 70
     0
  9
$REGENMODE
 70
     1
  9
$FILLMODE
 70
     1
  9
$QTEXTMODE
 70
     0
  9
$MIRRTEXT
 70
     1
  9
$DRAGMODE
 70
     2
  9
$LTSCALE
 40
1.0
  9
$OSMODE
 70
    39
  9
$ATTMODE
 70
     1
  9
$TEXTSIZE
 40
0.2
  9
$TRACEWID
 40
0.05
  9
$TEXTSTYLE
  7
STANDARD
  9
$CLAYER
  8
0
  9
$CELTYPE
  6
BYLAYER
  9
$CECOLOR
 62
   256
  9
$DIMSCALE
 40
1.0
  9
$DIMASZ
 40
0.18
  9
$DIMEXO
 40
0.063
  9
$DIMDLI
 40
0.38
  9
$DIMRND
 40
0.0
  9
$DIMDLE
 40
0.0
  9
$DIMEXE
 40
0.18
  9
$DIMTP
 40
0.0
  9
$DIMTM
 40
0.0
  9
$DIMTXT
 40
0.18
  9
$DIMCEN
 40
0.09
  9
$DIMTSZ
 40
0.0
  9
$DIMTOL
 70
     0
  9
$DIMLIM
 70
     0
  9
$DIMTIH
 70
     1
  9
$DIMTOH
 70
     1
  9
$DIMSE1
 70
     0
  9
$DIMSE2
 70
     0
  9
$DIMTAD
 70
     0
  9
$DIMZIN
 70
     0
  9
$DIMBLK
  1

  9
$DIMASO
 70
     1
  9
$DIMSHO
 70
     1
  9
$DIMPOST
  1

  9
$DIMAPOST
  1

  9
$DIMALT
 70
     1
  9
$DIMALTD
 70
     2
  9
$DIMALTF
 40
25.399999999999999
  9
$DIMLFAC
 40
0.2
  9
$DIMTOFL
 70
     0
  9
$DIMTVP
 40
0.0
  9
$DIMTIX
 70
     0
  9
$DIMSOXD
 70
     0
  9
$DIMSAH
 70
     0
  9
$DIMBLK1
  1

  9
$DIMBLK2
  1

  9
$DIMSTYLE
  2
STANDARD
  9
$DIMCLRD
 70
     0
  9
$DIMCLRE
 70
     0
  9
$DIMCLRT
 70
     0
  9
$DIMTFAC
 40
1.0
  9
$DIMGAP
 40
0.09
  9
$LUNITS
 70
     2
  9
$LUPREC
 70
     3
  9
$SKETCHINC
 40
0.1
  9
$FILLETRAD
 40
0.01
  9
$AUNITS
 70
     0
  9
$AUPREC
 70
     0
  9
$MENU
  1
acad
  9
$ELEVATION
 40
0.0
  9
$PELEVATION
 40
0.0
  9
$THICKNESS
 40
0.0
  9
$LIMCHECK
 70
     0
  9
$BLIPMODE
 70
     0
  9
$CHAMFERA
 40
0.0
  9
$CHAMFERB
 40
0.0
  9
$SKPOLY
 70
     0
  9
$TDCREATE
 40
2450129.3726408561
  9
$TDUPDATE
 40
2451982.5802623839
  9
$TDINDWG
 40
0.0116196759
  9
$TDUSRTIMER
 40
0.0116196759
  9
$USRTIMER
 70
     1
  9
$ANGBASE
 50
0.0
  9
$ANGDIR
 70
     0
  9
$PDMODE
 70
     0
  9
$PDSIZE
 40
0.0
  9
$PLINEWID
 40
0.0
  9
$COORDS
 70
     0
  9
$SPLFRAME
 70
     0
  9
$SPLINETYPE
 70
     6
  9
$SPLINESEGS
 70
     8
  9
$ATTDIA
 70
     0
  9
$ATTREQ
 70
     1
  9
$HANDLING
 70
  4097
  9
$HANDSEED
  5
94
  9
$SURFTAB1
 70
     6
  9
$SURFTAB2
 70
     6
  9
$SURFTYPE
 70
     6
  9
$SURFU
 70
     6
  9
$SURFV
 70
     6
  9
$UCSNAME
  2

  9
$UCSORG
 10
0.0
 20
0.0
 30
0.0
  9
$UCSXDIR
 10
1.0
 20
0.0
 30
0.0
  9
$UCSYDIR
 10
0.0
 20
1.0
 30
0.0
  9
$PUCSNAME
  2

  9
$PUCSORG
 10
0.0
 20
0.0
 30
0.0
  9
$PUCSXDIR
 10
1.0
 20
0.0
 30
0.0
  9
$PUCSYDIR
 10
0.0
 20
1.0
 30
0.0
  9
$USERI1
 70
     0
  9
$USERI2
 70
     0
  9
$USERI3
 70
     0
  9
$USERI4
 70
     0
  9
$USERI5
 70
     0
  9
$USERR1
 40
0.0
  9
$USERR2
 40
0.0
  9
$USERR3
 40
0.0
  9
$USERR4
 40
0.0
  9
$USERR5
 40
0.0
  9
$WORLDVIEW
 70
     1
  9
$SHADEDGE
 70
     3
  9
$SHADEDIF
 70
    70
  9
$TILEMODE
 70
     1
  9
$MAXACTVP
 70
    16
  9
$PLIMCHECK
 70
     0
  9
$PEXTMIN
 10
1.0000000000000000E+020
 20
1.0000000000000000E+020
 30
1.0000000000000000E+020
  9
$PEXTMAX
 10
-1.0000000000000000E+020
 20
-1.0000000000000000E+020
 30
-1.0000000000000000E+020
  9
$PLIMMIN
 10
0.0
 20
0.0
  9
$PLIMMAX
 10
12.0
 20
9.0
  9
$UNITMODE
 70
     0
  9
$VISRETAIN
 70
     0
  9
$PLINEGEN
 70
     0
  9
$PSLTSCALE
 70
     1
  0
ENDSEC
  0
SECTION
  2
TABLES
  0
TABLE
  2
VPORT
 70
     2
  0
VPORT
  2
*ACTIVE
 70
     0
 10
0.0
 20
0.0
 11
1.0
 21
1.0
 12
4.3442067206138812
 22
1.439669485200836
 13
0.0
 23
0.0
 14
1.0
 24
1.0
 15
0.0
 25
0.0
 16
0.0
 26
0.0
 36
1.0
 17
0.0
 27
0.0
 37
0.0
 40
1.5321637384092419
 41
2.0222222222222221
 42
50.0
 43
0.0
 44
0.0
 50
0.0
 51
0.0
 71
     0
 72
   100
 73
     1
 74
     0
 75
     0
 76
     0
 77
     0
 78
     0
  0
ENDTAB
  0
TABLE
  2
LTYPE
 70
     2
  0
LTYPE
  2
CONTINUOUS
 70
     0
  3
Solid line
 72
    65
 73
     0
 40
0.0
  0
LTYPE
  2
HIDDEN2
 70
     0
  3
_ _ _ _ _ _ _ _ _ _ _ _ _ _ _ _ _ _ _ _ _ _ _ _
 72
    65
 73
     2
 40
0.1875
 49
0.125
 49
-0.0625
  0
ENDTAB
  0
TABLE
  2
LAYER
 70
     1
  0
LAYER
  2
0
 70
     0
 62
     1
  6
CONTINUOUS
  0
ENDTAB
  0
TABLE
  2
STYLE
 70
     1
  0
STYLE
  2
STANDARD
 70
     0
 40
0.0
 41
1.0
 50
0.0
 71
     0
 42
0.2
  3
txt
  4

  0
ENDTAB
  0
TABLE
  2
VIEW
 70
     0
  0
ENDTAB
  0
TABLE
  2
UCS
 70
     0
  0
ENDTAB
  0
TABLE
  2
APPID
 70
     1
  0
APPID
  2
ACAD
 70
     0
  0
ENDTAB
  0
TABLE
  2
DIMSTYLE
 70
     1
  0
DIMSTYLE
  2
STANDARD
 70
     0
  3

  4

  5

  6

  7

 40
1.0
 41
0.18
 42
0.0625
 43
0.38
 44
0.18
 45
0.0
 46
0.0
 47
0.0
 48
0.0
140
0.18
141
0.09
142
0.0
143
25.399999999999999
144
1.0
145
0.0
146
1.0
147
0.09
 71
     0
 72
     0
 73
     1
 74
     1
 75
     0
 76
     0
 77
     0
 78
     0
170
     0
171
     2
172
     0
173
     0
174
     0
175
     0
176
     0
177
     0
178
     0
  0
ENDTAB
  0
ENDSEC
  0
SECTION
  2
BLOCKS
  0
BLOCK
  8
0
  2
$MODEL_SPACE
 70
     0
 10
0.0
 20
0.0
 30
0.0
  3
$MODEL_SPACE
  1

  0
ENDBLK
  5
9
  8
0
  0
BLOCK
 67
     1
  8
0
  2
$PAPER_SPACE
 70
     0
 10
0.0
 20
0.0
 30
0.0
  3
$PAPER_SPACE
  1

  0
ENDBLK
  5
E
 67
     1
  8
0
  0
ENDSEC
  0
SECTION
  2
ENTITIES
  0
ARC
  5
24
  8
0
 10
4.1664051086533362
 20
1.309650323682686
 30
0.0
 40
0.11
 50
180.0
 51
315.00003099999992
  0
ARC
  5
26
  8
0
 10
4.1664051086533362
 20
1.544650323682687
 30
0.0
 40
0.095
 50
352.42733799999991
 51
187.57260099999991
  0
ARC
  5
27
  8
0
 10
4.1664051086533362
 20
1.544650323682687
 30
0.0
 40
0.09
 50
352.42733799999991
 51
187.57260099999991
  0
CIRCLE
  5
28
  8
0
 10
4.1664051086533362
 20
1.281525323682686
 30
0.0
 40
0.046875
  0
ARC
  5
29
  8
0
 10
4.1664051086533362
 20
1.309650323682686
 30
0.0
 40
0.1
 50
225.00001499999999
 51
315.00003099999992
  0
ARC
  5
2A
  8
0
 10
4.1664051086533362
 20
1.309650323682686
 30
0.0
 40
0.105
 50
180.0
 51
315.00003099999992
  0
LINE
  5
2F
  8
0
 10
4.072234108653336
 20
1.532131323682687
 30
0.0
 11
4.096307914826621
 21
1.3610437011695511
 31
0.0
  0
LINE
  5
30
  8
0
 10
4.077190108653336
 20
1.5327903236826861
 30
0.0
 11
4.1012891086533356
 21
1.361509323682687
 31
0.0
  0
LINE
  5
31
  8
0
 10
4.0564051086533359
 20
1.309650323682686
 30
0.0
 11
4.0564051086533359
 21
1.3396503236826871
 31
0.0
  0
LINE
  5
32
  8
0
 10
4.0614051086533358
 20
1.309650323682686
 30
0.0
 11
4.0614051086533358
 21
1.3396503236826871
 31
0.0
  0
LINE
  5
33
  8
0
 10
4.0921591086533358
 20
1.235404323682687
 30
0.0
 11
4.0956951086533362
 21
1.2389403236826859
 31
0.0
  0
LINE
  5
34
  8
0
 10
4.0864054656760782
 20
1.349650323682686
 30
0.0
 11
4.0664051086533357
 21
1.349650323682686
 31
0.0
  0
ARC
  5
35
  8
0
 10
4.0664051086533357
 20
1.3396503236826871
 30
0.0
 40
0.01
 50
90.0
 51
180.0
  0
ARC
  5
36
  8
0
 10
4.0864051086533362
 20
1.3596513236826859
 30
0.0
 40
0.015
 50
270.0
 51
7.1161929999999982
  0
ARC
  5
37
  8
0
 10
4.0664051086533357
 20
1.3396503236826871
 30
0.0
 40
0.005
 50
90.0
 51
180.0
  0
LINE
  5
38
  8
0
 10
4.0864051086533362
 20
1.3446503236826861
 30
0.0
 11
4.0664051086533357
 21
1.3446503236826861
 31
0.0
  0
ARC
  5
39
  8
0
 10
4.0864054656760782
 20
1.359650323682686
 30
0.0
 40
0.01
 50
270.0
 51
8.0095264407599132
  0
LINE
  5
3A
  8
0
 10
4.2556201086533347
 20
1.5327903236826861
 30
0.0
 11
4.2315371086533364
 21
1.3616273236826859
 31
0.0
  0
LINE
  5
3B
  8
0
 10
4.2605771086533357
 20
1.532131323682687
 30
0.0
 11
4.2365033024800498
 21
1.3610437011695511
 31
0.0
  0
LINE
  5
3C
  8
0
 10
4.2764061086533349
 20
1.309650323682686
 30
0.0
 11
4.2764061086533349
 21
1.3396503236826871
 31
0.0
  0
LINE
  5
3D
  8
0
 10
4.2714051086533358
 20
1.309650323682686
 30
0.0
 11
4.2714051086533358
 21
1.3396503236826871
 31
0.0
  0
LINE
  5
3E
  8
0
 10
4.240652108653336
 20
1.235404323682687
 30
0.0
 11
4.2441871086533363
 21
1.2318693236826861
 31
0.0
  0
LINE
  5
3F
  8
0
 10
4.240652108653336
 20
1.235404323682687
 30
0.0
 11
4.2453351086533351
 21
1.235404323682687
 31
0.0
  0
LINE
  5
40
  8
0
 10
4.240652108653336
 20
1.2404043236826869
 30
0.0
 11
4.2430371086533363
 21
1.2404043236826869
 31
0.0
  0
ARC
  5
41
  8
0
 10
4.240652108653336
 20
1.235404323682687
 30
0.0
 40
0.005
 50
90.000007999999994
 51
134.99996899999991
  0
ARC
  5
42
  8
0
 10
4.1664051086533362
 20
1.309650323682686
 30
0.0
 40
0.105
 50
320.02432299999992
 51
0.0
  0
ARC
  5
43
  8
0
 10
4.1664051086533362
 20
1.309650323682686
 30
0.0
 40
0.11
 50
318.73907500000001
 51
0.0
  0
ARC
  5
44
  8
0
 10
4.2430371086533363
 20
1.2454043236826871
 30
0.0
 40
0.005
 50
270.0
 51
320.021637
  0
ARC
  5
45
  8
0
 10
4.2453351086533351
 20
1.2404043236826869
 30
0.0
 40
0.005
 50
270.0
 51
318.739014
  0
ARC
  5
46
  8
0
 10
4.2464061086533356
 20
1.3596513236826859
 30
0.0
 40
0.015
 50
172.428391
 51
270.00003099999992
  0
ARC
  5
47
  8
0
 10
4.2464057516305944
 20
1.359650323682686
 30
0.0
 40
0.01
 50
171.9904735592398
 51
270.0
  0
ARC
  5
48
  8
0
 10
-4.2664051086533359
 20
1.3396503236826871
 30
0.0
 40
0.01
210
0.0
220
0.0
230
-1.0
 50
90.0
 51
180.0
  0
LINE
  5
49
  8
0
 10
4.2464061086533356
 20
1.3446503236826861
 30
0.0
 11
4.2664051086533359
 21
1.3446503236826861
 31
0.0
  0
ARC
  5
4A
  8
0
 10
-4.2664051086533359
 20
1.3396503236826871
 30
0.0
 40
0.005
210
0.0
220
0.0
230
-1.0
 50
90.0
 51
180.0
  0
LINE
  5
4B
  8
0
 10
4.2464057516305944
 20
1.349650323682686
 30
0.0
 11
4.2664051086533359
 21
1.349650323682686
 31
0.0
  0
ENDSEC
  0
EOF
