  0
SECTION
  2
HEADER
  9
$ACADVER
  1
AC1009
  9
$INSBASE
 10
0.0
 20
0.0
 30
0.0
  9
$EXTMIN
 10
3.907389626110338
 20
1.010349235383067
 30
0.0
  9
$EXTMAX
 10
4.3606650391809048
 20
1.5672054363648951
 30
0.0
  9
$LIMMIN
 10
0.0
 20
0.0
  9
$LIMMAX
 10
12.0
 20
9.0
  9
$ORTHOMODE
 70
     1
  9
$REGENMODE
 70
     1
  9
$FILLMODE
 70
     1
  9
$QTEXTMODE
 70
     0
  9
$MIRRTEXT
 70
     1
  9
$DRAGMODE
 70
     2
  9
$LTSCALE
 40
1.0
  9
$OSMODE
 70
    39
  9
$ATTMODE
 70
     1
  9
$TEXTSIZE
 40
0.2
  9
$TRACEWID
 40
0.05
  9
$TEXTSTYLE
  7
STANDARD
  9
$CLAYER
  8
0
  9
$CELTYPE
  6
BYLAYER
  9
$CECOLOR
 62
   256
  9
$DIMSCALE
 40
1.0
  9
$DIMASZ
 40
0.18
  9
$DIMEXO
 40
0.0625
  9
$DIMDLI
 40
0.38
  9
$DIMRND
 40
0.0
  9
$DIMDLE
 40
0.0
  9
$DIMEXE
 40
0.18
  9
$DIMTP
 40
0.0
  9
$DIMTM
 40
0.0
  9
$DIMTXT
 40
0.18
  9
$DIMCEN
 40
0.09
  9
$DIMTSZ
 40
0.0
  9
$DIMTOL
 70
     0
  9
$DIMLIM
 70
     0
  9
$DIMTIH
 70
     1
  9
$DIMTOH
 70
     1
  9
$DIMSE1
 70
     0
  9
$DIMSE2
 70
     0
  9
$DIMTAD
 70
     0
  9
$DIMZIN
 70
     0
  9
$DIMBLK
  1

  9
$DIMASO
 70
     1
  9
$DIMSHO
 70
     1
  9
$DIMPOST
  1

  9
$DIMAPOST
  1

  9
$DIMALT
 70
     1
  9
$DIMALTD
 70
     2
  9
$DIMALTF
 40
25.399999999999999
  9
$DIMLFAC
 40
0.2
  9
$DIMTOFL
 70
     0
  9
$DIMTVP
 40
0.0
  9
$DIMTIX
 70
     0
  9
$DIMSOXD
 70
     0
  9
$DIMSAH
 70
     0
  9
$DIMBLK1
  1

  9
$DIMBLK2
  1

  9
$DIMSTYLE
  2
STANDARD
  9
$DIMCLRD
 70
     0
  9
$DIMCLRE
 70
     0
  9
$DIMCLRT
 70
     0
  9
$DIMTFAC
 40
1.0
  9
$DIMGAP
 40
0.09
  9
$LUNITS
 70
     2
  9
$LUPREC
 70
     3
  9
$SKETCHINC
 40
0.1
  9
$FILLETRAD
 40
0.0
  9
$AUNITS
 70
     0
  9
$AUPREC
 70
     0
  9
$MENU
  1
acad
  9
$ELEVATION
 40
0.0
  9
$PELEVATION
 40
0.0
  9
$THICKNESS
 40
0.0
  9
$LIMCHECK
 70
     0
  9
$BLIPMODE
 70
     0
  9
$CHAMFERA
 40
0.0
  9
$CHAMFERB
 40
0.0
  9
$SKPOLY
 70
     0
  9
$TDCREATE
 40
2450128.4882042818
  9
$TDUPDATE
 40
2451982.580397801
  9
$TDINDWG
 40
0.0069622685
  9
$TDUSRTIMER
 40
0.0069622685
  9
$USRTIMER
 70
     1
  9
$ANGBASE
 50
0.0
  9
$ANGDIR
 70
     0
  9
$PDMODE
 70
     0
  9
$PDSIZE
 40
0.0
  9
$PLINEWID
 40
0.0
  9
$COORDS
 70
     0
  9
$SPLFRAME
 70
     0
  9
$SPLINETYPE
 70
     6
  9
$SPLINESEGS
 70
     8
  9
$ATTDIA
 70
     0
  9
$ATTREQ
 70
     1
  9
$HANDLING
 70
  4097
  9
$HANDSEED
  5
CC
  9
$SURFTAB1
 70
     6
  9
$SURFTAB2
 70
     6
  9
$SURFTYPE
 70
     6
  9
$SURFU
 70
     6
  9
$SURFV
 70
     6
  9
$UCSNAME
  2

  9
$UCSORG
 10
0.0
 20
0.0
 30
0.0
  9
$UCSXDIR
 10
1.0
 20
0.0
 30
0.0
  9
$UCSYDIR
 10
0.0
 20
1.0
 30
0.0
  9
$PUCSNAME
  2

  9
$PUCSORG
 10
0.0
 20
0.0
 30
0.0
  9
$PUCSXDIR
 10
1.0
 20
0.0
 30
0.0
  9
$PUCSYDIR
 10
0.0
 20
1.0
 30
0.0
  9
$USERI1
 70
     0
  9
$USERI2
 70
     0
  9
$USERI3
 70
     0
  9
$USERI4
 70
     0
  9
$USERI5
 70
     0
  9
$USERR1
 40
0.0
  9
$USERR2
 40
0.0
  9
$USERR3
 40
0.0
  9
$USERR4
 40
0.0
  9
$USERR5
 40
0.0
  9
$WORLDVIEW
 70
     1
  9
$SHADEDGE
 70
     3
  9
$SHADEDIF
 70
    70
  9
$TILEMODE
 70
     1
  9
$MAXACTVP
 70
    16
  9
$PLIMCHECK
 70
     0
  9
$PEXTMIN
 10
1.0000000000000000E+020
 20
1.0000000000000000E+020
 30
1.0000000000000000E+020
  9
$PEXTMAX
 10
-1.0000000000000000E+020
 20
-1.0000000000000000E+020
 30
-1.0000000000000000E+020
  9
$PLIMMIN
 10
0.0
 20
0.0
  9
$PLIMMAX
 10
12.0
 20
9.0
  9
$UNITMODE
 70
     0
  9
$VISRETAIN
 70
     0
  9
$PLINEGEN
 70
     0
  9
$PSLTSCALE
 70
     1
  0
ENDSEC
  0
SECTION
  2
TABLES
  0
TABLE
  2
VPORT
 70
     2
  0
VPORT
  2
*ACTIVE
 70
     0
 10
0.0
 20
0.0
 11
1.0
 21
1.0
 12
4.6519685820671981
 22
1.4623834093257271
 13
0.0
 23
0.0
 14
1.0
 24
1.0
 15
0.0
 25
0.0
 16
0.0
 26
0.0
 36
1.0
 17
0.0
 27
0.0
 37
0.0
 40
1.8202762911366299
 41
1.9695550351288049
 42
50.0
 43
0.0
 44
0.0
 50
0.0
 51
0.0
 71
     0
 72
   100
 73
     1
 74
     0
 75
     0
 76
     0
 77
     0
 78
     0
  0
ENDTAB
  0
TABLE
  2
LTYPE
 70
     2
  0
LTYPE
  2
CONTINUOUS
 70
     0
  3
Solid line
 72
    65
 73
     0
 40
0.0
  0
LTYPE
  2
HIDDEN2
 70
     0
  3
_ _ _ _ _ _ _ _ _ _ _ _ _ _ _ _ _ _ _ _ _ _ _ _
 72
    65
 73
     2
 40
0.1875
 49
0.125
 49
-0.0625
  0
ENDTAB
  0
TABLE
  2
LAYER
 70
     1
  0
LAYER
  2
0
 70
     0
 62
     1
  6
CONTINUOUS
  0
ENDTAB
  0
TABLE
  2
STYLE
 70
     1
  0
STYLE
  2
STANDARD
 70
     0
 40
0.0
 41
1.0
 50
0.0
 71
     0
 42
0.2
  3
txt
  4

  0
ENDTAB
  0
TABLE
  2
VIEW
 70
     0
  0
ENDTAB
  0
TABLE
  2
UCS
 70
     0
  0
ENDTAB
  0
TABLE
  2
APPID
 70
     1
  0
APPID
  2
ACAD
 70
     0
  0
ENDTAB
  0
TABLE
  2
DIMSTYLE
 70
     1
  0
DIMSTYLE
  2
STANDARD
 70
     0
  3

  4

  5

  6

  7

 40
1.0
 41
0.18
 42
0.0625
 43
0.38
 44
0.18
 45
0.0
 46
0.0
 47
0.0
 48
0.0
140
0.18
141
0.09
142
0.0
143
25.399999999999999
144
1.0
145
0.0
146
1.0
147
0.09
 71
     0
 72
     0
 73
     1
 74
     1
 75
     0
 76
     0
 77
     0
 78
     0
170
     0
171
     2
172
     0
173
     0
174
     0
175
     0
176
     0
177
     0
178
     0
  0
ENDTAB
  0
ENDSEC
  0
SECTION
  2
BLOCKS
  0
BLOCK
  8
0
  2
$MODEL_SPACE
 70
     0
 10
0.0
 20
0.0
 30
0.0
  3
$MODEL_SPACE
  1

  0
ENDBLK
  5
9
  8
0
  0
BLOCK
 67
     1
  8
0
  2
$PAPER_SPACE
 70
     0
 10
0.0
 20
0.0
 30
0.0
  3
$PAPER_SPACE
  1

  0
ENDBLK
  5
E
 67
     1
  8
0
  0
ENDSEC
  0
SECTION
  2
ENTITIES
  0
LINE
  5
24
  8
0
 10
4.2500509035571747
 20
1.2017374306143449
 30
0.0
 11
3.9315219035571749
 21
1.2017374306143449
 31
0.0
  0
LINE
  5
26
  8
0
 10
4.3365229035571744
 20
1.2997374306143441
 30
0.0
 11
4.1203919035571754
 21
1.2997374306143441
 31
0.0
  0
LINE
  5
27
  8
0
 10
4.0432599035571739
 20
1.360538430614344
 30
0.0
 11
4.1502249035571754
 21
1.4675034306143451
 31
0.0
  0
LINE
  5
28
  8
0
 10
3.9315219035571749
 20
1.207737430614346
 30
0.0
 11
4.2505129035571736
 21
1.207737430614346
 31
0.0
  0
LINE
  5
29
  8
0
 10
4.1459029035571753
 20
1.471666430614347
 30
0.0
 11
4.039067903557175
 21
1.364831430614345
 31
0.0
  0
LINE
  5
2A
  8
0
 10
4.1203919035571754
 20
1.2937374306143441
 30
0.0
 11
4.3365229035571744
 21
1.2937374306143441
 31
0.0
  0
ARC
  5
2B
  8
0
 10
4.1169909035571752
 20
1.5007374306143451
 30
0.0
 40
0.047
 50
315.00018299999988
 51
134.90859999999989
  0
ARC
  5
2C
  8
0
 10
4.1169909035571752
 20
1.5007374306143451
 30
0.0
 40
0.041
 50
314.843842
 51
134.882385
  0
LINE
  5
31
  8
0
 10
3.9173799035571761
 20
1.3675954306143461
 30
0.0
 11
4.0838099035571744
 21
1.5340244306143449
 31
0.0
  0
LINE
  5
32
  8
0
 10
4.0880589035571751
 20
1.5297884306143441
 30
0.0
 11
3.921622903557175
 21
1.363352430614347
 31
0.0
  0
LINE
  5
33
  8
0
 10
3.911522903557175
 20
1.221709430614345
 30
0.0
 11
3.911522903557175
 21
1.3534804306143451
 31
0.0
  0
LINE
  5
34
  8
0
 10
3.9175229035571748
 20
1.353411430614345
 30
0.0
 11
3.9175229035571748
 21
1.221779430614345
 31
0.0
  0
ARC
  5
35
  8
0
 10
-4.0718329035571736
 20
1.332104430614345
 30
0.0
 40
0.040309
210
0.0
220
0.0
230
-1.0
 50
260.44878999999992
 51
44.860152999999997
  0
ARC
  5
36
  8
0
 10
-4.0718069035571736
 20
1.3320924306143449
 30
0.0
 40
0.0463
210
0.0
220
0.0
230
-1.0
 50
260.0001289999999
 51
45.000030999999993
  0
ARC
  5
37
  8
0
 10
-3.9315219035571749
 20
1.2217374306143449
 30
0.0
 40
0.02
210
0.0
220
0.0
230
-1.0
 50
270.0
 51
359.92022700000001
  0
ARC
  5
38
  8
0
 10
3.9315219035571749
 20
1.2217374306143449
 30
0.0
 40
0.014
 50
179.83059700000001
 51
270.0
  0
LINE
  5
39
  8
0
 10
4.078520903557175
 20
1.2923544306143451
 30
0.0
 11
4.1203919035571754
 21
1.2997374306143441
 31
0.0
  0
LINE
  5
3A
  8
0
 10
4.1214339035571754
 20
1.293828430614345
 30
0.0
 11
4.0798459035571737
 21
1.2864954306143439
 31
0.0
  0
ARC
  5
3B
  8
0
 10
-3.9315219035571749
 20
1.3534524306143469
 30
0.0
 40
0.02
210
0.0
220
0.0
230
-1.0
 50
0.0800169999999859
 51
45.000229000000019
  0
ARC
  5
3C
  8
0
 10
3.9315219035571749
 20
1.3534524306143469
 30
0.0
 40
0.014
 50
134.99996899999991
 51
180.1694029999999
  0
LINE
  5
3D
  8
0
 10
4.3565229035571749
 20
1.2797654306143449
 30
0.0
 11
4.3565219035571738
 21
1.0307154306143449
 31
0.0
  0
LINE
  5
3E
  8
0
 10
4.3505219035571736
 20
1.0307164306143459
 30
0.0
 11
4.3505229035571746
 21
1.279695430614344
 31
0.0
  0
LINE
  5
3F
  8
0
 10
4.330521903557174
 20
1.053249430614345
 30
0.0
 11
4.3305229035571742
 21
1.2492494306143449
 31
0.0
  0
ARC
  5
40
  8
0
 10
4.2361249035571751
 20
1.110064430614345
 30
0.0
 40
0.013603
 50
120.00778199999991
 51
242.98091099999999
  0
LINE
  5
41
  8
0
 10
4.2692129035571753
 20
1.137948430614345
 30
0.0
 11
4.232081903557174
 21
1.116504430614345
 31
0.0
  0
ARC
  5
42
  8
0
 10
4.3405219035571738
 20
1.0307154306143449
 30
0.0
 40
0.016
 50
223.46784999999991
 51
0.0
  0
LINE
  5
43
  8
0
 10
4.2299449035571746
 20
1.097946430614344
 30
0.0
 11
4.3289099035571752
 21
1.0197074306143441
 31
0.0
  0
LINE
  5
44
  8
0
 10
4.2314139035571747
 20
1.1040964306143439
 30
0.0
 11
4.3343269035571739
 21
1.022866430614346
 31
0.0
  0
LINE
  5
45
  8
0
 10
4.330521903557174
 20
1.053249430614345
 30
0.0
 11
4.2404859035571754
 21
1.1162934306143451
 31
0.0
  0
LINE
  5
46
  8
0
 10
4.330521903557174
 20
1.0349384306143441
 30
0.0
 11
4.2314649035571739
 21
1.1041704306143461
 31
0.0
  0
ARC
  5
47
  8
0
 10
4.2361249035571751
 20
1.110064430614345
 30
0.0
 40
0.007603
 50
54.999752000000008
 51
231.71450799999991
  0
LINE
  5
48
  8
0
 10
4.330521903557174
 20
1.0307494306143441
 30
0.0
 11
4.330521903557174
 21
1.0349384306143441
 31
0.0
  0
ARC
  5
49
  8
0
 10
4.3405219035571738
 20
1.0307164306143459
 30
0.0
 40
0.01
 50
179.80548099999999
 51
0.0
  0
ARC
  5
4A
  8
0
 10
4.3365229035571744
 20
1.279737430614345
 30
0.0
 40
0.02
 50
0.0
 51
90.0
  0
LINE
  5
4B
  8
0
 10
4.3505229035571746
 20
1.2767494306143441
 30
0.0
 11
4.2295229035571751
 21
1.2767494306143441
 31
0.0
  0
LINE
  5
4C
  8
0
 10
4.3305229035571742
 20
1.2492494306143449
 30
0.0
 11
4.2295229035571751
 21
1.2492494306143449
 31
0.0
  0
LINE
  5
4D
  8
0
 10
4.2293219035571736
 20
1.1218444306143449
 30
0.0
 11
4.2658229035571749
 21
1.143144430614345
 31
0.0
  0
LINE
  5
4E
  8
0
 10
4.2295229035571751
 20
1.2492494306143449
 30
0.0
 11
4.2295229035571751
 21
1.2767494306143441
 31
0.0
  0
ARC
  5
4F
  8
0
 10
4.3365229035571744
 20
1.279737430614345
 30
0.0
 40
0.014
 50
359.83061199999997
 51
90.0
  0
ARC
  5
50
  8
0
 10
4.250122903557175
 20
1.1703374306143459
 30
0.0
 40
0.0314
 50
300.00015300000001
 51
90.132050000000064
  0
ARC
  5
51
  8
0
 10
4.2505129035571736
 20
1.1703374306143459
 30
0.0
 40
0.0374
 50
300.00022899999988
 51
90.0
  0
ENDSEC
  0
EOF
