  0
SECTION
  2
HEADER
  9
$ACADVER
  1
AC1009
  9
$INSBASE
 10
0.0
 20
0.0
 30
0.0
  9
$EXTMIN
 10
8.9180696484760986
 20
5.4529612736652471
 30
0.0
  9
$EXTMAX
 10
9.3073954301409234
 20
6.0577622004531193
 30
0.0
  9
$LIMMIN
 10
0.0
 20
0.0
  9
$LIMMAX
 10
12.0
 20
9.0
  9
$ORTHOMODE
 70
     0
  9
$REGENMODE
 70
     1
  9
$FILLMODE
 70
     1
  9
$QTEXTMODE
 70
     0
  9
$MIRRTEXT
 70
     1
  9
$DRAGMODE
 70
     2
  9
$LTSCALE
 40
1.0
  9
$OSMODE
 70
    39
  9
$ATTMODE
 70
     1
  9
$TEXTSIZE
 40
0.2
  9
$TRACEWID
 40
0.05
  9
$TEXTSTYLE
  7
STANDARD
  9
$CLAYER
  8
0
  9
$CELTYPE
  6
BYLAYER
  9
$CECOLOR
 62
   256
  9
$DIMSCALE
 40
1.0
  9
$DIMASZ
 40
0.18
  9
$DIMEXO
 40
0.0625
  9
$DIMDLI
 40
0.38
  9
$DIMRND
 40
0.0
  9
$DIMDLE
 40
0.0
  9
$DIMEXE
 40
0.18
  9
$DIMTP
 40
0.0
  9
$DIMTM
 40
0.0
  9
$DIMTXT
 40
0.18
  9
$DIMCEN
 40
0.09
  9
$DIMTSZ
 40
0.0
  9
$DIMTOL
 70
     0
  9
$DIMLIM
 70
     0
  9
$DIMTIH
 70
     1
  9
$DIMTOH
 70
     1
  9
$DIMSE1
 70
     0
  9
$DIMSE2
 70
     0
  9
$DIMTAD
 70
     0
  9
$DIMZIN
 70
     0
  9
$DIMBLK
  1

  9
$DIMASO
 70
     1
  9
$DIMSHO
 70
     1
  9
$DIMPOST
  1

  9
$DIMAPOST
  1

  9
$DIMALT
 70
     0
  9
$DIMALTD
 70
     2
  9
$DIMALTF
 40
25.399999999999999
  9
$DIMLFAC
 40
1.0
  9
$DIMTOFL
 70
     0
  9
$DIMTVP
 40
0.0
  9
$DIMTIX
 70
     0
  9
$DIMSOXD
 70
     0
  9
$DIMSAH
 70
     0
  9
$DIMBLK1
  1

  9
$DIMBLK2
  1

  9
$DIMSTYLE
  2
STANDARD
  9
$DIMCLRD
 70
     0
  9
$DIMCLRE
 70
     0
  9
$DIMCLRT
 70
     0
  9
$DIMTFAC
 40
1.0
  9
$DIMGAP
 40
0.09
  9
$LUNITS
 70
     2
  9
$LUPREC
 70
     4
  9
$SKETCHINC
 40
0.1
  9
$FILLETRAD
 40
0.5
  9
$AUNITS
 70
     0
  9
$AUPREC
 70
     0
  9
$MENU
  1
.
  9
$ELEVATION
 40
0.0
  9
$PELEVATION
 40
0.0
  9
$THICKNESS
 40
0.0
  9
$LIMCHECK
 70
     0
  9
$BLIPMODE
 70
     0
  9
$CHAMFERA
 40
0.5
  9
$CHAMFERB
 40
0.5
  9
$SKPOLY
 70
     0
  9
$TDCREATE
 40
2451969.4014964122
  9
$TDUPDATE
 40
2451982.5816361108
  9
$TDINDWG
 40
0.0845465278
  9
$TDUSRTIMER
 40
0.0845465278
  9
$USRTIMER
 70
     1
  9
$ANGBASE
 50
0.0
  9
$ANGDIR
 70
     0
  9
$PDMODE
 70
     0
  9
$PDSIZE
 40
0.0
  9
$PLINEWID
 40
0.0
  9
$COORDS
 70
     0
  9
$SPLFRAME
 70
     0
  9
$SPLINETYPE
 70
     6
  9
$SPLINESEGS
 70
     8
  9
$ATTDIA
 70
     0
  9
$ATTREQ
 70
     1
  9
$HANDLING
 70
  4097
  9
$HANDSEED
  5
4A4
  9
$SURFTAB1
 70
     6
  9
$SURFTAB2
 70
     6
  9
$SURFTYPE
 70
     6
  9
$SURFU
 70
     6
  9
$SURFV
 70
     6
  9
$UCSNAME
  2

  9
$UCSORG
 10
0.0
 20
0.0
 30
0.0
  9
$UCSXDIR
 10
1.0
 20
0.0
 30
0.0
  9
$UCSYDIR
 10
0.0
 20
1.0
 30
0.0
  9
$PUCSNAME
  2

  9
$PUCSORG
 10
0.0
 20
0.0
 30
0.0
  9
$PUCSXDIR
 10
1.0
 20
0.0
 30
0.0
  9
$PUCSYDIR
 10
0.0
 20
1.0
 30
0.0
  9
$USERI1
 70
     0
  9
$USERI2
 70
     0
  9
$USERI3
 70
     0
  9
$USERI4
 70
     0
  9
$USERI5
 70
     0
  9
$USERR1
 40
0.0
  9
$USERR2
 40
0.0
  9
$USERR3
 40
0.0
  9
$USERR4
 40
0.0
  9
$USERR5
 40
0.0
  9
$WORLDVIEW
 70
     1
  9
$SHADEDGE
 70
     3
  9
$SHADEDIF
 70
    70
  9
$TILEMODE
 70
     1
  9
$MAXACTVP
 70
    48
  9
$PLIMCHECK
 70
     0
  9
$PEXTMIN
 10
1.0000000000000000E+020
 20
1.0000000000000000E+020
 30
1.0000000000000000E+020
  9
$PEXTMAX
 10
-1.0000000000000000E+020
 20
-1.0000000000000000E+020
 30
-1.0000000000000000E+020
  9
$PLIMMIN
 10
0.0
 20
0.0
  9
$PLIMMAX
 10
12.0
 20
9.0
  9
$UNITMODE
 70
     0
  9
$VISRETAIN
 70
     1
  9
$PLINEGEN
 70
     0
  9
$PSLTSCALE
 70
     1
  0
ENDSEC
  0
SECTION
  2
TABLES
  0
TABLE
  2
VPORT
 70
     2
  0
VPORT
  2
*ACTIVE
 70
     0
 10
0.0
 20
0.0
 11
1.0
 21
1.0
 12
9.7008084767104759
 22
5.7656225998763047
 13
0.0
 23
0.0
 14
0.5
 24
0.5
 15
0.5
 25
0.5
 16
0.0
 26
0.0
 36
1.0
 17
0.0
 27
0.0
 37
0.0
 40
1.7644215738464
 41
2.0809399477806778
 42
50.0
 43
0.0
 44
0.0
 50
0.0
 51
0.0
 71
     0
 72
   100
 73
     1
 74
     2
 75
     0
 76
     0
 77
     0
 78
     0
  0
ENDTAB
  0
TABLE
  2
LTYPE
 70
     1
  0
LTYPE
  2
CONTINUOUS
 70
     0
  3
Solid line
 72
    65
 73
     0
 40
0.0
  0
ENDTAB
  0
TABLE
  2
LAYER
 70
     1
  0
LAYER
  2
0
 70
     0
 62
     1
  6
CONTINUOUS
  0
ENDTAB
  0
TABLE
  2
STYLE
 70
     1
  0
STYLE
  2
STANDARD
 70
     0
 40
0.0
 41
1.0
 50
0.0
 71
     0
 42
0.2
  3
txt
  4

  0
ENDTAB
  0
TABLE
  2
VIEW
 70
     0
  0
ENDTAB
  0
TABLE
  2
UCS
 70
     0
  0
ENDTAB
  0
TABLE
  2
APPID
 70
     1
  0
APPID
  2
ACAD
 70
     0
  0
ENDTAB
  0
TABLE
  2
DIMSTYLE
 70
     1
  0
DIMSTYLE
  2
STANDARD
 70
     0
  3

  4

  5

  6

  7

 40
1.0
 41
0.18
 42
0.0625
 43
0.38
 44
0.18
 45
0.0
 46
0.0
 47
0.0
 48
0.0
140
0.18
141
0.09
142
0.0
143
25.399999999999999
144
1.0
145
0.0
146
1.0
147
0.09
 71
     0
 72
     0
 73
     1
 74
     1
 75
     0
 76
     0
 77
     0
 78
     0
170
     0
171
     2
172
     0
173
     0
174
     0
175
     0
176
     0
177
     0
178
     0
  0
ENDTAB
  0
ENDSEC
  0
SECTION
  2
BLOCKS
  0
BLOCK
  8
0
  2
$MODEL_SPACE
 70
     0
 10
0.0
 20
0.0
 30
0.0
  3
$MODEL_SPACE
  1

  0
ENDBLK
  5
9
  8
0
  0
BLOCK
 67
     1
  8
0
  2
$PAPER_SPACE
 70
     0
 10
0.0
 20
0.0
 30
0.0
  3
$PAPER_SPACE
  1

  0
ENDBLK
  5
E
 67
     1
  8
0
  0
ENDSEC
  0
SECTION
  2
ENTITIES
  0
LINE
  5
24
  8
0
 10
8.9676538981292282
 20
5.6675868868750099
 30
0.0
 11
8.9676435133678591
 21
5.4629622886585247
 31
0.0
  0
LINE
  5
25
  8
0
 10
8.9876435133421033
 20
5.4629612736523701
 30
0.0
 11
8.9876524759727268
 21
5.639563761164939
 31
0.0
  0
LINE
  5
26
  8
0
 10
8.9926495018719912
 20
5.5809610197488686
 30
0.0
 11
8.9926523935174139
 21
5.6379389089354941
 31
0.0
  0
LINE
  5
27
  8
0
 10
8.9626538156867959
 20
5.6659625421486437
 30
0.0
 11
8.9626495019106258
 21
5.5809625422581064
 31
0.0
  0
LINE
  5
29
  8
0
 10
9.1830144918277057
 20
6.0202050656926778
 30
0.0
 11
8.9594418443491133
 21
5.8492888478332636
 31
0.0
  0
LINE
  5
2A
  8
0
 10
8.9624785219612697
 20
5.8453166206158249
 30
0.0
 11
9.1860511694198621
 21
6.0162328384752408
 31
0.0
1001
ACAD
1000
ASC_BOUNDS
1002
{
1070
    19
1005
28
1002
}
  0
LINE
  5
2B
  8
0
 10
8.987658315855759
 20
5.7546346497967518
 30
0.0
 11
9.0939262396745377
 21
5.7639264540388702
 31
0.0
1001
ACAD
1000
ASC_BOUNDS
1002
{
1070
    19
1005
28
1002
}
  0
LINE
  5
2C
  8
0
 10
9.0921841359605331
 20
5.7838504364368273
 30
0.0
 11
8.9676592459632971
 21
5.7729622882593086
 31
0.0
1001
ACAD
1000
ASC_BOUNDS
1002
{
1070
    19
1005
28
1002
}
  0
LINE
  5
2D
  8
0
 10
9.1113779201663547
 20
5.7019549944009027
 30
0.0
 11
9.0236556426193228
 21
5.7019594463335022
 31
0.0
1001
ACAD
1000
ASC_BOUNDS
1002
{
1070
    19
1005
28
1002
}
  0
LINE
  5
2E
  8
0
 10
9.0236553888677822
 20
5.6969594463399398
 30
0.0
 11
9.1113776664148158
 21
5.6969549944073421
 31
0.0
  0
LINE
  5
2F
  8
0
 10
8.9876524759727268
 20
5.639563761164939
 30
0.0
 11
8.987658315855759
 21
5.7546346497967518
 31
0.0
1001
ACAD
1000
ASC_BOUNDS
1002
{
1070
    19
1005
28
1002
}
  0
LINE
  5
30
  8
0
 10
8.9476619100606865
 20
5.8254570070378646
 30
0.0
 11
8.9476548634832032
 21
5.6866090321766736
 31
0.0
  0
LINE
  5
31
  8
0
 10
8.952654945925639
 20
5.6882333769030424
 30
0.0
 11
8.9526619100542462
 21
5.8254567532863257
 31
0.0
1001
ACAD
1000
ASC_BOUNDS
1002
{
1070
    19
1005
28
1002
}
  0
LINE
  5
32
  8
0
 10
8.9676592459632971
 20
5.7729622882593086
 30
0.0
 11
8.9676538981292282
 21
5.667586886875009
 31
0.0
1001
ACAD
1000
ASC_BOUNDS
1002
{
1070
    19
1005
28
1002
}
  0
ARC
  5
33
  8
0
 10
8.9776619100220518
 20
5.8254554845286304
 30
0.0
 40
0.025
 50
127.3970922215489
 51
179.99709222154891
1001
ACAD
1000
ASC_BOUNDS
1002
{
1070
    19
1005
28
1002
}
  0
ARC
  5
34
  8
0
 10
8.9776619100220518
 20
5.8254554845286304
 30
0.0
 40
0.03
 50
127.3970922215489
 51
179.99709222154891
  0
LINE
  5
35
  8
0
 10
9.0036535935810207
 20
5.6615850598716539
 30
0.0
 11
8.9876524759727268
 21
5.639563761164939
 31
0.0
1001
ACAD
1000
ASC_BOUNDS
1002
{
1070
    19
1005
28
1002
}
  0
LINE
  5
36
  8
0
 10
8.9926523935174139
 20
5.6379389089354941
 30
0.0
 11
9.0086535111257113
 21
5.6599602076422091
 31
0.0
  0
ARC
  5
37
  8
0
 10
9.0236546276131673
 20
5.6819594463592571
 30
0.0
 40
0.02
 50
89.997092221548925
 51
179.99709222154891
1001
ACAD
1000
ASC_BOUNDS
1002
{
1070
    19
1005
28
1002
}
  0
ARC
  5
38
  8
0
 10
9.0236546276131673
 20
5.6819594463592571
 30
0.0
 40
0.015
 50
89.997092221548925
 51
179.99709222154891
  0
LINE
  5
39
  8
0
 10
8.9676538981292282
 20
5.6675868868750099
 30
0.0
 11
8.952654945925639
 21
5.6882333769030424
 31
0.0
1001
ACAD
1000
ASC_BOUNDS
1002
{
1070
    19
1005
28
1002
}
  0
LINE
  5
3A
  8
0
 10
8.9476548634832032
 20
5.6866090321766736
 30
0.0
 11
8.9626538156867959
 21
5.6659625421486437
 31
0.0
  0
LINE
  5
3B
  8
0
 10
9.0036546276389213
 20
5.6819604613654153
 30
0.0
 11
9.0036535935810207
 21
5.6615850598716539
 31
0.0
1001
ACAD
1000
ASC_BOUNDS
1002
{
1070
    19
1005
28
1002
}
  0
LINE
  5
3C
  8
0
 10
9.0086535111257113
 20
5.6599602076422091
 30
0.0
 11
9.0086546276324828
 21
5.6819602076138764
 31
0.0
  0
LINE
  5
3D
  8
0
 10
9.2695263403900938
 20
5.9415897983484891
 30
0.0
 11
9.1328077179579328
 21
5.7140779549676788
 31
0.0
1001
ACAD
1000
ASC_BOUNDS
1002
{
1070
    19
1005
28
1002
}
  0
LINE
  5
3E
  8
0
 10
9.1370934237607102
 20
5.7115025470834739
 30
0.0
 11
9.2738120461928695
 21
5.9390143904642851
 31
0.0
  0
ARC
  5
3F
  8
0
 10
9.2206692941984425
 20
5.9709494481764356
 30
0.0
 40
0.057
 50
328.997092221549
 51
127.3970922215489
1001
ACAD
1000
ASC_BOUNDS
1002
{
1070
    19
1005
28
1002
}
  0
ARC
  5
40
  8
0
 10
9.2206692941984425
 20
5.9709494481764356
 30
0.0
 40
0.062
 50
328.997092221549
 51
127.3970922215489
  0
LINE
  5
41
  8
0
 10
9.0939262396745377
 20
5.7639264540388702
 30
0.0
 11
9.0921841359605331
 21
5.7838504364368273
 31
0.0
1001
ACAD
1000
ASC_BOUNDS
1002
{
1070
    19
1005
28
1002
}
  0
ARC
  5
42
  8
0
 10
9.1113791889240492
 20
5.726954994368711
 30
0.0
 40
0.025
 50
269.99709222154888
 51
328.997092221549
1001
ACAD
1000
ASC_BOUNDS
1002
{
1070
    19
1005
28
1002
}
  0
ARC
  5
43
  8
0
 10
9.1113791889240492
 20
5.726954994368711
 30
0.0
 40
0.03
 50
269.99709222154888
 51
328.997092221549
  0
LINE
  5
44
  8
0
 10
9.0138957474869734
 20
5.5069828994200956
 30
0.0
 11
8.9876449783772987
 21
5.4918287870751916
 31
0.0
  0
ARC
  5
45
  8
0
 10
8.935145198200189
 20
5.4961615784807814
 30
0.0
 40
0.0125
 50
59.997092221548911
 51
239.99709222154891
  0
LINE
  5
46
  8
0
 10
8.9676449784030545
 20
5.491829802081349
 30
0.0
 11
8.9413957475803372
 21
5.5069865788174157
 31
0.0
  0
ARC
  5
47
  8
0
 10
9.0201451980907255
 20
5.4961572647046122
 30
0.0
 40
0.0125
 50
299.99709222154888
 51
119.9970922215489
  0
LINE
  5
48
  8
0
 10
9.0138998075116028
 20
5.5869828993170731
 30
0.0
 11
8.9876490384019281
 21
5.5718287869721692
 31
0.0
  0
ARC
  5
49
  8
0
 10
9.0201492581153548
 20
5.576157264601588
 30
0.0
 40
0.0125
 50
299.99709222154888
 51
119.9970922215489
  0
ARC
  5
4A
  8
0
 10
8.9351492582248184
 20
5.5761615783777572
 30
0.0
 40
0.0125
 50
59.997092221548911
 51
239.99709222154891
  0
LINE
  5
4B
  8
0
 10
8.9676490384276821
 20
5.5718298019783257
 30
0.0
 11
8.9413998076049666
 21
5.5869865787143933
 31
0.0
  0
LINE
  5
4C
  8
0
 10
8.9876495018784315
 20
5.5809612735004084
 30
0.0
 11
8.9926495018719912
 21
5.5809610197488686
 31
0.0
  0
LINE
  5
4D
  8
0
 10
8.9876475733667327
 20
5.5429612735493441
 30
0.0
 11
9.0263987087191069
 21
5.5653316298661064
 31
0.0
  0
LINE
  5
4E
  8
0
 10
8.9288987088446667
 20
5.5653365780211219
 30
0.0
 11
8.9676475733924885
 21
5.5429622885555023
 31
0.0
  0
LINE
  5
4F
  8
0
 10
8.9626495019106258
 20
5.5809625422581064
 30
0.0
 11
8.9676495019041873
 21
5.5809622885065648
 31
0.0
  0
ARC
  5
50
  8
0
 10
8.9776435133549803
 20
5.4629617811554469
 30
0.0
 40
0.01
 50
179.99709222154891
 51
359.99709222154888
  0
LINE
  5
51
  8
0
 10
8.9876435133421033
 20
5.4629612736523683
 30
0.0
 11
9.0263946486944775
 21
5.4853316299691288
 31
0.0
  0
LINE
  5
52
  8
0
 10
8.9288946488200374
 20
5.4853365781241461
 30
0.0
 11
8.9676435133678591
 21
5.4629622886585247
 31
0.0
  0
ENDSEC
  0
EOF
