  0
SECTION
  2
HEADER
  9
$ACADVER
  1
AC1015
  9
$ACADMAINTVER
 70
    14
  9
$DWGCODEPAGE
  3
ANSI_1252
  9
$INSBASE
 10
0.0
 20
0.0
 30
0.0
  9
$EXTMIN
 10
0.2685761589403972
 20
0.5000000000000001
 30
0.0
  9
$EXTMAX
 10
8.268576158940396
 20
10.49999999999999
 30
0.0
  9
$LIMMIN
 10
0.0
 20
0.0
  9
$LIMMAX
 10
0.0
 20
0.0
  9
$ORTHOMODE
 70
     0
  9
$REGENMODE
 70
     1
  9
$FILLMODE
 70
     1
  9
$QTEXTMODE
 70
     0
  9
$MIRRTEXT
 70
     1
  9
$LTSCALE
 40
1.0
  9
$ATTMODE
 70
     1
  9
$TEXTSIZE
 40
0.0
  9
$TRACEWID
 40
0.05
  9
$TEXTSTYLE
  7
STANDARD
  9
$CLAYER
  8
0
  9
$CELTYPE
  6
CONTINUOUS
  9
$CECOLOR
 62
   256
  9
$CELTSCALE
 40
1.0
  9
$DISPSILH
 70
     0
  9
$DIMSCALE
 40
1.0
  9
$DIMASZ
 40
0.0
  9
$DIMEXO
 40
0.0
  9
$DIMDLI
 40
0.38
  9
$DIMRND
 40
0.0
  9
$DIMDLE
 40
0.0
  9
$DIMEXE
 40
0.18
  9
$DIMTP
 40
0.0
  9
$DIMTM
 40
0.0
  9
$DIMTXT
 40
0.1377952755905512
  9
$DIMCEN
 40
0.09
  9
$DIMTSZ
 40
0.0
  9
$DIMTOL
 70
     0
  9
$DIMLIM
 70
     0
  9
$DIMTIH
 70
     1
  9
$DIMTOH
 70
     1
  9
$DIMSE1
 70
     0
  9
$DIMSE2
 70
     0
  9
$DIMTAD
 70
     0
  9
$DIMZIN
 70
     0
  9
$DIMBLK
  1

  9
$DIMASO
 70
     1
  9
$DIMSHO
 70
     1
  9
$DIMPOST
  1

  9
$DIMAPOST
  1

  9
$DIMALT
 70
     0
  9
$DIMALTD
 70
     2
  9
$DIMALTF
 40
25.4
  9
$DIMLFAC
 40
1.0
  9
$DIMTOFL
 70
     0
  9
$DIMTVP
 40
0.0
  9
$DIMTIX
 70
     0
  9
$DIMSOXD
 70
     0
  9
$DIMSAH
 70
     0
  9
$DIMBLK1
  1

  9
$DIMBLK2
  1

  9
$DIMSTYLE
  2
STANDARD
  9
$DIMCLRD
 70
     0
  9
$DIMCLRE
 70
     0
  9
$DIMCLRT
 70
     0
  9
$DIMTFAC
 40
1.0
  9
$DIMGAP
 40
0.0
  9
$DIMJUST
 70
     0
  9
$DIMSD1
 70
     0
  9
$DIMSD2
 70
     0
  9
$DIMTOLJ
 70
     1
  9
$DIMTZIN
 70
     0
  9
$DIMALTZ
 70
     0
  9
$DIMALTTZ
 70
     0
  9
$DIMUPT
 70
     0
  9
$DIMDEC
 70
     4
  9
$DIMTDEC
 70
     4
  9
$DIMALTU
 70
     2
  9
$DIMALTTD
 70
     2
  9
$DIMTXSTY
  7
STANDARD
  9
$DIMAUNIT
 70
     0
  9
$DIMADEC
 70
     0
  9
$DIMALTRND
 40
0.0
  9
$DIMAZIN
 70
     0
  9
$DIMDSEP
 70
    46
  9
$DIMATFIT
 70
     3
  9
$DIMFRAC
 70
     0
  9
$DIMLDRBLK
  1

  9
$DIMLUNIT
 70
     2
  9
$DIMLWD
 70
    -2
  9
$DIMLWE
 70
    -2
  9
$DIMTMOVE
 70
     0
  9
$LUNITS
 70
     2
  9
$LUPREC
 70
     3
  9
$SKETCHINC
 40
0.1
  9
$FILLETRAD
 40
0.0
  9
$AUNITS
 70
     0
  9
$AUPREC
 70
     2
  9
$MENU
  1
acad
  9
$ELEVATION
 40
0.0
  9
$PELEVATION
 40
0.0
  9
$THICKNESS
 40
0.0
  9
$LIMCHECK
 70
     0
  9
$CHAMFERA
 40
0.0
  9
$CHAMFERB
 40
0.0
  9
$CHAMFERC
 40
0.0
  9
$CHAMFERD
 40
0.0
  9
$SKPOLY
 70
     0
  9
$TDCREATE
 40
2444971.833333333
  9
$TDUCREATE
 40
2444972.000000000
  9
$TDUPDATE
 40
2453476.422336689
  9
$TDUUPDATE
 40
2453476.589003356
  9
$TDINDWG
 40
0.0011500000
  9
$TDUSRTIMER
 40
0.0011500000
  9
$USRTIMER
 70
     1
  9
$ANGBASE
 50
0.0
  9
$ANGDIR
 70
     0
  9
$PDMODE
 70
     0
  9
$PDSIZE
 40
-1.0
  9
$PLINEWID
 40
0.0
  9
$SPLFRAME
 70
     0
  9
$SPLINETYPE
 70
     6
  9
$SPLINESEGS
 70
     8
  9
$HANDSEED
  5
61F
  9
$SURFTAB1
 70
     6
  9
$SURFTAB2
 70
     6
  9
$SURFTYPE
 70
     6
  9
$SURFU
 70
     6
  9
$SURFV
 70
     6
  9
$UCSBASE
  2

  9
$UCSNAME
  2

  9
$UCSORG
 10
0.0
 20
0.0
 30
0.0
  9
$UCSXDIR
 10
1.0
 20
0.0
 30
0.0
  9
$UCSYDIR
 10
0.0
 20
1.0
 30
0.0
  9
$UCSORTHOREF
  2

  9
$UCSORTHOVIEW
 70
     0
  9
$UCSORGTOP
 10
0.0
 20
0.0
 30
0.0
  9
$UCSORGBOTTOM
 10
0.0
 20
0.0
 30
0.0
  9
$UCSORGLEFT
 10
0.0
 20
0.0
 30
0.0
  9
$UCSORGRIGHT
 10
0.0
 20
0.0
 30
0.0
  9
$UCSORGFRONT
 10
0.0
 20
0.0
 30
0.0
  9
$UCSORGBACK
 10
0.0
 20
0.0
 30
0.0
  9
$PUCSBASE
  2

  9
$PUCSNAME
  2

  9
$PUCSORG
 10
0.0
 20
0.0
 30
0.0
  9
$PUCSXDIR
 10
1.0
 20
0.0
 30
0.0
  9
$PUCSYDIR
 10
0.0
 20
1.0
 30
0.0
  9
$PUCSORTHOREF
  2

  9
$PUCSORTHOVIEW
 70
     0
  9
$PUCSORGTOP
 10
0.0
 20
0.0
 30
0.0
  9
$PUCSORGBOTTOM
 10
0.0
 20
0.0
 30
0.0
  9
$PUCSORGLEFT
 10
0.0
 20
0.0
 30
0.0
  9
$PUCSORGRIGHT
 10
0.0
 20
0.0
 30
0.0
  9
$PUCSORGFRONT
 10
0.0
 20
0.0
 30
0.0
  9
$PUCSORGBACK
 10
0.0
 20
0.0
 30
0.0
  9
$USERI1
 70
     0
  9
$USERI2
 70
     0
  9
$USERI3
 70
     0
  9
$USERI4
 70
     0
  9
$USERI5
 70
     0
  9
$USERR1
 40
0.0
  9
$USERR2
 40
0.0
  9
$USERR3
 40
0.0
  9
$USERR4
 40
0.0
  9
$USERR5
 40
0.0
  9
$WORLDVIEW
 70
     1
  9
$SHADEDGE
 70
     3
  9
$SHADEDIF
 70
    70
  9
$TILEMODE
 70
     1
  9
$MAXACTVP
 70
    16
  9
$PINSBASE
 10
0.0
 20
0.0
 30
0.0
  9
$PLIMCHECK
 70
     0
  9
$PEXTMIN
 10
1.000000000000000E+20
 20
1.000000000000000E+20
 30
1.000000000000000E+20
  9
$PEXTMAX
 10
-1.000000000000000E+20
 20
-1.000000000000000E+20
 30
-1.000000000000000E+20
  9
$PLIMMIN
 10
0.0
 20
0.0
  9
$PLIMMAX
 10
12.0
 20
9.0
  9
$UNITMODE
 70
     0
  9
$VISRETAIN
 70
     0
  9
$PLINEGEN
 70
     1
  9
$PSLTSCALE
 70
     1
  9
$TREEDEPTH
 70
  3020
  9
$CMLSTYLE
  2
STANDARD
  9
$CMLJUST
 70
     0
  9
$CMLSCALE
 40
1.0
  9
$PROXYGRAPHICS
 70
     1
  9
$MEASUREMENT
 70
     0
  9
$CELWEIGHT
370
    -1
  9
$ENDCAPS
280
     0
  9
$JOINSTYLE
280
     0
  9
$LWDISPLAY
290
     0
  9
$INSUNITS
 70
     0
  9
$HYPERLINKBASE
  1

  9
$STYLESHEET
  1

  9
$XEDIT
290
     1
  9
$CEPSNTYPE
380
     0
  9
$PSTYLEMODE
290
     1
  9
$FINGERPRINTGUID
  2
{D80E63FA-F532-43E5-A035-77EFB7D55A18}
  9
$VERSIONGUID
  2
{71B4C7B1-152D-49F1-8E37-166DDF16E1FA}
  9
$EXTNAMES
290
     1
  9
$PSVPSCALE
 40
0.0
  9
$OLESTARTUP
290
     0
  0
ENDSEC
  0
SECTION
  2
CLASSES
  0
CLASS
  1
LWPOLYLINE
  2
AcDbPolyline
  3
AutoCAD 2000
 90
    32768
280
     0
281
     1
  0
CLASS
  1
IMAGE
  2
AcDbRasterImage
  3
ISM
 90
    32895
280
     0
281
     1
  0
CLASS
  1
OLE2FRAME
  2
AcDbOle2Frame
  3
AutoCAD 2000
 90
    32768
280
     0
281
     1
  0
CLASS
  1
HATCH
  2
AcDbHatch
  3
AutoCAD 2000
 90
    32768
280
     0
281
     1
  0
CLASS
  1
DICTIONARYVAR
  2
AcDbDictionaryVar
  3
AutoCAD 2000
 90
        0
280
     0
281
     0
  0
CLASS
  1
RASTERVARIABLES
  2
AcDbRasterVariables
  3
ISM
 90
    32768
280
     0
281
     0
  0
CLASS
  1
IMAGEDEF
  2
AcDbRasterImageDef
  3
ISM
 90
    32768
280
     0
281
     0
  0
CLASS
  1
IMAGEDEF_REACTOR
  2
AcDbRasterImageDefReactor
  3
ISM
 90
    32769
280
     0
281
     0
  0
CLASS
  1
IDBUFFER
  2
AcDbIdBuffer
  3
AutoCAD 2000
 90
    32768
280
     0
281
     0
  0
CLASS
  1
SPATIAL_FILTER
  2
AcDbSpatialFilter
  3
AutoCAD 2000
 90
    32768
280
     0
281
     0
  0
CLASS
  1
XRECORD
  2
AcDbXrecord
  3
AutoCAD 2000
 90
    32768
280
     0
281
     0
  0
CLASS
  1
SORTENTSTABLE
  2
AcDbSortentsTable
  3
AutoCAD 2000
 90
    32768
280
     0
281
     0
  0
CLASS
  1
LAYER_INDEX
  2
AcDbLayerIndex
  3
AutoCAD 2000
 90
    32768
280
     0
281
     0
  0
CLASS
  1
SPATIAL_INDEX
  2
AcDbSpatialIndex
  3
AutoCAD 2000
 90
    32768
280
     0
281
     0
  0
CLASS
  1
OBJECT_PTR
  2
CAseDLPNTableRecord
  3
ASE-LPNTableRecord
 90
    32769
280
     0
281
     0
  0
CLASS
  1
LAYOUT
  2
AcDbLayout
  3
AutoCAD 2000
 90
        0
280
     0
281
     0
  0
CLASS
  1
PLOTSETTINGS
  2
AcDbPlotSettings
  3
AutoCAD 2000
 90
    32768
280
     0
281
     0
  0
CLASS
  1
ACDBDICTIONARYWDFLT
  2
AcDbDictionaryWithDefault
  3
AutoCAD 2000
 90
        0
280
     0
281
     0
  0
CLASS
  1
ACDBPLACEHOLDER
  2
AcDbPlaceHolder
  3
AutoCAD 2000
 90
        0
280
     0
281
     0
  0
CLASS
  1
VBA_PROJECT
  2
AcDbVbaProject
  3
acadvba
 90
    32768
280
     0
281
     0
  0
CLASS
  1
WIPEOUT
  2
AcDbWipeout
  3
WipeOut|AutoCAD Express Tool|expresstools@autodesk.com
 90
    32895
280
     0
281
     1
  0
CLASS
  1
WIPEOUTVARIABLES
  2
AcDbWipeoutVariables
  3
WipeOut|AutoCAD Express Tool|expresstools@autodesk.com
 90
    32768
280
     0
281
     0
  0
CLASS
  1
RTEXT
  2
RText
  3
RText|AutoCAD Express Tool|expresstools@autodesk.com
 90
    32768
280
     0
281
     1
  0
CLASS
  1
ARCALIGNEDTEXT
  2
AcDbArcAlignedText
  3
ATEXT|AutoCAD Express Tool|expresstools@autodesk.com
 90
    32768
280
     0
281
     1
  0
ENDSEC
  0
SECTION
  2
TABLES
  0
TABLE
  2
VPORT
  5
7
330
0
100
AcDbSymbolTable
 70
     3
  0
VPORT
  5
61E
330
7
100
AcDbSymbolTableRecord
100
AcDbViewportTableRecord
  2
*Active
 70
     0
 10
0.0
 20
0.0
 11
1.0
 21
1.0
 12
1.986330039507773
 22
2.859142787623341
 13
0.0
 23
0.0
 14
1.0
 24
1.0
 15
0.0
 25
0.0
 16
0.0
 26
0.0
 36
1.0
 17
0.0
 27
0.0
 37
0.0
 40
0.7165959367683144
 41
2.151057401812688
 42
50.0
 43
0.0
 44
0.0
 50
0.0
 51
0.0
 71
     0
 72
  2000
 73
     1
 74
     1
 75
     0
 76
     0
 77
     0
 78
     0
281
     0
 65
     1
110
0.0
120
0.0
130
0.0
111
1.0
121
0.0
131
0.0
112
0.0
122
1.0
132
0.0
 79
     0
146
0.0
  0
ENDTAB
  0
TABLE
  2
LTYPE
  5
4
330
0
100
AcDbSymbolTable
 70
     6
  0
LTYPE
  5
11
330
4
100
AcDbSymbolTableRecord
100
AcDbLinetypeTableRecord
  2
BYBLOCK
 70
     0
  3

 72
    65
 73
     0
 40
0.0
  0
LTYPE
  5
12
330
4
100
AcDbSymbolTableRecord
100
AcDbLinetypeTableRecord
  2
BYLAYER
 70
     0
  3

 72
    65
 73
     0
 40
0.0
  0
LTYPE
  5
13
330
4
100
AcDbSymbolTableRecord
100
AcDbLinetypeTableRecord
  2
CONTINUOUS
 70
     0
  3
Solid line
 72
    65
 73
     0
 40
0.0
  0
LTYPE
  5
1D
330
4
100
AcDbSymbolTableRecord
100
AcDbLinetypeTableRecord
  2
HIDDEN
 70
     0
  3
Hidden __ __ __ __ __ __ __ __ __ __ __ __ __ __
 72
    65
 73
     2
 40
0.075
 49
0.05
 74
     0
 49
-0.025
 74
     0
  0
LTYPE
  5
1E
330
4
100
AcDbSymbolTableRecord
100
AcDbLinetypeTableRecord
  2
PHANTOM
 70
     0
  3
Phantom ______  __  __  ______  __  __  ______
 72
    65
 73
     6
 40
0.5
 49
0.25
 74
     0
 49
-0.05
 74
     0
 49
0.05
 74
     0
 49
-0.05
 74
     0
 49
0.05
 74
     0
 49
-0.05
 74
     0
  0
LTYPE
  5
1F
330
4
100
AcDbSymbolTableRecord
100
AcDbLinetypeTableRecord
  2
CENTER
 70
     0
  3
Center ____ _ ____ _ ____ _ ____ _ ____ _ ____
 72
    65
 73
     4
 40
0.4
 49
0.25
 74
     0
 49
-0.05
 74
     0
 49
0.05
 74
     0
 49
-0.05
 74
     0
  0
LTYPE
  5
20
330
4
100
AcDbSymbolTableRecord
100
AcDbLinetypeTableRecord
  2
CENTERX2
 70
     0
  3
Center (2x) ________  __  ________  __  _____
 72
    65
 73
     4
 40
0.8
 49
0.5
 74
     0
 49
-0.1
 74
     0
 49
0.1
 74
     0
 49
-0.1
 74
     0
  0
LTYPE
  5
21
330
4
100
AcDbSymbolTableRecord
100
AcDbLinetypeTableRecord
  2
DOT2
 70
     0
  3
Dot (.5x) ........................................
 72
    65
 73
     2
 40
0.025
 49
0.0
 74
     0
 49
-0.025
 74
     0
  0
ENDTAB
  0
TABLE
  2
LAYER
  5
2
330
0
100
AcDbSymbolTable
 70
     2
  0
LAYER
  5
14
330
2
100
AcDbSymbolTableRecord
100
AcDbLayerTableRecord
  2
0
 70
     0
 62
     7
  6
CONTINUOUS
370
    -3
390
5CC
  0
LAYER
  5
23
330
2
100
AcDbSymbolTableRecord
100
AcDbLayerTableRecord
  2
DEFPOINTS
 70
     0
 62
     7
  6
CONTINUOUS
290
     0
370
    -3
390
5CC
  0
ENDTAB
  0
TABLE
  2
STYLE
  5
3
330
0
100
AcDbSymbolTable
 70
     2
  0
STYLE
  5
17
330
3
100
AcDbSymbolTableRecord
100
AcDbTextStyleTableRecord
  2
STANDARD
 70
     0
 40
0.0
 41
1.0
 50
0.0
 71
     0
 42
0.0
  3
txt
  4

  0
STYLE
  5
1E2
330
3
100
AcDbSymbolTableRecord
100
AcDbTextStyleTableRecord
  2
SLDTEXTSTYLE0
 70
     0
 40
0.0
 41
0.75
 50
0.0
 71
     0
 42
0.0
  3
TXT
  4

  0
ENDTAB
  0
TABLE
  2
VIEW
  5
5
330
0
100
AcDbSymbolTable
 70
     0
  0
ENDTAB
  0
TABLE
  2
UCS
  5
6
330
0
100
AcDbSymbolTable
 70
     0
  0
ENDTAB
  0
TABLE
  2
APPID
  5
8
330
0
100
AcDbSymbolTable
 70
     2
  0
APPID
  5
16
330
8
100
AcDbSymbolTableRecord
100
AcDbRegAppTableRecord
  2
ACAD
 70
     0
  0
APPID
  5
619
330
8
100
AcDbSymbolTableRecord
100
AcDbRegAppTableRecord
  2
DCO15
 70
     0
  0
ENDTAB
  0
TABLE
  2
DIMSTYLE
  5
9
330
0
100
AcDbSymbolTable
 70
     5
100
AcDbDimStyleTable
 71
     0
  0
DIMSTYLE
105
18
330
9
100
AcDbSymbolTableRecord
100
AcDbDimStyleTableRecord
  2
STANDARD
 70
     0
340
17
  0
DIMSTYLE
105
54A
330
9
100
AcDbSymbolTableRecord
100
AcDbDimStyleTableRecord
  2
SLDDIMSTYLE0
 70
     0
 41
0.156
 44
0.125
 78
     4
140
0.1377952755905512
144
0.1
147
0.0344488188976378
173
     1
176
     7
177
     7
178
     7
271
     3
284
    12
340
1E2
  0
DIMSTYLE
105
565
330
9
100
AcDbSymbolTableRecord
100
AcDbDimStyleTableRecord
  2
SLDDIMSTYLE1
 70
     0
 41
0.156
 44
0.125
 78
    12
140
0.1377952755905512
144
0.1
147
0.0344488188976378
173
     1
176
     7
177
     7
178
     7
271
     3
284
    12
340
1E2
  0
DIMSTYLE
105
580
330
9
100
AcDbSymbolTableRecord
100
AcDbDimStyleTableRecord
  2
SLDDIMSTYLE2
 70
     0
 41
0.052
 44
0.0
140
0.156
147
0.039
173
     1
271
     0
272
     0
340
17
341
578
343
578
344
578
  0
DIMSTYLE
105
58F
330
9
100
AcDbSymbolTableRecord
100
AcDbDimStyleTableRecord
  2
SLDDIMSTYLE3
 70
     0
 41
0.156
 44
0.0
140
0.156
147
0.039
173
     1
271
     0
272
     0
340
17
  0
ENDTAB
  0
TABLE
  2
BLOCK_RECORD
  5
1
330
0
100
AcDbSymbolTable
 70
    20
  0
BLOCK_RECORD
  5
A
330
1
100
AcDbSymbolTableRecord
100
AcDbBlockTableRecord
  2
*MODEL_SPACE
340
5CF
  0
BLOCK_RECORD
  5
B
330
1
100
AcDbSymbolTableRecord
100
AcDbBlockTableRecord
  2
*PAPER_SPACE
340
5D0
  0
BLOCK_RECORD
  5
1EC
330
1
100
AcDbSymbolTableRecord
100
AcDbBlockTableRecord
  2
NOTE9
340
0
102
{BLKREFS
331
1EF
102
}
  0
BLOCK_RECORD
  5
1F0
330
1
100
AcDbSymbolTableRecord
100
AcDbBlockTableRecord
  2
NOTE10
340
0
102
{BLKREFS
331
1F3
102
}
  0
BLOCK_RECORD
  5
1F4
330
1
100
AcDbSymbolTableRecord
100
AcDbBlockTableRecord
  2
NOTE11
340
0
102
{BLKREFS
331
1F7
102
}
  0
BLOCK_RECORD
  5
208
330
1
100
AcDbSymbolTableRecord
100
AcDbBlockTableRecord
  2
NOTE28
340
0
102
{BLKREFS
331
20B
102
}
  0
BLOCK_RECORD
  5
213
330
1
100
AcDbSymbolTableRecord
100
AcDbBlockTableRecord
  2
NOTE36
340
0
102
{BLKREFS
331
216
102
}
  0
BLOCK_RECORD
  5
21D
330
1
100
AcDbSymbolTableRecord
100
AcDbBlockTableRecord
  2
NOTE43
340
0
102
{BLKREFS
331
220
102
}
  0
BLOCK_RECORD
  5
221
330
1
100
AcDbSymbolTableRecord
100
AcDbBlockTableRecord
  2
NOTE44
340
0
102
{BLKREFS
331
224
102
}
  0
BLOCK_RECORD
  5
225
330
1
100
AcDbSymbolTableRecord
100
AcDbBlockTableRecord
  2
NOTE45
340
0
102
{BLKREFS
331
228
102
}
  0
BLOCK_RECORD
  5
22B
330
1
100
AcDbSymbolTableRecord
100
AcDbBlockTableRecord
  2
NOTE48
340
0
102
{BLKREFS
331
22E
102
}
  0
BLOCK_RECORD
  5
22F
330
1
100
AcDbSymbolTableRecord
100
AcDbBlockTableRecord
  2
NOTE49
340
0
102
{BLKREFS
331
232
102
}
  0
BLOCK_RECORD
  5
233
330
1
100
AcDbSymbolTableRecord
100
AcDbBlockTableRecord
  2
NOTE50
340
0
102
{BLKREFS
331
236
102
}
  0
BLOCK_RECORD
  5
237
330
1
100
AcDbSymbolTableRecord
100
AcDbBlockTableRecord
  2
NOTE51
340
0
102
{BLKREFS
331
23A
102
}
  0
BLOCK_RECORD
  5
541
330
1
100
AcDbSymbolTableRecord
100
AcDbBlockTableRecord
  2
*D12
340
0
  0
BLOCK_RECORD
  5
54F
330
1
100
AcDbSymbolTableRecord
100
AcDbBlockTableRecord
  2
*D13
340
0
  0
BLOCK_RECORD
  5
55C
330
1
100
AcDbSymbolTableRecord
100
AcDbBlockTableRecord
  2
*D14
340
0
  0
BLOCK_RECORD
  5
56A
330
1
100
AcDbSymbolTableRecord
100
AcDbBlockTableRecord
  2
*D15
340
0
  0
BLOCK_RECORD
  5
578
330
1
100
AcDbSymbolTableRecord
100
AcDbBlockTableRecord
  2
_DOT
340
0
  0
BLOCK_RECORD
  5
581
330
1
100
AcDbSymbolTableRecord
100
AcDbBlockTableRecord
  2
NOTE69
340
0
102
{BLKREFS
331
586
102
}
  0
BLOCK_RECORD
  5
588
330
1
100
AcDbSymbolTableRecord
100
AcDbBlockTableRecord
  2
NOTE70
340
0
102
{BLKREFS
331
58D
102
}
  0
BLOCK_RECORD
  5
590
330
1
100
AcDbSymbolTableRecord
100
AcDbBlockTableRecord
  2
NOTE71
340
0
102
{BLKREFS
331
595
102
}
  0
ENDTAB
  0
ENDSEC
  0
SECTION
  2
BLOCKS
  0
BLOCK
  5
D
330
A
100
AcDbEntity
  8
0
100
AcDbBlockBegin
  2
*MODEL_SPACE
 70
     0
 10
0.0
 20
0.0
 30
0.0
  3
*MODEL_SPACE
  1

  0
ENDBLK
  5
E
330
A
100
AcDbEntity
  8
0
100
AcDbBlockEnd
  0
BLOCK
  5
F
330
B
100
AcDbEntity
 67
     1
  8
0
100
AcDbBlockBegin
  2
*PAPER_SPACE
 70
     0
 10
0.0
 20
0.0
 30
0.0
  3
*PAPER_SPACE
  1

  0
ENDBLK
  5
10
330
B
100
AcDbEntity
 67
     1
  8
0
100
AcDbBlockEnd
  0
BLOCK
  5
1ED
330
1EC
100
AcDbEntity
  8
0
 62
     0
100
AcDbBlockBegin
  2
NOTE9
 70
     0
 10
0.0
 20
0.0
 30
0.0
  3
NOTE9
  1

  0
ENDBLK
  5
1EE
330
1EC
100
AcDbEntity
  8
0
100
AcDbBlockEnd
  0
BLOCK
  5
1F1
330
1F0
100
AcDbEntity
  8
0
 62
     0
100
AcDbBlockBegin
  2
NOTE10
 70
     0
 10
0.0
 20
0.0
 30
0.0
  3
NOTE10
  1

  0
ENDBLK
  5
1F2
330
1F0
100
AcDbEntity
  8
0
100
AcDbBlockEnd
  0
BLOCK
  5
1F5
330
1F4
100
AcDbEntity
  8
0
 62
     0
100
AcDbBlockBegin
  2
NOTE11
 70
     0
 10
0.0
 20
0.0
 30
0.0
  3
NOTE11
  1

  0
ENDBLK
  5
1F6
330
1F4
100
AcDbEntity
  8
0
100
AcDbBlockEnd
  0
BLOCK
  5
209
330
208
100
AcDbEntity
  8
0
 62
     0
100
AcDbBlockBegin
  2
NOTE28
 70
     0
 10
0.0
 20
0.0
 30
0.0
  3
NOTE28
  1

  0
ENDBLK
  5
20A
330
208
100
AcDbEntity
  8
0
100
AcDbBlockEnd
  0
BLOCK
  5
214
330
213
100
AcDbEntity
  8
0
 62
     0
100
AcDbBlockBegin
  2
NOTE36
 70
     0
 10
0.0
 20
0.0
 30
0.0
  3
NOTE36
  1

  0
ENDBLK
  5
215
330
213
100
AcDbEntity
  8
0
100
AcDbBlockEnd
  0
BLOCK
  5
21E
330
21D
100
AcDbEntity
  8
0
 62
     0
100
AcDbBlockBegin
  2
NOTE43
 70
     0
 10
0.0
 20
0.0
 30
0.0
  3
NOTE43
  1

  0
ENDBLK
  5
21F
330
21D
100
AcDbEntity
  8
0
100
AcDbBlockEnd
  0
BLOCK
  5
222
330
221
100
AcDbEntity
  8
0
 62
     0
100
AcDbBlockBegin
  2
NOTE44
 70
     0
 10
0.0
 20
0.0
 30
0.0
  3
NOTE44
  1

  0
ENDBLK
  5
223
330
221
100
AcDbEntity
  8
0
100
AcDbBlockEnd
  0
BLOCK
  5
226
330
225
100
AcDbEntity
  8
0
 62
     0
100
AcDbBlockBegin
  2
NOTE45
 70
     0
 10
0.0
 20
0.0
 30
0.0
  3
NOTE45
  1

  0
ENDBLK
  5
227
330
225
100
AcDbEntity
  8
0
100
AcDbBlockEnd
  0
BLOCK
  5
22C
330
22B
100
AcDbEntity
  8
0
 62
     0
100
AcDbBlockBegin
  2
NOTE48
 70
     0
 10
0.0
 20
0.0
 30
0.0
  3
NOTE48
  1

  0
ENDBLK
  5
22D
330
22B
100
AcDbEntity
  8
0
100
AcDbBlockEnd
  0
BLOCK
  5
230
330
22F
100
AcDbEntity
  8
0
 62
     0
100
AcDbBlockBegin
  2
NOTE49
 70
     0
 10
0.0
 20
0.0
 30
0.0
  3
NOTE49
  1

  0
ENDBLK
  5
231
330
22F
100
AcDbEntity
  8
0
100
AcDbBlockEnd
  0
BLOCK
  5
234
330
233
100
AcDbEntity
  8
0
 62
     0
100
AcDbBlockBegin
  2
NOTE50
 70
     0
 10
0.0
 20
0.0
 30
0.0
  3
NOTE50
  1

  0
ENDBLK
  5
235
330
233
100
AcDbEntity
  8
0
100
AcDbBlockEnd
  0
BLOCK
  5
238
330
237
100
AcDbEntity
  8
0
 62
     0
100
AcDbBlockBegin
  2
NOTE51
 70
     0
 10
0.0
 20
0.0
 30
0.0
  3
NOTE51
  1

  0
ENDBLK
  5
239
330
237
100
AcDbEntity
  8
0
100
AcDbBlockEnd
  0
BLOCK
  5
542
330
541
100
AcDbEntity
  8
0
 62
     7
100
AcDbBlockBegin
  2
*D12
 70
     1
 10
0.0
 20
0.0
 30
0.0
  3
*D12
  1

  0
MTEXT
  5
543
330
541
100
AcDbEntity
  8
0
 62
     7
100
AcDbMText
 10
4.108876655527839
 20
8.830442771953448
 30
0.0
 40
0.1377952755905512
 41
0.0
 71
     1
 72
     5
  1
.250
  7
SLDTEXTSTYLE0
 73
     1
 44
1.0
  0
LINE
  5
544
330
541
100
AcDbEntity
  8
0
 62
     7
100
AcDbLine
 10
3.03620073633308
 20
7.328974800634796
 30
0.0
 11
3.03620073633308
 21
8.887619783746989
 31
0.0
  0
LINE
  5
545
330
541
100
AcDbEntity
  8
0
 62
     7
100
AcDbLine
 10
5.536200736333079
 20
7.328974800634796
 30
0.0
 11
5.536200736333079
 21
8.887619783746989
 31
0.0
  0
LINE
  5
546
330
541
100
AcDbEntity
  8
0
 62
     7
100
AcDbLine
 10
3.03620073633308
 20
8.762619783746989
 30
0.0
 11
4.046376655527838
 21
8.762619783746991
 31
0.0
  0
LINE
  5
547
330
541
100
AcDbEntity
  8
0
 62
     7
100
AcDbLine
 10
5.536200736333079
 20
8.762619783746989
 30
0.0
 11
4.527528934348215
 21
8.762619783746989
 31
0.0
  0
SOLID
  5
548
330
541
100
AcDbEntity
  8
0
 62
     7
100
AcDbTrace
 10
3.03620073633308
 20
8.762619783746989
 30
0.0
 11
3.19220073633308
 21
8.73661978374699
 31
0.0
 12
3.19220073633308
 22
8.788619783746989
 32
0.0
 13
3.19220073633308
 23
8.788619783746989
 33
0.0
  0
SOLID
  5
549
330
541
100
AcDbEntity
  8
0
 62
     7
100
AcDbTrace
 10
5.536200736333079
 20
8.762619783746989
 30
0.0
 11
5.38020073633308
 21
8.788619783746989
 31
0.0
 12
5.38020073633308
 22
8.73661978374699
 32
0.0
 13
5.38020073633308
 23
8.73661978374699
 33
0.0
  0
POINT
  5
54B
330
541
100
AcDbEntity
  8
DEFPOINTS
 62
     7
100
AcDbPoint
 10
3.03620073633308
 20
7.278974800634796
 30
0.0
  0
POINT
  5
54C
330
541
100
AcDbEntity
  8
DEFPOINTS
 62
     7
100
AcDbPoint
 10
5.536200736333079
 20
7.278974800634796
 30
0.0
  0
ENDBLK
  5
54D
330
541
100
AcDbEntity
  8
0
 62
     7
100
AcDbBlockEnd
  0
BLOCK
  5
550
330
54F
100
AcDbEntity
  8
0
 62
     7
100
AcDbBlockBegin
  2
*D13
 70
     1
 10
0.0
 20
0.0
 30
0.0
  3
*D13
  1

  0
MTEXT
  5
551
330
54F
100
AcDbEntity
  8
0
 62
     7
100
AcDbMText
 10
7.361449081135598
 20
6.632271761916643
 30
0.0
 40
0.1377952755905512
 41
0.0
 71
     1
 72
     5
  1
.300
  7
SLDTEXTSTYLE0
 73
     1
 44
1.0
  0
LINE
  5
552
330
54F
100
AcDbEntity
  8
0
 62
     7
100
AcDbLine
 10
4.336200736333079
 20
8.528974800634795
 30
0.0
 11
7.664525220545785
 21
8.528974800634797
 31
0.0
  0
LINE
  5
553
330
54F
100
AcDbEntity
  8
0
 62
     7
100
AcDbLine
 10
5.43620073633308
 20
5.528974800634796
 30
0.0
 11
7.664525220545786
 21
5.528974800634796
 31
0.0
  0
LINE
  5
554
330
54F
100
AcDbEntity
  8
0
 62
     7
100
AcDbLine
 10
7.539525220545784
 20
8.528974800634797
 30
0.0
 11
7.539525220545786
 21
6.673791132959514
 31
0.0
  0
LINE
  5
555
330
54F
100
AcDbEntity
  8
0
 62
     7
100
AcDbLine
 10
7.539525220545786
 20
5.528974800634796
 30
0.0
 11
7.539525220545786
 21
6.455106414460854
 31
0.0
  0
SOLID
  5
556
330
54F
100
AcDbEntity
  8
0
 62
     7
100
AcDbTrace
 10
7.539525220545784
 20
8.528974800634797
 30
0.0
 11
7.513525220545784
 21
8.372974800634796
 31
0.0
 12
7.565525220545784
 22
8.372974800634796
 32
0.0
 13
7.565525220545784
 23
8.372974800634796
 33
0.0
  0
SOLID
  5
557
330
54F
100
AcDbEntity
  8
0
 62
     7
100
AcDbTrace
 10
7.539525220545786
 20
5.528974800634796
 30
0.0
 11
7.565525220545786
 21
5.684974800634796
 31
0.0
 12
7.513525220545786
 22
5.684974800634796
 32
0.0
 13
7.513525220545786
 23
5.684974800634796
 33
0.0
  0
POINT
  5
558
330
54F
100
AcDbEntity
  8
DEFPOINTS
 62
     7
100
AcDbPoint
 10
4.286200736333079
 20
8.528974800634795
 30
0.0
  0
POINT
  5
559
330
54F
100
AcDbEntity
  8
DEFPOINTS
 62
     7
100
AcDbPoint
 10
5.38620073633308
 20
5.528974800634796
 30
0.0
  0
ENDBLK
  5
55A
330
54F
100
AcDbEntity
  8
0
 62
     7
100
AcDbBlockEnd
  0
BLOCK
  5
55D
330
55C
100
AcDbEntity
  8
0
 62
     7
100
AcDbBlockBegin
  2
*D14
 70
     1
 10
0.0
 20
0.0
 30
0.0
  3
*D14
  1

  0
MTEXT
  5
55E
330
55C
100
AcDbEntity
  8
0
 62
     7
100
AcDbMText
 10
1.866445722908876
 20
6.283212514537952
 30
0.0
 40
0.1377952755905512
 41
0.0
 71
     1
 72
     5
  1
.545
  7
SLDTEXTSTYLE0
 73
     1
 44
1.0
  0
LINE
  5
55F
330
55C
100
AcDbEntity
  8
0
 62
     7
100
AcDbLine
 10
4.23620073633308
 20
8.528974800634795
 30
0.0
 11
1.919521862319063
 21
8.528974800634795
 31
0.0
  0
LINE
  5
560
330
55C
100
AcDbEntity
  8
0
 62
     7
100
AcDbLine
 10
4.23620073633308
 20
3.078974800634795
 30
0.0
 11
1.919521862319064
 21
3.078974800634795
 31
0.0
  0
LINE
  5
561
330
55C
100
AcDbEntity
  8
0
 62
     7
100
AcDbLine
 10
2.044521862319063
 20
8.528974800634795
 30
0.0
 11
2.044521862319063
 21
6.324731885580824
 31
0.0
  0
LINE
  5
562
330
55C
100
AcDbEntity
  8
0
 62
     7
100
AcDbLine
 10
2.044521862319064
 20
3.078974800634795
 30
0.0
 11
2.044521862319063
 21
6.106047167082164
 31
0.0
  0
SOLID
  5
563
330
55C
100
AcDbEntity
  8
0
 62
     7
100
AcDbTrace
 10
2.044521862319063
 20
8.528974800634795
 30
0.0
 11
2.018521862319063
 21
8.372974800634795
 31
0.0
 12
2.070521862319063
 22
8.372974800634795
 32
0.0
 13
2.070521862319063
 23
8.372974800634795
 33
0.0
  0
SOLID
  5
564
330
55C
100
AcDbEntity
  8
0
 62
     7
100
AcDbTrace
 10
2.044521862319064
 20
3.078974800634795
 30
0.0
 11
2.070521862319063
 21
3.234974800634795
 31
0.0
 12
2.018521862319064
 22
3.234974800634795
 32
0.0
 13
2.018521862319064
 23
3.234974800634795
 33
0.0
  0
POINT
  5
566
330
55C
100
AcDbEntity
  8
DEFPOINTS
 62
     7
100
AcDbPoint
 10
4.286200736333079
 20
8.528974800634795
 30
0.0
  0
POINT
  5
567
330
55C
100
AcDbEntity
  8
DEFPOINTS
 62
     7
100
AcDbPoint
 10
4.28620073633308
 20
3.078974800634795
 30
0.0
  0
ENDBLK
  5
568
330
55C
100
AcDbEntity
  8
0
 62
     7
100
AcDbBlockEnd
  0
BLOCK
  5
56B
330
56A
100
AcDbEntity
  8
0
 62
     7
100
AcDbBlockBegin
  2
*D15
 70
     1
 10
0.0
 20
0.0
 30
0.0
  3
*D15
  1

  0
MTEXT
  5
56C
330
56A
100
AcDbEntity
  8
0
 62
     7
100
AcDbMText
 10
4.109705718829271
 20
2.8575161403693
 30
0.0
 40
0.1377952755905512
 41
0.0
 71
     1
 72
     5
  1
.110
  7
SLDTEXTSTYLE0
 73
     1
 44
1.0
  0
LINE
  5
56D
330
56A
100
AcDbEntity
  8
0
 62
     7
100
AcDbLine
 10
3.736200736333079
 20
3.510951205418834
 30
0.0
 11
3.736200736333079
 21
2.664693152162842
 31
0.0
  0
LINE
  5
56E
330
56A
100
AcDbEntity
  8
0
 62
     7
100
AcDbLine
 10
4.836200736333078
 20
3.510951205418834
 30
0.0
 11
4.836200736333078
 21
2.664693152162842
 31
0.0
  0
LINE
  5
56F
330
56A
100
AcDbEntity
  8
0
 62
     7
100
AcDbLine
 10
3.736200736333079
 20
2.789693152162842
 30
0.0
 11
4.04720571882927
 21
2.789693152162842
 31
0.0
  0
LINE
  5
570
330
56A
100
AcDbEntity
  8
0
 62
     7
100
AcDbLine
 10
4.836200736333078
 20
2.789693152162842
 30
0.0
 11
4.528357997649646
 21
2.789693152162842
 31
0.0
  0
SOLID
  5
571
330
56A
100
AcDbEntity
  8
0
 62
     7
100
AcDbTrace
 10
3.736200736333079
 20
2.789693152162842
 30
0.0
 11
3.892200736333079
 21
2.763693152162842
 31
0.0
 12
3.892200736333079
 22
2.815693152162842
 32
0.0
 13
3.892200736333079
 23
2.815693152162842
 33
0.0
  0
SOLID
  5
572
330
56A
100
AcDbEntity
  8
0
 62
     7
100
AcDbTrace
 10
4.836200736333078
 20
2.789693152162842
 30
0.0
 11
4.680200736333079
 21
2.815693152162842
 31
0.0
 12
4.680200736333079
 22
2.763693152162842
 32
0.0
 13
4.680200736333079
 23
2.763693152162842
 33
0.0
  0
POINT
  5
573
330
56A
100
AcDbEntity
  8
DEFPOINTS
 62
     7
100
AcDbPoint
 10
3.736200736333079
 20
3.560951205418834
 30
0.0
  0
POINT
  5
574
330
56A
100
AcDbEntity
  8
DEFPOINTS
 62
     7
100
AcDbPoint
 10
4.836200736333078
 20
3.560951205418834
 30
0.0
  0
ENDBLK
  5
575
330
56A
100
AcDbEntity
  8
0
 62
     7
100
AcDbBlockEnd
  0
BLOCK
  5
579
330
578
100
AcDbEntity
  8
0
100
AcDbBlockBegin
  2
_DOT
 70
     0
 10
0.0
 20
0.0
 30
0.0
  3
_DOT
  1

  0
LWPOLYLINE
  5
57A
330
578
100
AcDbEntity
  8
0
  6
ByBlock
 62
     0
100
AcDbPolyline
 90
        2
 70
     1
 43
0.5
 10
-0.25
 20
0.0
 42
1.0
 10
0.25
 20
0.0
 42
1.0
  0
LINE
  5
57E
330
578
100
AcDbEntity
  8
0
  6
ByBlock
 62
     0
100
AcDbLine
 10
-0.5
 20
0.0
 30
0.0
 11
-1.0
 21
0.0
 31
0.0
  0
ENDBLK
  5
57F
330
578
100
AcDbEntity
  8
0
100
AcDbBlockEnd
  0
BLOCK
  5
582
330
581
100
AcDbEntity
  8
0
 62
     0
100
AcDbBlockBegin
  2
NOTE69
 70
     0
 10
0.0
 20
0.0
 30
0.0
  3
NOTE69
  1

  0
MTEXT
  5
583
330
581
100
AcDbEntity
  8
0
 62
     7
100
AcDbMText
 10
0.1395472546484062
 20
0.1392165196763022
 30
0.0
 40
0.1377952755905512
 41
0.0
 71
     1
 72
     5
  1
1
  7
SLDTEXTSTYLE0
 73
     1
 44
1.0
  0
CIRCLE
  5
584
330
581
100
AcDbEntity
  8
0
  6
Continuous
 62
     7
100
AcDbCircle
 10
0.1862086560285823
 20
0.0657651649300065
 30
0.0
 40
0.1974809370502444
  0
ENDBLK
  5
585
330
581
100
AcDbEntity
  8
0
100
AcDbBlockEnd
  0
BLOCK
  5
589
330
588
100
AcDbEntity
  8
0
 62
     0
100
AcDbBlockBegin
  2
NOTE70
 70
     0
 10
0.0
 20
0.0
 30
0.0
  3
NOTE70
  1

  0
MTEXT
  5
58A
330
588
100
AcDbEntity
  8
0
 62
     7
100
AcDbMText
 10
0.1444189083731073
 20
0.1077628804886452
 30
0.0
 40
0.1377952755905512
 41
0.0
 71
     1
 72
     5
  1
3
  7
SLDTEXTSTYLE0
 73
     1
 44
1.0
  0
CIRCLE
  5
58B
330
588
100
AcDbEntity
  8
0
  6
Continuous
 62
     7
100
AcDbCircle
 10
0.1944773500937169
 20
0.034311525742349
 30
0.0
 40
0.1974809370502446
  0
ENDBLK
  5
58C
330
588
100
AcDbEntity
  8
0
100
AcDbBlockEnd
  0
BLOCK
  5
591
330
590
100
AcDbEntity
  8
0
 62
     0
100
AcDbBlockBegin
  2
NOTE71
 70
     0
 10
0.0
 20
0.0
 30
0.0
  3
NOTE71
  1

  0
MTEXT
  5
592
330
590
100
AcDbEntity
  8
0
 62
     7
100
AcDbMText
 10
0.144150396375908
 20
0.1087942395209341
 30
0.0
 40
0.1377952755905512
 41
0.0
 71
     1
 72
     5
  1
2
  7
SLDTEXTSTYLE0
 73
     1
 44
1.0
  0
CIRCLE
  5
593
330
590
100
AcDbEntity
  8
0
  6
Continuous
 62
     7
100
AcDbCircle
 10
0.1942925654626252
 20
0.0353428847746384
 30
0.0
 40
0.1974809370502448
  0
ENDBLK
  5
594
330
590
100
AcDbEntity
  8
0
100
AcDbBlockEnd
  0
ENDSEC
  0
SECTION
  2
ENTITIES
  0
INSERT
  5
1EF
330
A
100
AcDbEntity
  8
0
100
AcDbBlockReference
  2
NOTE9
 10
0.0
 20
0.0
 30
0.0
  0
INSERT
  5
1F3
330
A
100
AcDbEntity
  8
0
100
AcDbBlockReference
  2
NOTE10
 10
0.0
 20
0.0
 30
0.0
  0
INSERT
  5
1F7
330
A
100
AcDbEntity
  8
0
100
AcDbBlockReference
  2
NOTE11
 10
0.0
 20
0.0
 30
0.0
  0
INSERT
  5
20B
330
A
100
AcDbEntity
  8
0
100
AcDbBlockReference
  2
NOTE28
 10
0.0
 20
0.0
 30
0.0
  0
INSERT
  5
216
330
A
100
AcDbEntity
  8
0
100
AcDbBlockReference
  2
NOTE36
 10
0.0
 20
0.0
 30
0.0
  0
INSERT
  5
220
330
A
100
AcDbEntity
  8
0
100
AcDbBlockReference
  2
NOTE43
 10
0.0
 20
0.0
 30
0.0
  0
INSERT
  5
224
330
A
100
AcDbEntity
  8
0
100
AcDbBlockReference
  2
NOTE44
 10
0.0
 20
0.0
 30
0.0
  0
INSERT
  5
228
330
A
100
AcDbEntity
  8
0
100
AcDbBlockReference
  2
NOTE45
 10
0.0
 20
0.0
 30
0.0
  0
INSERT
  5
22E
330
A
100
AcDbEntity
  8
0
100
AcDbBlockReference
  2
NOTE48
 10
0.0
 20
0.0
 30
0.0
  0
INSERT
  5
232
330
A
100
AcDbEntity
  8
0
100
AcDbBlockReference
  2
NOTE49
 10
0.0
 20
0.0
 30
0.0
  0
INSERT
  5
236
330
A
100
AcDbEntity
  8
0
100
AcDbBlockReference
  2
NOTE50
 10
0.0
 20
0.0
 30
0.0
  0
INSERT
  5
23A
330
A
100
AcDbEntity
  8
0
100
AcDbBlockReference
  2
NOTE51
 10
0.0
 20
0.0
 30
0.0
  0
LINE
  5
24C
330
A
100
AcDbEntity
  8
0
  6
Continuous
 62
     7
100
AcDbLine
 10
1.902540180324258
 20
3.127176979673638
 30
0.0
 11
1.90525160162496
 21
3.130408325749787
 31
0.0
  0
LINE
  5
24D
330
A
100
AcDbEntity
  8
0
  6
Continuous
 62
     7
100
AcDbLine
 10
1.870003124715828
 20
3.088400826759854
 30
0.0
 11
1.87271454601653
 21
3.091632172836003
 31
0.0
  0
LINE
  5
24E
330
A
100
AcDbEntity
  8
0
  6
Continuous
 62
     7
100
AcDbLine
 10
1.942881022990217
 20
3.12364761325167
 30
0.0
 11
1.945592444290919
 21
3.126878959327819
 31
0.0
  0
LINE
  5
24F
330
A
100
AcDbEntity
  8
0
  6
Continuous
 62
     7
100
AcDbLine
 10
1.910343967381787
 20
3.084871460337886
 30
0.0
 11
1.913055388682489
 21
3.088102806414035
 31
0.0
  0
LINE
  5
250
330
A
100
AcDbEntity
  8
0
  6
Continuous
 62
     7
100
AcDbLine
 10
1.877806911773357
 20
3.046095307424102
 30
0.0
 11
1.880518333074059
 21
3.049326653500251
 31
0.0
  0
LINE
  5
251
330
A
100
AcDbEntity
  8
0
  6
Continuous
 62
     7
100
AcDbLine
 10
1.983221865656176
 20
3.120118246829702
 30
0.0
 11
1.985933286956878
 21
3.12334959290585
 31
0.0
  0
LINE
  5
252
330
A
100
AcDbEntity
  8
0
  6
Continuous
 62
     7
100
AcDbLine
 10
1.950684810047746
 20
3.081342093915917
 30
0.0
 11
1.953396231348449
 21
3.084573439992066
 31
0.0
  0
LINE
  5
253
330
A
100
AcDbEntity
  8
0
  6
Continuous
 62
     7
100
AcDbLine
 10
1.918147754439316
 20
3.042565941002134
 30
0.0
 11
1.920859175740019
 21
3.045797287078283
 31
0.0
  0
LINE
  5
254
330
A
100
AcDbEntity
  8
0
  6
Continuous
 62
     7
100
AcDbLine
 10
1.885610698830886
 20
3.00378978808835
 30
0.0
 11
1.888322120131589
 21
3.007021134164499
 31
0.0
  0
LINE
  5
255
330
A
100
AcDbEntity
  8
0
  6
Continuous
 62
     7
100
AcDbLine
 10
1.853073643222456
 20
2.965013635174566
 30
0.0
 11
1.855785064523159
 21
2.968244981250714
 31
0.0
  0
LINE
  5
256
330
A
100
AcDbEntity
  8
0
  6
Continuous
 62
     7
100
AcDbLine
 10
2.023562708322135
 20
3.116588880407734
 30
0.0
 11
2.026274129622838
 21
3.119820226483883
 31
0.0
  0
LINE
  5
257
330
A
100
AcDbEntity
  8
0
  6
Continuous
 62
     7
100
AcDbLine
 10
1.991025652713705
 20
3.07781272749395
 30
0.0
 11
1.993737074014407
 21
3.081044073570098
 31
0.0
  0
LINE
  5
258
330
A
100
AcDbEntity
  8
0
  6
Continuous
 62
     7
100
AcDbLine
 10
1.958488597105275
 20
3.039036574580165
 30
0.0
 11
1.961200018405977
 21
3.042267920656314
 31
0.0
  0
LINE
  5
259
330
A
100
AcDbEntity
  8
0
  6
Continuous
 62
     7
100
AcDbLine
 10
1.925951541496845
 20
3.000260421666381
 30
0.0
 11
1.928662962797547
 21
3.00349176774253
 31
0.0
  0
LINE
  5
25A
330
A
100
AcDbEntity
  8
0
  6
Continuous
 62
     7
100
AcDbLine
 10
1.893414485888415
 20
2.961484268752597
 30
0.0
 11
1.896125907189118
 21
2.964715614828746
 31
0.0
  0
LINE
  5
25B
330
A
100
AcDbEntity
  8
0
  6
Continuous
 62
     7
100
AcDbLine
 10
1.860877430279985
 20
2.922708115838813
 30
0.0
 11
1.863588851580688
 21
2.925939461914962
 31
0.0
  0
LINE
  5
25C
330
A
100
AcDbEntity
  8
0
  6
Continuous
 62
     7
100
AcDbLine
 10
1.868681217337515
 20
2.880402596503061
 30
0.0
 11
1.871392638638217
 21
2.883633942579209
 31
0.0
  0
LINE
  5
25D
330
A
100
AcDbEntity
  8
0
  6
Continuous
 62
     7
100
AcDbLine
 10
2.031366495379664
 20
3.074283361071982
 30
0.0
 11
2.034077916680367
 21
3.077514707148131
 31
0.0
  0
LINE
  5
25E
330
A
100
AcDbEntity
  8
0
  6
Continuous
 62
     7
100
AcDbLine
 10
1.998829439771234
 20
3.035507208158198
 30
0.0
 11
2.001540861071937
 21
3.038738554234346
 31
0.0
  0
LINE
  5
25F
330
A
100
AcDbEntity
  8
0
  6
Continuous
 62
     7
100
AcDbLine
 10
1.966292384162804
 20
2.996731055244413
 30
0.0
 11
1.969003805463507
 21
2.999962401320562
 31
0.0
  0
LINE
  5
260
330
A
100
AcDbEntity
  8
0
  6
Continuous
 62
     7
100
AcDbLine
 10
1.933755328554374
 20
2.957954902330629
 30
0.0
 11
1.936466749855077
 21
2.961186248406778
 31
0.0
  0
LINE
  5
261
330
A
100
AcDbEntity
  8
0
  6
Continuous
 62
     7
100
AcDbLine
 10
1.909022060003474
 20
2.876873230081093
 30
0.0
 11
1.911733481304176
 21
2.880104576157242
 31
0.0
  0
LINE
  5
262
330
A
100
AcDbEntity
  8
0
  6
Continuous
 62
     7
100
AcDbLine
 10
2.071707338045623
 20
3.070753994650013
 30
0.0
 11
2.074418759346326
 21
3.073985340726162
 31
0.0
  0
LINE
  5
263
330
A
100
AcDbEntity
  8
0
  6
Continuous
 62
     7
100
AcDbLine
 10
2.039170282437194
 20
3.031977841736229
 30
0.0
 11
2.041881703737896
 21
3.035209187812378
 31
0.0
  0
LINE
  5
264
330
A
100
AcDbEntity
  8
0
  6
Continuous
 62
     7
100
AcDbLine
 10
2.006633226828764
 20
2.993201688822445
 30
0.0
 11
2.009344648129466
 21
2.996433034898593
 31
0.0
  0
LINE
  5
265
330
A
100
AcDbEntity
  8
0
  6
Continuous
 62
     7
100
AcDbLine
 10
1.974096171220334
 20
2.954425535908661
 30
0.0
 11
1.976807592521036
 21
2.95765688198481
 31
0.0
  0
LINE
  5
266
330
A
100
AcDbEntity
  8
0
  6
Continuous
 62
     7
100
AcDbLine
 10
1.949362902669433
 20
2.873343863659124
 30
0.0
 11
1.952074323970135
 21
2.876575209735273
 31
0.0
  0
LINE
  5
267
330
A
100
AcDbEntity
  8
0
  6
Continuous
 62
     7
100
AcDbLine
 10
2.079511125103153
 20
3.028448475314261
 30
0.0
 11
2.082222546403855
 21
3.03167982139041
 31
0.0
  0
LINE
  5
268
330
A
100
AcDbEntity
  8
0
  6
Continuous
 62
     7
100
AcDbLine
 10
2.046974069494722
 20
2.989672322400477
 30
0.0
 11
2.049685490795425
 21
2.992903668476626
 31
0.0
  0
LINE
  5
269
330
A
100
AcDbEntity
  8
0
  6
Continuous
 62
     7
100
AcDbLine
 10
2.014437013886293
 20
2.950896169486693
 30
0.0
 11
2.017148435186995
 21
2.954127515562841
 31
0.0
  0
LINE
  5
26A
330
A
100
AcDbEntity
  8
0
  6
Continuous
 62
     7
100
AcDbLine
 10
1.957166689726962
 20
2.831038344323372
 30
0.0
 11
1.959878111027665
 21
2.834269690399521
 31
0.0
  0
LINE
  5
26B
330
A
100
AcDbEntity
  8
0
  6
Continuous
 62
     7
100
AcDbLine
 10
1.989703745335392
 20
2.869814497237157
 30
0.0
 11
1.992415166636094
 21
2.873045843313305
 31
0.0
  0
LINE
  5
26C
330
A
100
AcDbEntity
  8
0
  6
Continuous
 62
     7
100
AcDbLine
 10
2.087314912160682
 20
2.986142955978509
 30
0.0
 11
2.090026333461384
 21
2.989374302054658
 31
0.0
  0
LINE
  5
26D
330
A
100
AcDbEntity
  8
0
  6
Continuous
 62
     7
100
AcDbLine
 10
2.054777856552252
 20
2.947366803064725
 30
0.0
 11
2.057489277852954
 21
2.950598149140874
 31
0.0
  0
LINE
  5
26E
330
A
100
AcDbEntity
  8
0
  6
Continuous
 62
     7
100
AcDbLine
 10
1.997507532392921
 20
2.827508977901405
 30
0.0
 11
1.998525652713705
 21
2.828722326451392
 31
0.0
  0
LINE
  5
26F
330
A
100
AcDbEntity
  8
0
  6
Continuous
 62
     7
100
AcDbLine
 10
2.062581643609781
 20
2.905061283728972
 30
0.0
 11
2.065293064910484
 21
2.908292629805121
 31
0.0
  0
LINE
  5
270
330
A
100
AcDbEntity
  8
0
  6
Continuous
 62
     7
100
AcDbLine
 10
2.030044588001351
 20
2.866285130815189
 30
0.0
 11
2.032756009302054
 21
2.869516476891337
 31
0.0
  0
LINE
  5
271
330
A
100
AcDbEntity
  8
0
  6
Continuous
 62
     7
100
AcDbLine
 10
2.07038543066731
 20
2.86275576439322
 30
0.0
 11
2.073096851968013
 21
2.865987110469369
 31
0.0
  0
LINE
  5
272
330
A
100
AcDbEntity
  8
0
  6
Continuous
 62
     7
100
AcDbLine
 10
2.023562708338736
 20
3.11658888041418
 30
0.0
 11
2.026924445227684
 21
3.116294766546641
 31
0.0
  0
LINE
  5
273
330
A
100
AcDbEntity
  8
0
  6
Continuous
 62
     7
100
AcDbLine
 10
1.983221865671353
 20
3.120118246824659
 30
0.0
 11
1.986583602560302
 21
3.119824132957119
 31
0.0
  0
LINE
  5
274
330
A
100
AcDbEntity
  8
0
  6
Continuous
 62
     7
100
AcDbLine
 10
1.942881023003971
 20
3.123647613235137
 30
0.0
 11
1.94624275989292
 21
3.123353499367597
 31
0.0
  0
LINE
  5
275
330
A
100
AcDbEntity
  8
0
  6
Continuous
 62
     7
100
AcDbLine
 10
1.902540180336589
 20
3.127176979645615
 30
0.0
 11
1.905901917225537
 21
3.126882865778076
 31
0.0
  0
LINE
  5
276
330
A
100
AcDbEntity
  8
0
  6
Continuous
 62
     7
100
AcDbLine
 10
2.07170733804847
 20
3.070753994672993
 30
0.0
 11
2.075069074937418
 21
3.070459880805453
 31
0.0
  0
LINE
  5
277
330
A
100
AcDbEntity
  8
0
  6
Continuous
 62
     7
100
AcDbLine
 10
2.031366495381087
 20
3.074283361083471
 30
0.0
 11
2.034728232270036
 21
3.073989247215932
 31
0.0
  0
LINE
  5
278
330
A
100
AcDbEntity
  8
0
  6
Continuous
 62
     7
100
AcDbLine
 10
1.991025652713705
 20
3.07781272749395
 30
0.0
 11
1.994387389602654
 21
3.07751861362641
 31
0.0
  0
LINE
  5
279
330
A
100
AcDbEntity
  8
0
  6
Continuous
 62
     7
100
AcDbLine
 10
1.950684810046323
 20
3.081342093904428
 30
0.0
 11
1.954046546935271
 21
3.081047980036888
 31
0.0
  0
LINE
  5
27A
330
A
100
AcDbEntity
  8
0
  6
Continuous
 62
     7
100
AcDbLine
 10
1.91034396737894
 20
3.084871460314906
 30
0.0
 11
1.913705704267889
 21
3.084577346447367
 31
0.0
  0
LINE
  5
27B
330
A
100
AcDbEntity
  8
0
  6
Continuous
 62
     7
100
AcDbLine
 10
1.870003124711558
 20
3.088400826725385
 30
0.0
 11
1.873364861600506
 21
3.088106712857845
 31
0.0
  0
LINE
  5
27C
330
A
100
AcDbEntity
  8
0
  6
Continuous
 62
     7
100
AcDbLine
 10
2.079511125090821
 20
3.028448475342283
 30
0.0
 11
2.08287286197977
 21
3.028154361474744
 31
0.0
  0
LINE
  5
27D
330
A
100
AcDbEntity
  8
0
  6
Continuous
 62
     7
100
AcDbLine
 10
2.039170282423439
 20
3.031977841752762
 30
0.0
 11
2.042532019312388
 21
3.031683727885222
 31
0.0
  0
LINE
  5
27E
330
A
100
AcDbEntity
  8
0
  6
Continuous
 62
     7
100
AcDbLine
 10
1.998829439756057
 20
3.03550720816324
 30
0.0
 11
2.002191176645005
 21
3.0352130942957
 31
0.0
  0
LINE
  5
27F
330
A
100
AcDbEntity
  8
0
  6
Continuous
 62
     7
100
AcDbLine
 10
1.958488597088674
 20
3.039036574573719
 30
0.0
 11
1.961850333977623
 21
3.038742460706179
 31
0.0
  0
LINE
  5
280
330
A
100
AcDbEntity
  8
0
  6
Continuous
 62
     7
100
AcDbLine
 10
1.918147754421292
 20
3.042565940984197
 30
0.0
 11
1.92150949131024
 21
3.042271827116657
 31
0.0
  0
LINE
  5
281
330
A
100
AcDbEntity
  8
0
  6
Continuous
 62
     7
100
AcDbLine
 10
1.87780691175391
 20
3.046095307394676
 30
0.0
 11
1.881168648642858
 21
3.045801193527135
 31
0.0
  0
LINE
  5
282
330
A
100
AcDbEntity
  8
0
  6
Continuous
 62
     7
100
AcDbLine
 10
2.087314912133173
 20
2.986142956011574
 30
0.0
 11
2.090676649022121
 21
2.985848842144035
 31
0.0
  0
LINE
  5
283
330
A
100
AcDbEntity
  8
0
  6
Continuous
 62
     7
100
AcDbLine
 10
2.04697406946579
 20
2.989672322422053
 30
0.0
 11
2.050335806354739
 21
2.989378208554513
 31
0.0
  0
LINE
  5
284
330
A
100
AcDbEntity
  8
0
  6
Continuous
 62
     7
100
AcDbLine
 10
2.006633226798408
 20
2.993201688832531
 30
0.0
 11
2.009994963687357
 21
2.992907574964991
 31
0.0
  0
LINE
  5
285
330
A
100
AcDbEntity
  8
0
  6
Continuous
 62
     7
100
AcDbLine
 10
1.966292384131026
 20
2.996731055243009
 30
0.0
 11
1.969654121019974
 21
2.99643694137547
 31
0.0
  0
LINE
  5
286
330
A
100
AcDbEntity
  8
0
  6
Continuous
 62
     7
100
AcDbLine
 10
1.925951541463644
 20
3.000260421653488
 30
0.0
 11
1.929313278352592
 21
2.999966307785948
 31
0.0
  0
LINE
  5
287
330
A
100
AcDbEntity
  8
0
  6
Continuous
 62
     7
100
AcDbLine
 10
1.885610698796261
 20
3.003789788063966
 30
0.0
 11
1.88897243568521
 21
3.003495674196426
 31
0.0
  0
LINE
  5
288
330
A
100
AcDbEntity
  8
0
  6
Continuous
 62
     7
100
AcDbLine
 10
2.054777856508142
 20
2.947366803091344
 30
0.0
 11
2.058139593397091
 21
2.947072689223804
 31
0.0
  0
LINE
  5
289
330
A
100
AcDbEntity
  8
0
  6
Continuous
 62
     7
100
AcDbLine
 10
2.01443701384076
 20
2.950896169501822
 30
0.0
 11
2.017798750729708
 21
2.950602055634282
 31
0.0
  0
LINE
  5
28A
330
A
100
AcDbEntity
  8
0
  6
Continuous
 62
     7
100
AcDbLine
 10
1.974096171173377
 20
2.9544255359123
 30
0.0
 11
1.977457908062326
 21
2.954131422044761
 31
0.0
  0
LINE
  5
28B
330
A
100
AcDbEntity
  8
0
  6
Continuous
 62
     7
100
AcDbLine
 10
1.933755328505995
 20
2.957954902322779
 30
0.0
 11
1.937117065394943
 21
2.957660788455239
 31
0.0
  0
LINE
  5
28C
330
A
100
AcDbEntity
  8
0
  6
Continuous
 62
     7
100
AcDbLine
 10
1.893414485838613
 20
2.961484268733257
 30
0.0
 11
1.896776222727561
 21
2.961190154865717
 31
0.0
  0
LINE
  5
28D
330
A
100
AcDbEntity
  8
0
  6
Continuous
 62
     7
100
AcDbLine
 10
1.85307364317123
 20
2.965013635143735
 30
0.0
 11
1.856435380060179
 21
2.964719521276196
 31
0.0
  0
LINE
  5
28E
330
A
100
AcDbEntity
  8
0
  6
Continuous
 62
     7
100
AcDbLine
 10
1.860877430213582
 20
2.922708115813026
 30
0.0
 11
1.86423916710253
 21
2.922414001945486
 31
0.0
  0
LINE
  5
28F
330
A
100
AcDbEntity
  8
0
  6
Continuous
 62
     7
100
AcDbLine
 10
2.062581643550494
 20
2.905061283760635
 30
0.0
 11
2.065943380439442
 21
2.904767169893094
 31
0.0
  0
LINE
  5
290
330
A
100
AcDbEntity
  8
0
  6
Continuous
 62
     7
100
AcDbLine
 10
1.949362902590698
 20
2.87334386366136
 30
0.0
 11
1.952724639479646
 21
2.87304974979382
 31
0.0
  0
LINE
  5
291
330
A
100
AcDbEntity
  8
0
  6
Continuous
 62
     7
100
AcDbLine
 10
1.909022059923316
 20
2.876873230071838
 30
0.0
 11
1.912383796812264
 21
2.876579116204299
 31
0.0
  0
LINE
  5
292
330
A
100
AcDbEntity
  8
0
  6
Continuous
 62
     7
100
AcDbLine
 10
1.868681217255934
 20
2.880402596482317
 30
0.0
 11
1.872042954144882
 21
2.880108482614777
 31
0.0
  0
LINE
  5
293
330
A
100
AcDbEntity
  8
0
  6
Continuous
 62
     7
100
AcDbLine
 10
2.070385430592845
 20
2.862755764429925
 30
0.0
 11
2.073747167481794
 21
2.862461650562385
 31
0.0
  0
LINE
  5
294
330
A
100
AcDbEntity
  8
0
  6
Continuous
 62
     7
100
AcDbLine
 10
2.030044587925463
 20
2.866285130840403
 30
0.0
 11
2.033406324814411
 21
2.865991016972864
 31
0.0
  0
LINE
  5
295
330
A
100
AcDbEntity
  8
0
  6
Continuous
 62
     7
100
AcDbLine
 10
1.989703745258081
 20
2.869814497250882
 30
0.0
 11
1.993065482147029
 21
2.869520383383342
 31
0.0
  0
LINE
  5
296
330
A
100
AcDbEntity
  8
0
  6
Continuous
 62
     7
100
AcDbLine
 10
1.95716668963305
 20
2.831038344330651
 30
0.0
 11
1.960528426521998
 21
2.830744230463111
 31
0.0
  0
LINE
  5
297
330
A
100
AcDbEntity
  8
0
  6
Continuous
 62
     7
100
AcDbLine
 10
1.997507532300432
 20
2.827508977920173
 30
0.0
 11
1.998525652713705
 21
2.827419903925907
 31
0.0
  0
LINE
  5
298
330
A
100
AcDbEntity
  8
0
  6
Continuous
 62
     7
100
AcDbLine
 10
1.85643529314925
 20
2.964719630308294
 30
0.0
 11
1.855784980334247
 21
2.968245090650664
 31
0.0
  0
LINE
  5
299
330
A
100
AcDbEntity
  8
0
  6
Continuous
 62
     7
100
AcDbLine
 10
1.864239047153746
 20
2.922414104983048
 30
0.0
 11
1.863588734338743
 21
2.925939565325418
 31
0.0
  0
LINE
  5
29A
330
A
100
AcDbEntity
  8
0
  6
Continuous
 62
     7
100
AcDbLine
 10
1.872042801158242
 20
2.880108579657802
 30
0.0
 11
1.871392488343238
 21
2.883634040000171
 31
0.0
  0
LINE
  5
29B
330
A
100
AcDbEntity
  8
0
  6
Continuous
 62
     7
100
AcDbLine
 10
1.912383640748453
 20
2.876579181557581
 30
0.0
 11
1.91173332793345
 21
2.880104641899951
 31
0.0
  0
LINE
  5
29C
330
A
100
AcDbEntity
  8
0
  6
Continuous
 62
     7
100
AcDbLine
 10
1.873364870725973
 20
3.088106808183813
 30
0.0
 11
1.87271455791097
 21
3.091632268526183
 31
0.0
  0
LINE
  5
29D
330
A
100
AcDbEntity
  8
0
  6
Continuous
 62
     7
100
AcDbLine
 10
1.881168624730469
 20
3.045801282858567
 30
0.0
 11
1.880518311915466
 21
3.049326743200936
 31
0.0
  0
LINE
  5
29E
330
A
100
AcDbEntity
  8
0
  6
Continuous
 62
     7
100
AcDbLine
 10
1.888972378734965
 20
3.00349575753332
 30
0.0
 11
1.888322065919962
 21
3.007021217875689
 31
0.0
  0
LINE
  5
29F
330
A
100
AcDbEntity
  8
0
  6
Continuous
 62
     7
100
AcDbLine
 10
1.896776132739461
 20
2.961190232208074
 30
0.0
 11
1.896125819924458
 21
2.964715692550443
 31
0.0
  0
LINE
  5
2A0
330
A
100
AcDbEntity
  8
0
  6
Continuous
 62
     7
100
AcDbLine
 10
1.952724480338664
 20
2.873049783457361
 30
0.0
 11
1.952074167523661
 21
2.87657524379973
 31
0.0
  0
LINE
  5
2A1
330
A
100
AcDbEntity
  8
0
  6
Continuous
 62
     7
100
AcDbLine
 10
1.96052823434316
 20
2.830744258132114
 30
0.0
 11
1.959877921528157
 21
2.834269718474483
 31
0.0
  0
LINE
  5
2A2
330
A
100
AcDbEntity
  8
0
  6
Continuous
 62
     7
100
AcDbLine
 10
1.905901956311689
 20
3.126882935408839
 30
0.0
 11
1.905251643496685
 21
3.130408395751208
 31
0.0
  0
LINE
  5
2A3
330
A
100
AcDbEntity
  8
0
  6
Continuous
 62
     7
100
AcDbLine
 10
1.913705710316185
 20
3.084577410083593
 30
0.0
 11
1.913055397501182
 21
3.088102870425962
 31
0.0
  0
LINE
  5
2A4
330
A
100
AcDbEntity
  8
0
  6
Continuous
 62
     7
100
AcDbLine
 10
1.92150946432068
 20
3.042271884758346
 30
0.0
 11
1.920859151505677
 21
3.045797345100715
 31
0.0
  0
LINE
  5
2A5
330
A
100
AcDbEntity
  8
0
  6
Continuous
 62
     7
100
AcDbLine
 10
1.929313218325177
 20
2.9999663594331
 30
0.0
 11
1.928662905510173
 21
3.003491819775469
 31
0.0
  0
LINE
  5
2A6
330
A
100
AcDbEntity
  8
0
  6
Continuous
 62
     7
100
AcDbLine
 10
1.937116972329672
 20
2.957660834107853
 30
0.0
 11
1.936466659514669
 21
2.961186294450222
 31
0.0
  0
LINE
  5
2A7
330
A
100
AcDbEntity
  8
0
  6
Continuous
 62
     7
100
AcDbLine
 10
1.993065319928875
 20
2.86952038535714
 30
0.0
 11
1.992415007113872
 21
2.873045845699509
 31
0.0
  0
LINE
  5
2A8
330
A
100
AcDbEntity
  8
0
  6
Continuous
 62
     7
100
AcDbLine
 10
1.9462427959019
 20
3.123353537308618
 30
0.0
 11
1.945592483086897
 21
3.126878997650988
 31
0.0
  0
LINE
  5
2A9
330
A
100
AcDbEntity
  8
0
  6
Continuous
 62
     7
100
AcDbLine
 10
1.954046549906396
 20
3.081048011983372
 30
0.0
 11
1.953396237091393
 21
3.084573472325741
 31
0.0
  0
LINE
  5
2AA
330
A
100
AcDbEntity
  8
0
  6
Continuous
 62
     7
100
AcDbLine
 10
1.961850303910892
 20
3.038742486658125
 30
0.0
 11
1.961199991095888
 21
3.042267947000494
 31
0.0
  0
LINE
  5
2AB
330
A
100
AcDbEntity
  8
0
  6
Continuous
 62
     7
100
AcDbLine
 10
1.969654057915388
 20
2.996436961332879
 30
0.0
 11
1.969003745100384
 21
2.999962421675248
 31
0.0
  0
LINE
  5
2AC
330
A
100
AcDbEntity
  8
0
  6
Continuous
 62
     7
100
AcDbLine
 10
1.977457811919883
 20
2.954131436007632
 30
0.0
 11
1.97680749910488
 21
2.957656896350002
 31
0.0
  0
LINE
  5
2AD
330
A
100
AcDbEntity
  8
0
  6
Continuous
 62
     7
100
AcDbLine
 10
2.033406159519087
 20
2.865990987256918
 30
0.0
 11
2.032755846704083
 21
2.869516447599288
 31
0.0
  0
LINE
  5
2AE
330
A
100
AcDbEntity
  8
0
  6
Continuous
 62
     7
100
AcDbLine
 10
1.986583635492111
 20
3.119824139208398
 30
0.0
 11
1.985933322677108
 21
3.123349599550767
 31
0.0
  0
LINE
  5
2AF
330
A
100
AcDbEntity
  8
0
  6
Continuous
 62
     7
100
AcDbLine
 10
1.994387389496607
 20
3.077518613883151
 30
0.0
 11
1.993737076681604
 21
3.08104407422552
 31
0.0
  0
LINE
  5
2B0
330
A
100
AcDbEntity
  8
0
  6
Continuous
 62
     7
100
AcDbLine
 10
2.002191143501103
 20
3.035213088557904
 30
0.0
 11
2.0015408306861
 21
3.038738548900274
 31
0.0
  0
LINE
  5
2B1
330
A
100
AcDbEntity
  8
0
  6
Continuous
 62
     7
100
AcDbLine
 10
2.009994897505599
 20
2.992907563232658
 30
0.0
 11
2.009344584690595
 21
2.996433023575027
 31
0.0
  0
LINE
  5
2B2
330
A
100
AcDbEntity
  8
0
  6
Continuous
 62
     7
100
AcDbLine
 10
2.017798651510095
 20
2.950602037907412
 30
0.0
 11
2.017148338695092
 21
2.954127498249781
 31
0.0
  0
LINE
  5
2B3
330
A
100
AcDbEntity
  8
0
  6
Continuous
 62
     7
100
AcDbLine
 10
2.026924475082322
 20
3.116294741108177
 30
0.0
 11
2.026274162267319
 21
3.119820201450545
 31
0.0
  0
LINE
  5
2B4
330
A
100
AcDbEntity
  8
0
  6
Continuous
 62
     7
100
AcDbLine
 10
2.034728229086818
 20
3.07398921578293
 30
0.0
 11
2.034077916271815
 21
3.077514676125299
 31
0.0
  0
LINE
  5
2B5
330
A
100
AcDbEntity
  8
0
  6
Continuous
 62
     7
100
AcDbLine
 10
2.042531983091314
 20
3.031683690457684
 30
0.0
 11
2.041881670276311
 21
3.035209150800053
 31
0.0
  0
LINE
  5
2B6
330
A
100
AcDbEntity
  8
0
  6
Continuous
 62
     7
100
AcDbLine
 10
2.05033573709581
 20
2.989378165132437
 30
0.0
 11
2.049685424280807
 21
2.992903625474807
 31
0.0
  0
LINE
  5
2B7
330
A
100
AcDbEntity
  8
0
  6
Continuous
 62
     7
100
AcDbLine
 10
2.058139491100306
 20
2.947072639807191
 30
0.0
 11
2.057489178285303
 21
2.95059810014956
 31
0.0
  0
LINE
  5
2B8
330
A
100
AcDbEntity
  8
0
  6
Continuous
 62
     7
100
AcDbLine
 10
2.065943245104802
 20
2.904767114481945
 30
0.0
 11
2.065292932289799
 21
2.908292574824313
 31
0.0
  0
LINE
  5
2B9
330
A
100
AcDbEntity
  8
0
  6
Continuous
 62
     7
100
AcDbLine
 10
2.073746999109298
 20
2.862461589156698
 30
0.0
 11
2.073096686294294
 21
2.865987049499067
 31
0.0
  0
LINE
  5
2BA
330
A
100
AcDbEntity
  8
0
  6
Continuous
 62
     7
100
AcDbLine
 10
2.07506906867703
 20
3.070459817682709
 30
0.0
 11
2.074418755862026
 21
3.073985278025078
 31
0.0
  0
LINE
  5
2BB
330
A
100
AcDbEntity
  8
0
  6
Continuous
 62
     7
100
AcDbLine
 10
2.082872822681526
 20
3.028154292357463
 30
0.0
 11
2.082222509866522
 21
3.031679752699832
 31
0.0
  0
LINE
  5
2BC
330
A
100
AcDbEntity
  8
0
  6
Continuous
 62
     7
100
AcDbLine
 10
2.090676576686021
 20
2.985848767032217
 30
0.0
 11
2.090026263871018
 21
2.989374227374586
 31
0.0
  0
LINE
  5
2BD
330
A
100
AcDbEntity
  8
0
  6
Continuous
 62
     7
100
AcDbLine
 10
1.931000846829248
 20
3.098370602315604
 30
0.0
 11
1.935381527112218
 21
3.102936212555136
 31
0.0
  0
LINE
  5
2BE
330
A
100
AcDbEntity
  8
0
  6
Continuous
 62
     7
100
AcDbLine
 10
1.878432683433607
 20
3.043583279441216
 30
0.0
 11
1.882813363716577
 21
3.048148889680748
 31
0.0
  0
LINE
  5
2BF
330
A
100
AcDbEntity
  8
0
  6
Continuous
 62
     7
100
AcDbLine
 10
1.991025652713705
 20
3.089061321419709
 30
0.0
 11
1.995406332996675
 21
3.093626931659241
 31
0.0
  0
LINE
  5
2C0
330
A
100
AcDbEntity
  8
0
  6
Continuous
 62
     7
100
AcDbLine
 10
1.938457489318064
 20
3.034273998545321
 30
0.0
 11
1.942838169601034
 21
3.038839608784853
 31
0.0
  0
LINE
  5
2C1
330
A
100
AcDbEntity
  8
0
  6
Continuous
 62
     7
100
AcDbLine
 10
1.885889325922422
 20
2.979486675670933
 30
0.0
 11
1.890270006205393
 21
2.984052285910466
 31
0.0
  0
LINE
  5
2C2
330
A
100
AcDbEntity
  8
0
  6
Continuous
 62
     7
100
AcDbLine
 10
2.051050458598162
 20
3.079752040523814
 30
0.0
 11
2.055431138881132
 21
3.084317650763346
 31
0.0
  0
LINE
  5
2C3
330
A
100
AcDbEntity
  8
0
  6
Continuous
 62
     7
100
AcDbLine
 10
1.998482295202521
 20
3.024964717649426
 30
0.0
 11
2.002862975485491
 21
3.029530327888958
 31
0.0
  0
LINE
  5
2C4
330
A
100
AcDbEntity
  8
0
  6
Continuous
 62
     7
100
AcDbLine
 10
1.94591413180688
 20
2.970177394775038
 30
0.0
 11
1.95029481208985
 21
2.974743005014571
 31
0.0
  0
LINE
  5
2C5
330
A
100
AcDbEntity
  8
0
  6
Continuous
 62
     7
100
AcDbLine
 10
1.953370774295695
 20
2.906080791004755
 30
0.0
 11
1.954552811220652
 21
2.90731272749395
 31
0.0
  0
LINE
  5
2C6
330
A
100
AcDbEntity
  8
0
  6
Continuous
 62
     7
100
AcDbLine
 10
2.058507101086978
 20
3.01565543675353
 30
0.0
 11
2.062887781369948
 21
3.020221046993063
 31
0.0
  0
LINE
  5
2C7
330
A
100
AcDbEntity
  8
0
  6
Continuous
 62
     7
100
AcDbLine
 10
2.005938937691337
 20
2.960868113879143
 30
0.0
 11
2.010319617974307
 21
2.965433724118675
 31
0.0
  0
LINE
  5
2C8
330
A
100
AcDbEntity
  8
0
  6
Continuous
 62
     7
100
AcDbLine
 10
1.960827416784511
 20
2.841984187234472
 30
0.0
 11
1.961025652713705
 21
2.842190791672529
 31
0.0
  0
LINE
  5
2C9
330
A
100
AcDbEntity
  8
0
  6
Continuous
 62
     7
100
AcDbLine
 10
2.013395580180152
 20
2.89677151010886
 30
0.0
 11
2.017776260463122
 21
2.901337120348392
 31
0.0
  0
LINE
  5
2CA
330
A
100
AcDbEntity
  8
0
  6
Continuous
 62
     7
100
AcDbLine
 10
2.065963743575793
 20
2.951558832983248
 30
0.0
 11
2.070344423858764
 21
2.95612444322278
 31
0.0
  0
LINE
  5
2CB
330
A
100
AcDbEntity
  8
0
  6
Continuous
 62
     7
100
AcDbLine
 10
2.073420386064609
 20
2.887462229212965
 30
0.0
 11
2.077801066347579
 21
2.892027839452497
 31
0.0
  0
LINE
  5
2CC
330
A
100
AcDbEntity
  8
0
  6
Continuous
 62
     7
100
AcDbLine
 10
1.883434715690007
 20
3.042807581434395
 30
0.0
 11
1.882813332986609
 21
3.048148965567957
 31
0.0
  0
LINE
  5
2CD
330
A
100
AcDbEntity
  8
0
  6
Continuous
 62
     7
100
AcDbLine
 10
1.890891307038936
 20
2.978710981217184
 30
0.0
 11
1.890269924335537
 21
2.984052365350745
 31
0.0
  0
LINE
  5
2CE
330
A
100
AcDbEntity
  8
0
  6
Continuous
 62
     7
100
AcDbLine
 10
1.958372695898137
 20
2.905305062610683
 30
0.0
 11
1.958139136917639
 21
2.90731272749395
 31
0.0
  0
LINE
  5
2CF
330
A
100
AcDbEntity
  8
0
  6
Continuous
 62
     7
100
AcDbLine
 10
1.936002921851351
 20
3.097594863262317
 30
0.0
 11
1.935381539147953
 21
3.102936247395878
 31
0.0
  0
LINE
  5
2D0
330
A
100
AcDbEntity
  8
0
  6
Continuous
 62
     7
100
AcDbLine
 10
1.94345951320028
 20
3.033498263045106
 30
0.0
 11
1.942838130496882
 21
3.038839647178667
 31
0.0
  0
LINE
  5
2D1
330
A
100
AcDbEntity
  8
0
  6
Continuous
 62
     7
100
AcDbLine
 10
1.950916104549208
 20
2.969401662827895
 30
0.0
 11
1.95029472184581
 21
2.974743046961456
 31
0.0
  0
LINE
  5
2D2
330
A
100
AcDbEntity
  8
0
  6
Continuous
 62
     7
100
AcDbLine
 10
2.018397493408409
 20
2.895995744221393
 30
0.0
 11
2.017776110705011
 21
2.901337128354954
 31
0.0
  0
LINE
  5
2D3
330
A
100
AcDbEntity
  8
0
  6
Continuous
 62
     7
100
AcDbLine
 10
1.996027719361624
 20
3.088285544873027
 30
0.0
 11
1.995406336658226
 21
3.093626929006588
 31
0.0
  0
LINE
  5
2D4
330
A
100
AcDbEntity
  8
0
  6
Continuous
 62
     7
100
AcDbLine
 10
2.003484310710553
 20
3.024188944655816
 30
0.0
 11
2.002862928007154
 21
3.029530328789377
 31
0.0
  0
LINE
  5
2D5
330
A
100
AcDbEntity
  8
0
  6
Continuous
 62
     7
100
AcDbLine
 10
2.010940902059481
 20
2.960092344438605
 30
0.0
 11
2.010319519356082
 21
2.965433728572166
 31
0.0
  0
LINE
  5
2D6
330
A
100
AcDbEntity
  8
0
  6
Continuous
 62
     7
100
AcDbLine
 10
2.056052516871897
 20
3.078976226483737
 30
0.0
 11
2.055431134168498
 21
3.084317610617299
 31
0.0
  0
LINE
  5
2D7
330
A
100
AcDbEntity
  8
0
  6
Continuous
 62
     7
100
AcDbLine
 10
2.063509108220825
 20
3.014879626266526
 30
0.0
 11
2.062887725517427
 21
3.020221010400087
 31
0.0
  0
LINE
  5
2D8
330
A
100
AcDbEntity
  8
0
  6
Continuous
 62
     7
100
AcDbLine
 10
2.070965699569753
 20
2.950783026049315
 30
0.0
 11
2.070344316866355
 21
2.956124410182876
 31
0.0
  0
LINE
  5
2D9
330
A
100
AcDbEntity
  8
0
  6
Continuous
 62
     7
100
AcDbLine
 10
2.078422290918682
 20
2.886686425832103
 30
0.0
 11
2.077800908215283
 21
2.892027809965664
 31
0.0
  0
LINE
  5
2DA
330
A
100
AcDbEntity
  8
0
  6
Continuous
 62
     7
100
AcDbLine
 10
2.051050458601439
 20
3.079752040540868
 30
0.0
 11
2.05605252575875
 21
3.078976267134298
 31
0.0
  0
LINE
  5
2DB
330
A
100
AcDbEntity
  8
0
  6
Continuous
 62
     7
100
AcDbLine
 10
1.991025652713705
 20
3.089061321419709
 30
0.0
 11
1.996027719871016
 21
3.088285548013139
 31
0.0
  0
LINE
  5
2DC
330
A
100
AcDbEntity
  8
0
  6
Continuous
 62
     7
100
AcDbLine
 10
1.931000846825971
 20
3.098370602298549
 30
0.0
 11
1.936002913983282
 21
3.097594828891979
 31
0.0
  0
LINE
  5
2DD
330
A
100
AcDbEntity
  8
0
  6
Continuous
 62
     7
100
AcDbLine
 10
2.058507101095831
 20
3.015655436775338
 30
0.0
 11
2.063509168253143
 21
3.014879663368768
 31
0.0
  0
LINE
  5
2DE
330
A
100
AcDbEntity
  8
0
  6
Continuous
 62
     7
100
AcDbLine
 10
1.998482295208098
 20
3.024964717654179
 30
0.0
 11
2.003484362365409
 21
3.024188944247609
 31
0.0
  0
LINE
  5
2DF
330
A
100
AcDbEntity
  8
0
  6
Continuous
 62
     7
100
AcDbLine
 10
1.938457489320363
 20
3.03427399853302
 30
0.0
 11
1.943459556477675
 21
3.033498225126449
 31
0.0
  0
LINE
  5
2E0
330
A
100
AcDbEntity
  8
0
  6
Continuous
 62
     7
100
AcDbLine
 10
1.87843268343263
 20
3.04358327941186
 30
0.0
 11
1.883434750589941
 21
3.04280750600529
 31
0.0
  0
LINE
  5
2E1
330
A
100
AcDbEntity
  8
0
  6
Continuous
 62
     7
100
AcDbLine
 10
2.065963743590224
 20
2.951558833009809
 30
0.0
 11
2.070965810747535
 21
2.950783059603238
 31
0.0
  0
LINE
  5
2E2
330
A
100
AcDbEntity
  8
0
  6
Continuous
 62
     7
100
AcDbLine
 10
2.00593893770249
 20
2.960868113888649
 30
0.0
 11
2.010941004859801
 21
2.960092340482079
 31
0.0
  0
LINE
  5
2E3
330
A
100
AcDbEntity
  8
0
  6
Continuous
 62
     7
100
AcDbLine
 10
1.945914131814756
 20
2.97017739476749
 30
0.0
 11
1.950916198972067
 21
2.969401621360919
 31
0.0
  0
LINE
  5
2E4
330
A
100
AcDbEntity
  8
0
  6
Continuous
 62
     7
100
AcDbLine
 10
1.885889325927022
 20
2.97948667564633
 30
0.0
 11
1.890891393084333
 21
2.97871090223976
 31
0.0
  0
LINE
  5
2E5
330
A
100
AcDbEntity
  8
0
  6
Continuous
 62
     7
100
AcDbLine
 10
1.953370774309148
 20
2.90608079100196
 30
0.0
 11
1.958372841466459
 21
2.90530501759539
 31
0.0
  0
LINE
  5
2E6
330
A
100
AcDbEntity
  8
0
  6
Continuous
 62
     7
100
AcDbLine
 10
2.073420386084616
 20
2.887462229244278
 30
0.0
 11
2.078422453241927
 21
2.886686455837708
 31
0.0
  0
LINE
  5
2E7
330
A
100
AcDbEntity
  8
0
  6
Continuous
 62
     7
100
AcDbLine
 10
2.013395580196882
 20
2.896771510123119
 30
0.0
 11
2.018397647354193
 21
2.895995736716549
 31
0.0
  0
LINE
  5
2E8
330
A
100
AcDbEntity
  8
0
  6
Continuous
 62
     7
100
AcDbLine
 10
1.960827416803541
 20
2.841984187236429
 30
0.0
 11
1.961025652713705
 21
2.841953442717714
 31
0.0
  0
LINE
  5
2E9
330
A
100
AcDbEntity
  8
0
  6
Continuous
 62
     7
100
AcDbLine
 10
1.976762901285727
 20
3.149678246949599
 30
0.0
 11
1.980700951453742
 21
3.151189922777265
 31
0.0
  0
LINE
  5
2EA
330
A
100
AcDbEntity
  8
0
  6
Continuous
 62
     7
100
AcDbLine
 10
1.929506299269559
 20
3.13153813701761
 30
0.0
 11
1.933444349437573
 21
3.133049812845276
 31
0.0
  0
LINE
  5
2EB
330
A
100
AcDbEntity
  8
0
  6
Continuous
 62
     7
100
AcDbLine
 10
1.882737720837858
 20
3.113585361787947
 30
0.0
 11
1.886187747421404
 21
3.114909702913286
 31
0.0
  0
LINE
  5
2EC
330
A
100
AcDbEntity
  8
0
  6
Continuous
 62
     7
100
AcDbLine
 10
2.010334726489241
 20
3.127033764909929
 30
0.0
 11
2.014272776657255
 21
3.128545440737594
 31
0.0
  0
LINE
  5
2ED
330
A
100
AcDbEntity
  8
0
  6
Continuous
 62
     7
100
AcDbLine
 10
1.963078124473072
 20
3.108893654977939
 30
0.0
 11
1.967016174641086
 21
3.110405330805605
 31
0.0
  0
LINE
  5
2EE
330
A
100
AcDbEntity
  8
0
  6
Continuous
 62
     7
100
AcDbLine
 10
1.915821522456903
 20
3.09075354504595
 30
0.0
 11
1.919759572624917
 21
3.092265220873616
 31
0.0
  0
LINE
  5
2EF
330
A
100
AcDbEntity
  8
0
  6
Continuous
 62
     7
100
AcDbLine
 10
1.868564920440734
 20
3.072613435113961
 30
0.0
 11
1.872502970608748
 21
3.074125110941626
 31
0.0
  0
LINE
  5
2F0
330
A
100
AcDbEntity
  8
0
  6
Continuous
 62
     7
100
AcDbLine
 10
2.043906551692753
 20
3.104389282870259
 30
0.0
 11
2.047844601860767
 21
3.105900958697924
 31
0.0
  0
LINE
  5
2F1
330
A
100
AcDbEntity
  8
0
  6
Continuous
 62
     7
100
AcDbLine
 10
1.996649949676585
 20
3.086249172938269
 30
0.0
 11
2.000587999844599
 21
3.087760848765935
 31
0.0
  0
LINE
  5
2F2
330
A
100
AcDbEntity
  8
0
  6
Continuous
 62
     7
100
AcDbLine
 10
1.949393347660416
 20
3.068109063006279
 30
0.0
 11
1.95333139782843
 21
3.069620738833945
 31
0.0
  0
LINE
  5
2F3
330
A
100
AcDbEntity
  8
0
  6
Continuous
 62
     7
100
AcDbLine
 10
1.902136745644247
 20
3.049968953074291
 30
0.0
 11
1.906074795812261
 21
3.051480628901956
 31
0.0
  0
LINE
  5
2F4
330
A
100
AcDbEntity
  8
0
  6
Continuous
 62
     7
100
AcDbLine
 10
1.854880143628078
 20
3.031828843142301
 30
0.0
 11
1.858818193796092
 21
3.033340518969967
 31
0.0
  0
LINE
  5
2F5
330
A
100
AcDbEntity
  8
0
  6
Continuous
 62
     7
100
AcDbLine
 10
2.077478376896267
 20
3.081744800830588
 30
0.0
 11
2.079939308522205
 21
3.082689463974467
 31
0.0
  0
LINE
  5
2F6
330
A
100
AcDbEntity
  8
0
  6
Continuous
 62
     7
100
AcDbLine
 10
2.030221774880098
 20
3.063604690898599
 30
0.0
 11
2.034159825048112
 21
3.065116366726265
 31
0.0
  0
LINE
  5
2F7
330
A
100
AcDbEntity
  8
0
  6
Continuous
 62
     7
100
AcDbLine
 10
1.982965172863929
 20
3.045464580966609
 30
0.0
 11
1.986903223031943
 21
3.046976256794275
 31
0.0
  0
LINE
  5
2F8
330
A
100
AcDbEntity
  8
0
  6
Continuous
 62
     7
100
AcDbLine
 10
1.93570857084776
 20
3.02732447103462
 30
0.0
 11
1.939646621015774
 21
3.028836146862285
 31
0.0
  0
LINE
  5
2F9
330
A
100
AcDbEntity
  8
0
  6
Continuous
 62
     7
100
AcDbLine
 10
1.888451968831591
 20
3.00918436110263
 30
0.0
 11
1.892390018999606
 21
3.010696036930296
 31
0.0
  0
LINE
  5
2FA
330
A
100
AcDbEntity
  8
0
  6
Continuous
 62
     7
100
AcDbLine
 10
2.063793600083611
 20
3.040960208858928
 30
0.0
 11
2.067731650251625
 21
3.042471884686595
 31
0.0
  0
LINE
  5
2FB
330
A
100
AcDbEntity
  8
0
  6
Continuous
 62
     7
100
AcDbLine
 10
2.016536998067442
 20
3.022820098926939
 30
0.0
 11
2.020475048235456
 21
3.024331774754605
 31
0.0
  0
LINE
  5
2FC
330
A
100
AcDbEntity
  8
0
  6
Continuous
 62
     7
100
AcDbLine
 10
1.969280396051273
 20
3.00467998899495
 30
0.0
 11
1.973218446219287
 21
3.006191664822615
 31
0.0
  0
LINE
  5
2FD
330
A
100
AcDbEntity
  8
0
  6
Continuous
 62
     7
100
AcDbLine
 10
1.922023794035105
 20
2.98653987906296
 30
0.0
 11
1.925961844203118
 21
2.988051554890626
 31
0.0
  0
LINE
  5
2FE
330
A
100
AcDbEntity
  8
0
  6
Continuous
 62
     7
100
AcDbLine
 10
1.874767192018936
 20
2.968399769130971
 30
0.0
 11
1.87870524218695
 21
2.969911444958636
 31
0.0
  0
LINE
  5
2FF
330
A
100
AcDbEntity
  8
0
  6
Continuous
 62
     7
100
AcDbLine
 10
2.050108823270955
 20
3.000175616887268
 30
0.0
 11
2.054046873438969
 21
3.001687292714935
 31
0.0
  0
LINE
  5
300
330
A
100
AcDbEntity
  8
0
  6
Continuous
 62
     7
100
AcDbLine
 10
2.002852221254786
 20
2.98203550695528
 30
0.0
 11
2.0067902714228
 21
2.983547182782945
 31
0.0
  0
LINE
  5
301
330
A
100
AcDbEntity
  8
0
  6
Continuous
 62
     7
100
AcDbLine
 10
1.955595619238617
 20
2.96389539702329
 30
0.0
 11
1.959533669406631
 21
2.965407072850956
 31
0.0
  0
LINE
  5
302
330
A
100
AcDbEntity
  8
0
  6
Continuous
 62
     7
100
AcDbLine
 10
1.908339017222449
 20
2.945755287091301
 30
0.0
 11
1.912277067390463
 21
2.947266962918966
 31
0.0
  0
LINE
  5
303
330
A
100
AcDbEntity
  8
0
  6
Continuous
 62
     7
100
AcDbLine
 10
1.86108241520628
 20
2.927615177159311
 30
0.0
 11
1.865020465374294
 21
2.929126852986977
 31
0.0
  0
LINE
  5
304
330
A
100
AcDbEntity
  8
0
  6
Continuous
 62
     7
100
AcDbLine
 10
1.894654240409793
 20
2.904970695119641
 30
0.0
 11
1.898592290577807
 21
2.906482370947307
 31
0.0
  0
LINE
  5
305
330
A
100
AcDbEntity
  8
0
  6
Continuous
 62
     7
100
AcDbLine
 10
1.851025652713705
 20
2.888223249403724
 30
0.0
 11
1.851335688561638
 21
2.888342261015317
 31
0.0
  0
LINE
  5
306
330
A
100
AcDbEntity
  8
0
  6
Continuous
 62
     7
100
AcDbLine
 10
2.083680648474468
 20
2.977531134847598
 30
0.0
 11
2.087618698642482
 21
2.979042810675264
 31
0.0
  0
LINE
  5
307
330
A
100
AcDbEntity
  8
0
  6
Continuous
 62
     7
100
AcDbLine
 10
2.036424046458299
 20
2.959391024915609
 30
0.0
 11
2.040362096626314
 21
2.960902700743275
 31
0.0
  0
LINE
  5
308
330
A
100
AcDbEntity
  8
0
  6
Continuous
 62
     7
100
AcDbLine
 10
1.989167444442131
 20
2.941250914983619
 30
0.0
 11
1.993105494610145
 21
2.942762590811286
 31
0.0
  0
LINE
  5
309
330
A
100
AcDbEntity
  8
0
  6
Continuous
 62
     7
100
AcDbLine
 10
1.928226065613306
 20
2.882326213079971
 30
0.0
 11
1.93216411578132
 21
2.883837888907637
 31
0.0
  0
LINE
  5
30A
330
A
100
AcDbEntity
  8
0
  6
Continuous
 62
     7
100
AcDbLine
 10
1.880969463597137
 20
2.864186103147981
 30
0.0
 11
1.884907513765151
 21
2.865697778975647
 31
0.0
  0
LINE
  5
30B
330
A
100
AcDbEntity
  8
0
  6
Continuous
 62
     7
100
AcDbLine
 10
2.069995871661812
 20
2.936746542875939
 30
0.0
 11
2.073933921829826
 21
2.938258218703604
 31
0.0
  0
LINE
  5
30C
330
A
100
AcDbEntity
  8
0
  6
Continuous
 62
     7
100
AcDbLine
 10
2.056311094849156
 20
2.895961950904279
 30
0.0
 11
2.06024914501717
 21
2.897473626731945
 31
0.0
  0
LINE
  5
30D
330
A
100
AcDbEntity
  8
0
  6
Continuous
 62
     7
100
AcDbLine
 10
2.009054492832988
 20
2.877821840972289
 30
0.0
 11
2.012992543001002
 21
2.879333516799955
 31
0.0
  0
LINE
  5
30E
330
A
100
AcDbEntity
  8
0
  6
Continuous
 62
     7
100
AcDbLine
 10
1.948113114004163
 20
2.81889713906864
 30
0.0
 11
1.952051164172178
 21
2.820408814896307
 31
0.0
  0
LINE
  5
30F
330
A
100
AcDbEntity
  8
0
  6
Continuous
 62
     7
100
AcDbLine
 10
1.995369716020332
 20
2.83703724900063
 30
0.0
 11
1.998525652713705
 21
2.838248699594064
 31
0.0
  0
LINE
  5
310
330
A
100
AcDbEntity
  8
0
  6
Continuous
 62
     7
100
AcDbLine
 10
2.08988292005267
 20
2.873317468864609
 30
0.0
 11
2.091025652713705
 21
2.873756122834841
 31
0.0
  0
LINE
  5
311
330
A
100
AcDbEntity
  8
0
  6
Continuous
 62
     7
100
AcDbLine
 10
1.981684939207676
 20
2.79625265702897
 30
0.0
 11
1.983336614617348
 21
2.796886675816296
 31
0.0
  0
LINE
  5
312
330
A
100
AcDbEntity
  8
0
  6
Continuous
 62
     7
100
AcDbLine
 10
2.077478376920727
 20
3.081744800837538
 30
0.0
 11
2.080276029021587
 21
3.079857760668345
 31
0.0
  0
LINE
  5
313
330
A
100
AcDbEntity
  8
0
  6
Continuous
 62
     7
100
AcDbLine
 10
2.043906551710398
 20
3.104389282867849
 30
0.0
 11
2.046704203811259
 21
3.102502242698657
 31
0.0
  0
LINE
  5
314
330
A
100
AcDbEntity
  8
0
  6
Continuous
 62
     7
100
AcDbLine
 10
2.01033472650007
 20
3.127033764898159
 30
0.0
 11
2.013132378600931
 21
3.125146724728967
 31
0.0
  0
LINE
  5
315
330
A
100
AcDbEntity
  8
0
  6
Continuous
 62
     7
100
AcDbLine
 10
1.976762901289742
 20
3.149678246928471
 30
0.0
 11
1.979560553390603
 21
3.147791206759278
 31
0.0
  0
LINE
  5
316
330
A
100
AcDbEntity
  8
0
  6
Continuous
 62
     7
100
AcDbLine
 10
2.063793600097241
 20
3.040960208877647
 30
0.0
 11
2.066591252198102
 21
3.039073168708455
 31
0.0
  0
LINE
  5
317
330
A
100
AcDbEntity
  8
0
  6
Continuous
 62
     7
100
AcDbLine
 10
2.030221774886913
 20
3.063604690907958
 30
0.0
 11
2.033019426987773
 21
3.061717650738765
 31
0.0
  0
LINE
  5
318
330
A
100
AcDbEntity
  8
0
  6
Continuous
 62
     7
100
AcDbLine
 10
1.996649949676585
 20
3.086249172938269
 30
0.0
 11
1.999447601777445
 21
3.084362132769077
 31
0.0
  0
LINE
  5
319
330
A
100
AcDbEntity
  8
0
  6
Continuous
 62
     7
100
AcDbLine
 10
1.963078124466257
 20
3.10889365496858
 30
0.0
 11
1.965875776567117
 21
3.107006614799388
 31
0.0
  0
LINE
  5
31A
330
A
100
AcDbEntity
  8
0
  6
Continuous
 62
     7
100
AcDbLine
 10
1.929506299255928
 20
3.131538136998891
 30
0.0
 11
1.932303951356789
 21
3.129651096829698
 31
0.0
  0
LINE
  5
31B
330
A
100
AcDbEntity
  8
0
  6
Continuous
 62
     7
100
AcDbLine
 10
2.083680648484084
 20
2.977531134887446
 30
0.0
 11
2.086478300584944
 21
2.975644094718253
 31
0.0
  0
LINE
  5
31C
330
A
100
AcDbEntity
  8
0
  6
Continuous
 62
     7
100
AcDbLine
 10
2.050108823273756
 20
3.000175616917757
 30
0.0
 11
2.052906475374616
 21
2.998288576748564
 31
0.0
  0
LINE
  5
31D
330
A
100
AcDbEntity
  8
0
  6
Continuous
 62
     7
100
AcDbLine
 10
2.016536998063427
 20
3.022820098948067
 30
0.0
 11
2.019334650164288
 21
3.020933058778875
 31
0.0
  0
LINE
  5
31E
330
A
100
AcDbEntity
  8
0
  6
Continuous
 62
     7
100
AcDbLine
 10
1.982965172853099
 20
3.045464580978379
 30
0.0
 11
1.98576282495396
 21
3.043577540809186
 31
0.0
  0
LINE
  5
31F
330
A
100
AcDbEntity
  8
0
  6
Continuous
 62
     7
100
AcDbLine
 10
1.949393347642771
 20
3.068109063008689
 30
0.0
 11
1.952190999743632
 21
3.066222022839497
 31
0.0
  0
LINE
  5
320
330
A
100
AcDbEntity
  8
0
  6
Continuous
 62
     7
100
AcDbLine
 10
1.915821522432443
 20
3.090753545039
 30
0.0
 11
1.918619174533303
 21
3.088866504869808
 31
0.0
  0
LINE
  5
321
330
A
100
AcDbEntity
  8
0
  6
Continuous
 62
     7
100
AcDbLine
 10
1.882445041602941
 20
3.113266265620727
 30
0.0
 11
1.885047349322976
 21
3.111510986900119
 31
0.0
  0
LINE
  5
322
330
A
100
AcDbEntity
  8
0
  6
Continuous
 62
     7
100
AcDbLine
 10
2.069995871660598
 20
2.936746542927554
 30
0.0
 11
2.072793523761459
 21
2.934859502758362
 31
0.0
  0
LINE
  5
323
330
A
100
AcDbEntity
  8
0
  6
Continuous
 62
     7
100
AcDbLine
 10
2.03642404645027
 20
2.959391024957866
 30
0.0
 11
2.039221698551131
 21
2.957503984788673
 31
0.0
  0
LINE
  5
324
330
A
100
AcDbEntity
  8
0
  6
Continuous
 62
     7
100
AcDbLine
 10
2.002852221239942
 20
2.982035506988177
 30
0.0
 11
2.005649873340802
 21
2.980148466818985
 31
0.0
  0
LINE
  5
325
330
A
100
AcDbEntity
  8
0
  6
Continuous
 62
     7
100
AcDbLine
 10
1.969280396029613
 20
3.004679989018487
 30
0.0
 11
1.972078048130475
 21
3.002792948849295
 31
0.0
  0
LINE
  5
326
330
A
100
AcDbEntity
  8
0
  6
Continuous
 62
     7
100
AcDbLine
 10
1.935708570819286
 20
3.027324471048799
 30
0.0
 11
1.938506222920146
 21
3.025437430879606
 31
0.0
  0
LINE
  5
327
330
A
100
AcDbEntity
  8
0
  6
Continuous
 62
     7
100
AcDbLine
 10
1.902136745608957
 20
3.04996895307911
 30
0.0
 11
1.904934397709818
 21
3.048081912909918
 31
0.0
  0
LINE
  5
328
330
A
100
AcDbEntity
  8
0
  6
Continuous
 62
     7
100
AcDbLine
 10
1.868564920398629
 20
3.07261343510942
 30
0.0
 11
1.87136257249949
 21
3.070726394940228
 31
0.0
  0
LINE
  5
329
330
A
100
AcDbEntity
  8
0
  6
Continuous
 62
     7
100
AcDbLine
 10
1.989167444416456
 20
2.941250915028286
 30
0.0
 11
1.991965096517317
 21
2.939363874859093
 31
0.0
  0
LINE
  5
32A
330
A
100
AcDbEntity
  8
0
  6
Continuous
 62
     7
100
AcDbLine
 10
1.955595619206128
 20
2.963895397058597
 30
0.0
 11
1.958393271306989
 21
2.962008356889405
 31
0.0
  0
LINE
  5
32B
330
A
100
AcDbEntity
  8
0
  6
Continuous
 62
     7
100
AcDbLine
 10
1.9220237939958
 20
2.986539879088908
 30
0.0
 11
1.924821446096661
 21
2.984652838919716
 31
0.0
  0
LINE
  5
32C
330
A
100
AcDbEntity
  8
0
  6
Continuous
 62
     7
100
AcDbLine
 10
1.888451968785472
 20
3.009184361119219
 30
0.0
 11
1.891249620886333
 21
3.007297320950026
 31
0.0
  0
LINE
  5
32D
330
A
100
AcDbEntity
  8
0
  6
Continuous
 62
     7
100
AcDbLine
 10
1.854880143575144
 20
3.03182884314953
 30
0.0
 11
1.857677795676004
 21
3.029941802980338
 31
0.0
  0
LINE
  5
32E
330
A
100
AcDbEntity
  8
0
  6
Continuous
 62
     7
100
AcDbLine
 10
2.089882920047441
 20
2.873317468937353
 30
0.0
 11
2.091025652713705
 21
2.872546686021483
 31
0.0
  0
LINE
  5
32F
330
A
100
AcDbEntity
  8
0
  6
Continuous
 62
     7
100
AcDbLine
 10
2.056311094837113
 20
2.895961950967664
 30
0.0
 11
2.059108746937973
 21
2.894074910798472
 31
0.0
  0
LINE
  5
330
330
A
100
AcDbEntity
  8
0
  6
Continuous
 62
     7
100
AcDbLine
 10
1.908339017172314
 20
2.945755287129017
 30
0.0
 11
1.911136669273175
 21
2.943868246959825
 31
0.0
  0
LINE
  5
331
330
A
100
AcDbEntity
  8
0
  6
Continuous
 62
     7
100
AcDbLine
 10
1.874767191961986
 20
2.968399769159328
 30
0.0
 11
1.877564844062847
 21
2.966512728990136
 31
0.0
  0
LINE
  5
332
330
A
100
AcDbEntity
  8
0
  6
Continuous
 62
     7
100
AcDbLine
 10
2.009054492803299
 20
2.877821841038085
 30
0.0
 11
2.01185214490416
 21
2.875934800868892
 31
0.0
  0
LINE
  5
333
330
A
100
AcDbEntity
  8
0
  6
Continuous
 62
     7
100
AcDbLine
 10
1.928226065559157
 20
2.882326213138815
 30
0.0
 11
1.931023717660018
 21
2.880439172969623
 31
0.0
  0
LINE
  5
334
330
A
100
AcDbEntity
  8
0
  6
Continuous
 62
     7
100
AcDbLine
 10
1.894654240348829
 20
2.904970695169127
 30
0.0
 11
1.89745189244969
 21
2.903083654999934
 31
0.0
  0
LINE
  5
335
330
A
100
AcDbEntity
  8
0
  6
Continuous
 62
     7
100
AcDbLine
 10
1.861082415138501
 20
2.927615177199438
 30
0.0
 11
1.863880067239362
 21
2.925728137030246
 31
0.0
  0
LINE
  5
336
330
A
100
AcDbEntity
  8
0
  6
Continuous
 62
     7
100
AcDbLine
 10
1.995369715979813
 20
2.837037249078194
 30
0.0
 11
1.998167368080674
 21
2.835150208909001
 31
0.0
  0
LINE
  5
337
330
A
100
AcDbEntity
  8
0
  6
Continuous
 62
     7
100
AcDbLine
 10
1.880969463525343
 20
2.864186103209236
 30
0.0
 11
1.883746857240187
 21
2.86231272749395
 31
0.0
  0
LINE
  5
338
330
A
100
AcDbEntity
  8
0
  6
Continuous
 62
     7
100
AcDbLine
 10
1.948113113946
 20
2.818897139148614
 30
0.0
 11
1.95091076604686
 21
2.817010098979421
 31
0.0
  0
LINE
  5
339
330
A
100
AcDbEntity
  8
0
  6
Continuous
 62
     7
100
AcDbLine
 10
1.981684939156328
 20
2.796252657118303
 30
0.0
 11
1.982399935972548
 21
2.795770385676248
 31
0.0
  0
LINE
  5
33A
330
A
100
AcDbEntity
  8
0
  6
Continuous
 62
     7
100
AcDbLine
 10
1.885047370484773
 20
3.11151107456008
 30
0.0
 11
1.886187771170743
 21
3.114909789561137
 31
0.0
  0
LINE
  5
33B
330
A
100
AcDbEntity
  8
0
  6
Continuous
 62
     7
100
AcDbLine
 10
1.871362561859518
 20
3.070726493374319
 30
0.0
 11
1.872502962545489
 21
3.074125208375376
 31
0.0
  0
LINE
  5
33C
330
A
100
AcDbEntity
  8
0
  6
Continuous
 62
     7
100
AcDbLine
 10
1.857677753234264
 20
3.029941912188558
 30
0.0
 11
1.858818153920234
 21
3.033340627189615
 31
0.0
  0
LINE
  5
33D
330
A
100
AcDbEntity
  8
0
  6
Continuous
 62
     7
100
AcDbLine
 10
1.932303986265509
 20
3.129651147490898
 30
0.0
 11
1.933444386951479
 21
3.133049862491955
 31
0.0
  0
LINE
  5
33E
330
A
100
AcDbEntity
  8
0
  6
Continuous
 62
     7
100
AcDbLine
 10
1.918619177640255
 20
3.088866566305137
 30
0.0
 11
1.919759578326225
 21
3.092265281306195
 31
0.0
  0
LINE
  5
33F
330
A
100
AcDbEntity
  8
0
  6
Continuous
 62
     7
100
AcDbLine
 10
1.904934369015
 20
3.048081985119377
 30
0.0
 11
1.90607476970097
 21
3.051480700120434
 31
0.0
  0
LINE
  5
340
330
A
100
AcDbEntity
  8
0
  6
Continuous
 62
     7
100
AcDbLine
 10
1.891249560389745
 20
3.007297403933616
 30
0.0
 11
1.892389961075716
 21
3.010696118934673
 31
0.0
  0
LINE
  5
341
330
A
100
AcDbEntity
  8
0
  6
Continuous
 62
     7
100
AcDbLine
 10
1.877564751764491
 20
2.966512822747855
 30
0.0
 11
1.878705152450461
 21
2.969911537748912
 31
0.0
  0
LINE
  5
342
330
A
100
AcDbEntity
  8
0
  6
Continuous
 62
     7
100
AcDbLine
 10
1.863879943139236
 20
2.925728241562095
 30
0.0
 11
1.865020343825207
 21
2.929126956563152
 31
0.0
  0
LINE
  5
343
330
A
100
AcDbEntity
  8
0
  6
Continuous
 62
     7
100
AcDbLine
 10
1.851025652713705
 20
2.88741883835437
 30
0.0
 11
1.851335535199952
 21
2.888342375377391
 31
0.0
  0
LINE
  5
344
330
A
100
AcDbEntity
  8
0
  6
Continuous
 62
     7
100
AcDbLine
 10
1.897451750294718
 20
2.903083733307152
 30
0.0
 11
1.898592150980688
 21
2.90648244830821
 31
0.0
  0
LINE
  5
345
330
A
100
AcDbEntity
  8
0
  6
Continuous
 62
     7
100
AcDbLine
 10
1.883771496733413
 20
2.86231272749395
 30
0.0
 11
1.884907342355434
 21
2.865697867122449
 31
0.0
  0
LINE
  5
346
330
A
100
AcDbEntity
  8
0
  6
Continuous
 62
     7
100
AcDbLine
 10
1.979560602046245
 20
3.147791220421717
 30
0.0
 11
1.980701002732216
 21
3.151189935422774
 31
0.0
  0
LINE
  5
347
330
A
100
AcDbEntity
  8
0
  6
Continuous
 62
     7
100
AcDbLine
 10
1.965875793420991
 20
3.107006639235956
 30
0.0
 11
1.967016194106961
 21
3.110405354237014
 31
0.0
  0
LINE
  5
348
330
A
100
AcDbEntity
  8
0
  6
Continuous
 62
     7
100
AcDbLine
 10
1.952190984795736
 20
3.066222058050195
 30
0.0
 11
1.953331385481707
 21
3.069620773051252
 31
0.0
  0
LINE
  5
349
330
A
100
AcDbEntity
  8
0
  6
Continuous
 62
     7
100
AcDbLine
 10
1.938506176170482
 20
3.025437476864435
 30
0.0
 11
1.939646576856452
 21
3.028836191865492
 31
0.0
  0
LINE
  5
34A
330
A
100
AcDbEntity
  8
0
  6
Continuous
 62
     7
100
AcDbLine
 10
1.924821367545227
 20
2.984652895678673
 30
0.0
 11
1.925961768231197
 21
2.988051610679731
 31
0.0
  0
LINE
  5
34B
330
A
100
AcDbEntity
  8
0
  6
Continuous
 62
     7
100
AcDbLine
 10
1.911136558919972
 20
2.943868314492913
 30
0.0
 11
1.912276959605943
 21
2.94726702949397
 31
0.0
  0
LINE
  5
34C
330
A
100
AcDbEntity
  8
0
  6
Continuous
 62
     7
100
AcDbLine
 10
1.9310235574502
 20
2.88043922505221
 30
0.0
 11
1.93216395813617
 21
2.883837940053267
 31
0.0
  0
LINE
  5
34D
330
A
100
AcDbEntity
  8
0
  6
Continuous
 62
     7
100
AcDbLine
 10
2.013132409201727
 20
3.125146712166775
 30
0.0
 11
2.014272809887697
 21
3.128545427167832
 31
0.0
  0
LINE
  5
34E
330
A
100
AcDbEntity
  8
0
  6
Continuous
 62
     7
100
AcDbLine
 10
1.999447600576472
 20
3.084362130981014
 30
0.0
 11
2.000588001262443
 21
3.087760845982071
 31
0.0
  0
LINE
  5
34F
330
A
100
AcDbEntity
  8
0
  6
Continuous
 62
     7
100
AcDbLine
 10
1.985762791951218
 20
3.043577549795253
 30
0.0
 11
1.986903192637188
 21
3.046976264796311
 31
0.0
  0
LINE
  5
350
330
A
100
AcDbEntity
  8
0
  6
Continuous
 62
     7
100
AcDbLine
 10
1.972077983325963
 20
3.002792968609492
 30
0.0
 11
1.973218384011934
 21
3.00619168361055
 31
0.0
  0
LINE
  5
351
330
A
100
AcDbEntity
  8
0
  6
Continuous
 62
     7
100
AcDbLine
 10
1.958393174700709
 20
2.962008387423732
 30
0.0
 11
1.959533575386679
 21
2.965407102424789
 31
0.0
  0
LINE
  5
352
330
A
100
AcDbEntity
  8
0
  6
Continuous
 62
     7
100
AcDbLine
 10
1.950910555980427
 20
2.817010135611507
 30
0.0
 11
1.952050956666397
 21
2.820408850612564
 31
0.0
  0
LINE
  5
353
330
A
100
AcDbEntity
  8
0
  6
Continuous
 62
     7
100
AcDbLine
 10
2.046704216357209
 20
3.102502203911832
 30
0.0
 11
2.047844617043179
 21
3.10590091891289
 31
0.0
  0
LINE
  5
354
330
A
100
AcDbEntity
  8
0
  6
Continuous
 62
     7
100
AcDbLine
 10
2.033019407731954
 20
3.061717622726072
 30
0.0
 11
2.034159808417924
 21
3.065116337727129
 31
0.0
  0
LINE
  5
355
330
A
100
AcDbEntity
  8
0
  6
Continuous
 62
     7
100
AcDbLine
 10
2.019334599106699
 20
3.020933041540311
 30
0.0
 11
2.02047499979267
 21
3.024331756541369
 31
0.0
  0
LINE
  5
356
330
A
100
AcDbEntity
  8
0
  6
Continuous
 62
     7
100
AcDbLine
 10
2.005649790481445
 20
2.98014846035455
 30
0.0
 11
2.006790191167415
 21
2.983547175355607
 31
0.0
  0
LINE
  5
357
330
A
100
AcDbEntity
  8
0
  6
Continuous
 62
     7
100
AcDbLine
 10
1.99196498185619
 20
2.939363879168789
 30
0.0
 11
1.993105382542161
 21
2.942762594169847
 31
0.0
  0
LINE
  5
358
330
A
100
AcDbEntity
  8
0
  6
Continuous
 62
     7
100
AcDbLine
 10
1.998167171761163
 20
2.835150208542326
 30
0.0
 11
1.998525652713705
 21
2.836218582672565
 31
0.0
  0
LINE
  5
359
330
A
100
AcDbEntity
  8
0
  6
Continuous
 62
     7
100
AcDbLine
 10
2.011851980386417
 20
2.875934789728086
 30
0.0
 11
2.012992381072388
 21
2.879333504729144
 31
0.0
  0
LINE
  5
35A
330
A
100
AcDbEntity
  8
0
  6
Continuous
 62
     7
100
AcDbLine
 10
2.08027602351269
 20
3.07985769565689
 30
0.0
 11
2.080678952222771
 21
3.081058536614069
 31
0.0
  0
LINE
  5
35B
330
A
100
AcDbEntity
  8
0
  6
Continuous
 62
     7
100
AcDbLine
 10
2.066591214887436
 20
3.039073114471129
 30
0.0
 11
2.067731615573406
 21
3.042471829472187
 31
0.0
  0
LINE
  5
35C
330
A
100
AcDbEntity
  8
0
  6
Continuous
 62
     7
100
AcDbLine
 10
2.052906406262181
 20
2.998288533285369
 30
0.0
 11
2.054046806948151
 21
3.001687248286426
 31
0.0
  0
LINE
  5
35D
330
A
100
AcDbEntity
  8
0
  6
Continuous
 62
     7
100
AcDbLine
 10
2.039221597636927
 20
2.957503952099608
 30
0.0
 11
2.040361998322897
 21
2.960902667100666
 31
0.0
  0
LINE
  5
35E
330
A
100
AcDbEntity
  8
0
  6
Continuous
 62
     7
100
AcDbLine
 10
2.086478213417663
 20
2.975644025030426
 30
0.0
 11
2.087618614103633
 21
2.979042740031484
 31
0.0
  0
LINE
  5
35F
330
A
100
AcDbEntity
  8
0
  6
Continuous
 62
     7
100
AcDbLine
 10
2.072793404792408
 20
2.934859443844666
 30
0.0
 11
2.073933805478378
 21
2.938258158845723
 31
0.0
  0
LINE
  5
360
330
A
100
AcDbEntity
  8
0
  6
Continuous
 62
     7
100
AcDbLine
 10
2.059108596167154
 20
2.894074862658905
 30
0.0
 11
2.060248996853124
 21
2.897473577659963
 31
0.0
  0
LINE
  5
361
330
A
100
AcDbEntity
  8
0
  6
Continuous
 62
     7
100
AcDbLine
 10
1.935672210979491
 20
3.144527492332743
 30
0.0
 11
1.935672210979491
 21
3.144527492332743
 31
0.0
  0
LINE
  5
362
330
A
100
AcDbEntity
  8
0
  6
Continuous
 62
     7
100
AcDbLine
 10
1.906579613798958
 20
3.122203957365719
 30
0.0
 11
1.906579613798958
 21
3.122203957365719
 31
0.0
  0
LINE
  5
363
330
A
100
AcDbEntity
  8
0
  6
Continuous
 62
     7
100
AcDbLine
 10
1.877018500866284
 20
3.099520917617784
 30
0.0
 11
1.877018500866284
 21
3.099520917617784
 31
0.0
  0
LINE
  5
364
330
A
100
AcDbEntity
  8
0
  6
Continuous
 62
     7
100
AcDbLine
 10
1.964884071647536
 20
3.148744382299252
 30
0.0
 11
1.964884071647536
 21
3.148744382299252
 31
0.0
  0
LINE
  5
365
330
A
100
AcDbEntity
  8
0
  6
Continuous
 62
     7
100
AcDbLine
 10
1.93498830460619
 20
3.125804553422096
 30
0.0
 11
1.93498830460619
 21
3.125804553422096
 31
0.0
  0
LINE
  5
366
330
A
100
AcDbEntity
  8
0
  6
Continuous
 62
     7
100
AcDbLine
 10
1.905895707425657
 20
3.103481018455071
 30
0.0
 11
1.905895707425657
 21
3.103481018455071
 31
0.0
  0
LINE
  5
367
330
A
100
AcDbEntity
  8
0
  6
Continuous
 62
     7
100
AcDbLine
 10
1.876334594492983
 20
3.080797978707137
 30
0.0
 11
1.876334594492983
 21
3.080797978707137
 31
0.0
  0
LINE
  5
368
330
A
100
AcDbEntity
  8
0
  6
Continuous
 62
     7
100
AcDbLine
 10
1.964200165274235
 20
3.130021443388605
 30
0.0
 11
1.964200165274235
 21
3.130021443388605
 31
0.0
  0
LINE
  5
369
330
A
100
AcDbEntity
  8
0
  6
Continuous
 62
     7
100
AcDbLine
 10
1.934304398232889
 20
3.107081614511448
 30
0.0
 11
1.934304398232889
 21
3.107081614511448
 31
0.0
  0
LINE
  5
36A
330
A
100
AcDbEntity
  8
0
  6
Continuous
 62
     7
100
AcDbLine
 10
1.905211801052356
 20
3.084758079544424
 30
0.0
 11
1.905211801052356
 21
3.084758079544424
 31
0.0
  0
LINE
  5
36B
330
A
100
AcDbEntity
  8
0
  6
Continuous
 62
     7
100
AcDbLine
 10
1.875650688119682
 20
3.062075039796489
 30
0.0
 11
1.875650688119682
 21
3.062075039796489
 31
0.0
  0
LINE
  5
36C
330
A
100
AcDbEntity
  8
0
  6
Continuous
 62
     7
100
AcDbLine
 10
1.993077371833608
 20
3.133981544225892
 30
0.0
 11
1.993077371833608
 21
3.133981544225892
 31
0.0
  0
LINE
  5
36D
330
A
100
AcDbEntity
  8
0
  6
Continuous
 62
     7
100
AcDbLine
 10
1.963516258900934
 20
3.111298504477957
 30
0.0
 11
1.963516258900934
 21
3.111298504477957
 31
0.0
  0
LINE
  5
36E
330
A
100
AcDbEntity
  8
0
  6
Continuous
 62
     7
100
AcDbLine
 10
1.933620491859588
 20
3.088358675600801
 30
0.0
 11
1.933620491859588
 21
3.088358675600801
 31
0.0
  0
LINE
  5
36F
330
A
100
AcDbEntity
  8
0
  6
Continuous
 62
     7
100
AcDbLine
 10
1.904527894679055
 20
3.066035140633776
 30
0.0
 11
1.904527894679055
 21
3.066035140633776
 31
0.0
  0
LINE
  5
370
330
A
100
AcDbEntity
  8
0
  6
Continuous
 62
     7
100
AcDbLine
 10
1.874966781746381
 20
3.043352100885842
 30
0.0
 11
1.874966781746381
 21
3.043352100885842
 31
0.0
  0
LINE
  5
371
330
A
100
AcDbEntity
  8
0
  6
Continuous
 62
     7
100
AcDbLine
 10
2.02148606264084
 20
3.137582140282268
 30
0.0
 11
2.02148606264084
 21
3.137582140282268
 31
0.0
  0
LINE
  5
372
330
A
100
AcDbEntity
  8
0
  6
Continuous
 62
     7
100
AcDbLine
 10
1.992393465460307
 20
3.115258605315244
 30
0.0
 11
1.992393465460307
 21
3.115258605315244
 31
0.0
  0
LINE
  5
373
330
A
100
AcDbEntity
  8
0
  6
Continuous
 62
     7
100
AcDbLine
 10
1.962832352527633
 20
3.09257556556731
 30
0.0
 11
1.962832352527633
 21
3.09257556556731
 31
0.0
  0
LINE
  5
374
330
A
100
AcDbEntity
  8
0
  6
Continuous
 62
     7
100
AcDbLine
 10
1.932936585486287
 20
3.069635736690154
 30
0.0
 11
1.932936585486287
 21
3.069635736690154
 31
0.0
  0
LINE
  5
375
330
A
100
AcDbEntity
  8
0
  6
Continuous
 62
     7
100
AcDbLine
 10
1.903843988305754
 20
3.047312201723129
 30
0.0
 11
1.903843988305754
 21
3.047312201723129
 31
0.0
  0
LINE
  5
376
330
A
100
AcDbEntity
  8
0
  6
Continuous
 62
     7
100
AcDbLine
 10
1.87428287537308
 20
3.024629161975195
 30
0.0
 11
1.87428287537308
 21
3.024629161975195
 31
0.0
  0
LINE
  5
377
330
A
100
AcDbEntity
  8
0
  6
Continuous
 62
     7
100
AcDbLine
 10
2.02080215626754
 20
3.118859201371621
 30
0.0
 11
2.02080215626754
 21
3.118859201371621
 31
0.0
  0
LINE
  5
378
330
A
100
AcDbEntity
  8
0
  6
Continuous
 62
     7
100
AcDbLine
 10
1.991709559087006
 20
3.096535666404597
 30
0.0
 11
1.991709559087006
 21
3.096535666404597
 31
0.0
  0
LINE
  5
379
330
A
100
AcDbEntity
  8
0
  6
Continuous
 62
     7
100
AcDbLine
 10
1.962148446154332
 20
3.073852626656663
 30
0.0
 11
1.962148446154332
 21
3.073852626656663
 31
0.0
  0
LINE
  5
37A
330
A
100
AcDbEntity
  8
0
  6
Continuous
 62
     7
100
AcDbLine
 10
1.932252679112986
 20
3.050912797779506
 30
0.0
 11
1.932252679112986
 21
3.050912797779506
 31
0.0
  0
LINE
  5
37B
330
A
100
AcDbEntity
  8
0
  6
Continuous
 62
     7
100
AcDbLine
 10
1.903160081932453
 20
3.028589262812482
 30
0.0
 11
1.903160081932453
 21
3.028589262812482
 31
0.0
  0
LINE
  5
37C
330
A
100
AcDbEntity
  8
0
  6
Continuous
 62
     7
100
AcDbLine
 10
1.873598968999779
 20
3.005906223064547
 30
0.0
 11
1.873598968999779
 21
3.005906223064547
 31
0.0
  0
LINE
  5
37D
330
A
100
AcDbEntity
  8
0
  6
Continuous
 62
     7
100
AcDbLine
 10
2.020118249894239
 20
3.100136262460973
 30
0.0
 11
2.020118249894239
 21
3.100136262460973
 31
0.0
  0
LINE
  5
37E
330
A
100
AcDbEntity
  8
0
  6
Continuous
 62
     7
100
AcDbLine
 10
1.991025652713705
 20
3.07781272749395
 30
0.0
 11
1.991025652713705
 21
3.07781272749395
 31
0.0
  0
LINE
  5
37F
330
A
100
AcDbEntity
  8
0
  6
Continuous
 62
     7
100
AcDbLine
 10
1.961464539781031
 20
3.055129687746015
 30
0.0
 11
1.961464539781031
 21
3.055129687746015
 31
0.0
  0
LINE
  5
380
330
A
100
AcDbEntity
  8
0
  6
Continuous
 62
     7
100
AcDbLine
 10
1.931568772739685
 20
3.032189858868858
 30
0.0
 11
1.931568772739685
 21
3.032189858868858
 31
0.0
  0
LINE
  5
381
330
A
100
AcDbEntity
  8
0
  6
Continuous
 62
     7
100
AcDbLine
 10
1.902476175559152
 20
3.009866323901834
 30
0.0
 11
1.902476175559152
 21
3.009866323901834
 31
0.0
  0
LINE
  5
382
330
A
100
AcDbEntity
  8
0
  6
Continuous
 62
     7
100
AcDbLine
 10
1.872915062626478
 20
2.9871832841539
 30
0.0
 11
1.872915062626478
 21
2.9871832841539
 31
0.0
  0
LINE
  5
383
330
A
100
AcDbEntity
  8
0
  6
Continuous
 62
     7
100
AcDbLine
 10
2.049330110562284
 20
3.104353152427482
 30
0.0
 11
2.049330110562284
 21
3.104353152427482
 31
0.0
  0
LINE
  5
384
330
A
100
AcDbEntity
  8
0
  6
Continuous
 62
     7
100
AcDbLine
 10
2.019434343520938
 20
3.081413323550326
 30
0.0
 11
2.019434343520938
 21
3.081413323550326
 31
0.0
  0
LINE
  5
385
330
A
100
AcDbEntity
  8
0
  6
Continuous
 62
     7
100
AcDbLine
 10
1.990341746340405
 20
3.059089788583302
 30
0.0
 11
1.990341746340405
 21
3.059089788583302
 31
0.0
  0
LINE
  5
386
330
A
100
AcDbEntity
  8
0
  6
Continuous
 62
     7
100
AcDbLine
 10
1.96078063340773
 20
3.036406748835368
 30
0.0
 11
1.96078063340773
 21
3.036406748835368
 31
0.0
  0
LINE
  5
387
330
A
100
AcDbEntity
  8
0
  6
Continuous
 62
     7
100
AcDbLine
 10
1.930884866366385
 20
3.013466919958211
 30
0.0
 11
1.930884866366385
 21
3.013466919958211
 31
0.0
  0
LINE
  5
388
330
A
100
AcDbEntity
  8
0
  6
Continuous
 62
     7
100
AcDbLine
 10
1.901792269185851
 20
2.991143384991187
 30
0.0
 11
1.901792269185851
 21
2.991143384991187
 31
0.0
  0
LINE
  5
389
330
A
100
AcDbEntity
  8
0
  6
Continuous
 62
     7
100
AcDbLine
 10
1.872231156253177
 20
2.968460345243252
 30
0.0
 11
1.872231156253177
 21
2.968460345243252
 31
0.0
  0
LINE
  5
38A
330
A
100
AcDbEntity
  8
0
  6
Continuous
 62
     7
100
AcDbLine
 10
2.048646204188983
 20
3.085630213516835
 30
0.0
 11
2.048646204188983
 21
3.085630213516835
 31
0.0
  0
LINE
  5
38B
330
A
100
AcDbEntity
  8
0
  6
Continuous
 62
     7
100
AcDbLine
 10
2.018750437147637
 20
3.062690384639679
 30
0.0
 11
2.018750437147637
 21
3.062690384639679
 31
0.0
  0
LINE
  5
38C
330
A
100
AcDbEntity
  8
0
  6
Continuous
 62
     7
100
AcDbLine
 10
1.989657839967103
 20
3.040366849672655
 30
0.0
 11
1.989657839967103
 21
3.040366849672655
 31
0.0
  0
LINE
  5
38D
330
A
100
AcDbEntity
  8
0
  6
Continuous
 62
     7
100
AcDbLine
 10
1.96009672703443
 20
3.01768380992472
 30
0.0
 11
1.96009672703443
 21
3.01768380992472
 31
0.0
  0
LINE
  5
38E
330
A
100
AcDbEntity
  8
0
  6
Continuous
 62
     7
100
AcDbLine
 10
1.930200959993084
 20
2.994743981047563
 30
0.0
 11
1.930200959993084
 21
2.994743981047563
 31
0.0
  0
LINE
  5
38F
330
A
100
AcDbEntity
  8
0
  6
Continuous
 62
     7
100
AcDbLine
 10
1.90110836281255
 20
2.97242044608054
 30
0.0
 11
1.90110836281255
 21
2.97242044608054
 31
0.0
  0
LINE
  5
390
330
A
100
AcDbEntity
  8
0
  6
Continuous
 62
     7
100
AcDbLine
 10
1.871547249879876
 20
2.949737406332605
 30
0.0
 11
1.871547249879876
 21
2.949737406332605
 31
0.0
  0
LINE
  5
391
330
A
100
AcDbEntity
  8
0
  6
Continuous
 62
     7
100
AcDbLine
 10
2.047962297815681
 20
3.066907274606188
 30
0.0
 11
2.047962297815681
 21
3.066907274606188
 31
0.0
  0
LINE
  5
392
330
A
100
AcDbEntity
  8
0
  6
Continuous
 62
     7
100
AcDbLine
 10
2.018066530774336
 20
3.043967445729031
 30
0.0
 11
2.018066530774336
 21
3.043967445729031
 31
0.0
  0
LINE
  5
393
330
A
100
AcDbEntity
  8
0
  6
Continuous
 62
     7
100
AcDbLine
 10
1.988973933593802
 20
3.021643910762007
 30
0.0
 11
1.988973933593802
 21
3.021643910762007
 31
0.0
  0
LINE
  5
394
330
A
100
AcDbEntity
  8
0
  6
Continuous
 62
     7
100
AcDbLine
 10
1.959412820661128
 20
2.998960871014072
 30
0.0
 11
1.959412820661128
 21
2.998960871014072
 31
0.0
  0
LINE
  5
395
330
A
100
AcDbEntity
  8
0
  6
Continuous
 62
     7
100
AcDbLine
 10
1.929517053619783
 20
2.976021042136916
 30
0.0
 11
1.929517053619783
 21
2.976021042136916
 31
0.0
  0
LINE
  5
396
330
A
100
AcDbEntity
  8
0
  6
Continuous
 62
     7
100
AcDbLine
 10
1.90042445643925
 20
2.953697507169892
 30
0.0
 11
1.90042445643925
 21
2.953697507169892
 31
0.0
  0
LINE
  5
397
330
A
100
AcDbEntity
  8
0
  6
Continuous
 62
     7
100
AcDbLine
 10
1.870863343506576
 20
2.931014467421958
 30
0.0
 11
1.870863343506576
 21
2.931014467421958
 31
0.0
  0
LINE
  5
398
330
A
100
AcDbEntity
  8
0
  6
Continuous
 62
     7
100
AcDbLine
 10
2.076839504375055
 20
3.070867375443475
 30
0.0
 11
2.076839504375055
 21
3.070867375443475
 31
0.0
  0
LINE
  5
399
330
A
100
AcDbEntity
  8
0
  6
Continuous
 62
     7
100
AcDbLine
 10
2.047278391442381
 20
3.04818433569554
 30
0.0
 11
2.047278391442381
 21
3.04818433569554
 31
0.0
  0
LINE
  5
39A
330
A
100
AcDbEntity
  8
0
  6
Continuous
 62
     7
100
AcDbLine
 10
2.017382624401035
 20
3.025244506818384
 30
0.0
 11
2.017382624401035
 21
3.025244506818384
 31
0.0
  0
LINE
  5
39B
330
A
100
AcDbEntity
  8
0
  6
Continuous
 62
     7
100
AcDbLine
 10
1.988290027220502
 20
3.002920971851359
 30
0.0
 11
1.988290027220502
 21
3.002920971851359
 31
0.0
  0
LINE
  5
39C
330
A
100
AcDbEntity
  8
0
  6
Continuous
 62
     7
100
AcDbLine
 10
1.958728914287828
 20
2.980237932103425
 30
0.0
 11
1.958728914287828
 21
2.980237932103425
 31
0.0
  0
LINE
  5
39D
330
A
100
AcDbEntity
  8
0
  6
Continuous
 62
     7
100
AcDbLine
 10
1.928833147246482
 20
2.957298103226269
 30
0.0
 11
1.928833147246482
 21
2.957298103226269
 31
0.0
  0
LINE
  5
39E
330
A
100
AcDbEntity
  8
0
  6
Continuous
 62
     7
100
AcDbLine
 10
1.899740550065948
 20
2.934974568259245
 30
0.0
 11
1.899740550065948
 21
2.934974568259245
 31
0.0
  0
LINE
  5
39F
330
A
100
AcDbEntity
  8
0
  6
Continuous
 62
     7
100
AcDbLine
 10
1.870179437133275
 20
2.91229152851131
 30
0.0
 11
1.870179437133275
 21
2.91229152851131
 31
0.0
  0
LINE
  5
3A0
330
A
100
AcDbEntity
  8
0
  6
Continuous
 62
     7
100
AcDbLine
 10
1.869495530759974
 20
2.893568589600662
 30
0.0
 11
1.869495530759974
 21
2.893568589600662
 31
0.0
  0
LINE
  5
3A1
330
A
100
AcDbEntity
  8
0
  6
Continuous
 62
     7
100
AcDbLine
 10
2.04659448506908
 20
3.029461396784893
 30
0.0
 11
2.04659448506908
 21
3.029461396784893
 31
0.0
  0
LINE
  5
3A2
330
A
100
AcDbEntity
  8
0
  6
Continuous
 62
     7
100
AcDbLine
 10
2.016698718027734
 20
3.006521567907737
 30
0.0
 11
2.016698718027734
 21
3.006521567907737
 31
0.0
  0
LINE
  5
3A3
330
A
100
AcDbEntity
  8
0
  6
Continuous
 62
     7
100
AcDbLine
 10
1.987606120847201
 20
2.984198032940712
 30
0.0
 11
1.987606120847201
 21
2.984198032940712
 31
0.0
  0
LINE
  5
3A4
330
A
100
AcDbEntity
  8
0
  6
Continuous
 62
     7
100
AcDbLine
 10
1.958045007914527
 20
2.961514993192778
 30
0.0
 11
1.958045007914527
 21
2.961514993192778
 31
0.0
  0
LINE
  5
3A5
330
A
100
AcDbEntity
  8
0
  6
Continuous
 62
     7
100
AcDbLine
 10
1.928149240873181
 20
2.938575164315621
 30
0.0
 11
1.928149240873181
 21
2.938575164315621
 31
0.0
  0
LINE
  5
3A6
330
A
100
AcDbEntity
  8
0
  6
Continuous
 62
     7
100
AcDbLine
 10
1.898372737319347
 20
2.897528690437949
 30
0.0
 11
1.898372737319347
 21
2.897528690437949
 31
0.0
  0
LINE
  5
3A7
330
A
100
AcDbEntity
  8
0
  6
Continuous
 62
     7
100
AcDbLine
 10
1.868811624386673
 20
2.874845650690015
 30
0.0
 11
1.868811624386673
 21
2.874845650690015
 31
0.0
  0
LINE
  5
3A8
330
A
100
AcDbEntity
  8
0
  6
Continuous
 62
     7
100
AcDbLine
 10
2.075471691628453
 20
3.03342149762218
 30
0.0
 11
2.075471691628453
 21
3.03342149762218
 31
0.0
  0
LINE
  5
3A9
330
A
100
AcDbEntity
  8
0
  6
Continuous
 62
     7
100
AcDbLine
 10
2.045910578695779
 20
3.010738457874245
 30
0.0
 11
2.045910578695779
 21
3.010738457874245
 31
0.0
  0
LINE
  5
3AA
330
A
100
AcDbEntity
  8
0
  6
Continuous
 62
     7
100
AcDbLine
 10
2.016014811654433
 20
2.987798628997089
 30
0.0
 11
2.016014811654433
 21
2.987798628997089
 31
0.0
  0
LINE
  5
3AB
330
A
100
AcDbEntity
  8
0
  6
Continuous
 62
     7
100
AcDbLine
 10
1.9869222144739
 20
2.965475094030065
 30
0.0
 11
1.9869222144739
 21
2.965475094030065
 31
0.0
  0
LINE
  5
3AC
330
A
100
AcDbEntity
  8
0
  6
Continuous
 62
     7
100
AcDbLine
 10
1.957361101541226
 20
2.94279205428213
 30
0.0
 11
1.957361101541226
 21
2.94279205428213
 31
0.0
  0
LINE
  5
3AD
330
A
100
AcDbEntity
  8
0
  6
Continuous
 62
     7
100
AcDbLine
 10
1.926781428126579
 20
2.901129286494326
 30
0.0
 11
1.926781428126579
 21
2.901129286494326
 31
0.0
  0
LINE
  5
3AE
330
A
100
AcDbEntity
  8
0
  6
Continuous
 62
     7
100
AcDbLine
 10
1.897688830946046
 20
2.878805751527302
 30
0.0
 11
1.897688830946046
 21
2.878805751527302
 31
0.0
  0
LINE
  5
3AF
330
A
100
AcDbEntity
  8
0
  6
Continuous
 62
     7
100
AcDbLine
 10
2.074787785255152
 20
3.014698558711533
 30
0.0
 11
2.074787785255152
 21
3.014698558711533
 31
0.0
  0
LINE
  5
3B0
330
A
100
AcDbEntity
  8
0
  6
Continuous
 62
     7
100
AcDbLine
 10
2.045226672322478
 20
2.992015518963598
 30
0.0
 11
2.045226672322478
 21
2.992015518963598
 31
0.0
  0
LINE
  5
3B1
330
A
100
AcDbEntity
  8
0
  6
Continuous
 62
     7
100
AcDbLine
 10
2.015330905281132
 20
2.969075690086441
 30
0.0
 11
2.015330905281132
 21
2.969075690086441
 31
0.0
  0
LINE
  5
3B2
330
A
100
AcDbEntity
  8
0
  6
Continuous
 62
     7
100
AcDbLine
 10
1.986238308100599
 20
2.946752155119417
 30
0.0
 11
1.986238308100599
 21
2.946752155119417
 31
0.0
  0
LINE
  5
3B3
330
A
100
AcDbEntity
  8
0
  6
Continuous
 62
     7
100
AcDbLine
 10
1.955993288794624
 20
2.905346176460835
 30
0.0
 11
1.955993288794624
 21
2.905346176460835
 31
0.0
  0
LINE
  5
3B4
330
A
100
AcDbEntity
  8
0
  6
Continuous
 62
     7
100
AcDbLine
 10
1.926097521753278
 20
2.882406347583679
 30
0.0
 11
1.926097521753278
 21
2.882406347583679
 31
0.0
  0
LINE
  5
3B5
330
A
100
AcDbEntity
  8
0
  6
Continuous
 62
     7
100
AcDbLine
 10
2.074103878881851
 20
2.995975619800885
 30
0.0
 11
2.074103878881851
 21
2.995975619800885
 31
0.0
  0
LINE
  5
3B6
330
A
100
AcDbEntity
  8
0
  6
Continuous
 62
     7
100
AcDbLine
 10
2.044542765949177
 20
2.973292580052951
 30
0.0
 11
2.044542765949177
 21
2.973292580052951
 31
0.0
  0
LINE
  5
3B7
330
A
100
AcDbEntity
  8
0
  6
Continuous
 62
     7
100
AcDbLine
 10
2.014646998907831
 20
2.950352751175794
 30
0.0
 11
2.014646998907831
 21
2.950352751175794
 31
0.0
  0
LINE
  5
3B8
330
A
100
AcDbEntity
  8
0
  6
Continuous
 62
     7
100
AcDbLine
 10
1.985554401727298
 20
2.92802921620877
 30
0.0
 11
1.985554401727298
 21
2.92802921620877
 31
0.0
  0
LINE
  5
3B9
330
A
100
AcDbEntity
  8
0
  6
Continuous
 62
     7
100
AcDbLine
 10
1.955309382421323
 20
2.886623237550188
 30
0.0
 11
1.955309382421323
 21
2.886623237550188
 31
0.0
  0
LINE
  5
3BA
330
A
100
AcDbEntity
  8
0
  6
Continuous
 62
     7
100
AcDbLine
 10
1.925413615379977
 20
2.863683408673031
 30
0.0
 11
1.925413615379977
 21
2.863683408673031
 31
0.0
  0
LINE
  5
3BB
330
A
100
AcDbEntity
  8
0
  6
Continuous
 62
     7
100
AcDbLine
 10
2.07341997250855
 20
2.977252680890238
 30
0.0
 11
2.07341997250855
 21
2.977252680890238
 31
0.0
  0
LINE
  5
3BC
330
A
100
AcDbEntity
  8
0
  6
Continuous
 62
     7
100
AcDbLine
 10
2.043858859575876
 20
2.954569641142303
 30
0.0
 11
2.043858859575876
 21
2.954569641142303
 31
0.0
  0
LINE
  5
3BD
330
A
100
AcDbEntity
  8
0
  6
Continuous
 62
     7
100
AcDbLine
 10
2.013963092534531
 20
2.931629812265146
 30
0.0
 11
2.013963092534531
 21
2.931629812265146
 31
0.0
  0
LINE
  5
3BE
330
A
100
AcDbEntity
  8
0
  6
Continuous
 62
     7
100
AcDbLine
 10
1.954625476048022
 20
2.867900298639541
 30
0.0
 11
1.954625476048022
 21
2.867900298639541
 31
0.0
  0
LINE
  5
3BF
330
A
100
AcDbEntity
  8
0
  6
Continuous
 62
     7
100
AcDbLine
 10
1.984186588980696
 20
2.890583338387475
 30
0.0
 11
1.984186588980696
 21
2.890583338387475
 31
0.0
  0
LINE
  5
3C0
330
A
100
AcDbEntity
  8
0
  6
Continuous
 62
     7
100
AcDbLine
 10
2.072736066135249
 20
2.958529741979591
 30
0.0
 11
2.072736066135249
 21
2.958529741979591
 31
0.0
  0
LINE
  5
3C1
330
A
100
AcDbEntity
  8
0
  6
Continuous
 62
     7
100
AcDbLine
 10
2.043174953202575
 20
2.935846702231656
 30
0.0
 11
2.043174953202575
 21
2.935846702231656
 31
0.0
  0
LINE
  5
3C2
330
A
100
AcDbEntity
  8
0
  6
Continuous
 62
     7
100
AcDbLine
 10
1.953941569674721
 20
2.849177359728893
 30
0.0
 11
1.953941569674721
 21
2.849177359728893
 31
0.0
  0
LINE
  5
3C3
330
A
100
AcDbEntity
  8
0
  6
Continuous
 62
     7
100
AcDbLine
 10
2.012595279787928
 20
2.894183934443852
 30
0.0
 11
2.012595279787928
 21
2.894183934443852
 31
0.0
  0
LINE
  5
3C4
330
A
100
AcDbEntity
  8
0
  6
Continuous
 62
     7
100
AcDbLine
 10
1.983502682607395
 20
2.871860399476828
 30
0.0
 11
1.983502682607395
 21
2.871860399476828
 31
0.0
  0
LINE
  5
3C5
330
A
100
AcDbEntity
  8
0
  6
Continuous
 62
     7
100
AcDbLine
 10
2.072052159761948
 20
2.939806803068943
 30
0.0
 11
2.072052159761948
 21
2.939806803068943
 31
0.0
  0
LINE
  5
3C6
330
A
100
AcDbEntity
  8
0
  6
Continuous
 62
     7
100
AcDbLine
 10
1.95325766330142
 20
2.830454420818246
 30
0.0
 11
1.95325766330142
 21
2.830454420818246
 31
0.0
  0
LINE
  5
3C7
330
A
100
AcDbEntity
  8
0
  6
Continuous
 62
     7
100
AcDbLine
 10
2.071368253388647
 20
2.921083864158296
 30
0.0
 11
2.071368253388647
 21
2.921083864158296
 31
0.0
  0
LINE
  5
3C8
330
A
100
AcDbEntity
  8
0
  6
Continuous
 62
     7
100
AcDbLine
 10
2.041807140455973
 20
2.89840082441036
 30
0.0
 11
2.041807140455973
 21
2.89840082441036
 31
0.0
  0
LINE
  5
3C9
330
A
100
AcDbEntity
  8
0
  6
Continuous
 62
     7
100
AcDbLine
 10
2.011911373414628
 20
2.875460995533204
 30
0.0
 11
2.011911373414628
 21
2.875460995533204
 31
0.0
  0
LINE
  5
3CA
330
A
100
AcDbEntity
  8
0
  6
Continuous
 62
     7
100
AcDbLine
 10
1.982818776234094
 20
2.853137460566181
 30
0.0
 11
1.982818776234094
 21
2.853137460566181
 31
0.0
  0
LINE
  5
3CB
330
A
100
AcDbEntity
  8
0
  6
Continuous
 62
     7
100
AcDbLine
 10
1.952573756928119
 20
2.811731481907598
 30
0.0
 11
1.952573756928119
 21
2.811731481907598
 31
0.0
  0
LINE
  5
3CC
330
A
100
AcDbEntity
  8
0
  6
Continuous
 62
     7
100
AcDbLine
 10
1.982134869860793
 20
2.834414521655533
 30
0.0
 11
1.982134869860793
 21
2.834414521655533
 31
0.0
  0
LINE
  5
3CD
330
A
100
AcDbEntity
  8
0
  6
Continuous
 62
     7
100
AcDbLine
 10
2.070684347015347
 20
2.902360925247648
 30
0.0
 11
2.070684347015347
 21
2.902360925247648
 31
0.0
  0
LINE
  5
3CE
330
A
100
AcDbEntity
  8
0
  6
Continuous
 62
     7
100
AcDbLine
 10
2.041123234082673
 20
2.879677885499713
 30
0.0
 11
2.041123234082673
 21
2.879677885499713
 31
0.0
  0
LINE
  5
3CF
330
A
100
AcDbEntity
  8
0
  6
Continuous
 62
     7
100
AcDbLine
 10
1.981450963487493
 20
2.815691582744886
 30
0.0
 11
1.981450963487493
 21
2.815691582744886
 31
0.0
  0
LINE
  5
3D0
330
A
100
AcDbEntity
  8
0
  6
Continuous
 62
     7
100
AcDbLine
 10
2.070000440642045
 20
2.883637986337
 30
0.0
 11
2.070000440642045
 21
2.883637986337
 31
0.0
  0
LINE
  5
3D1
330
A
100
AcDbEntity
  8
0
  6
Continuous
 62
     7
100
AcDbLine
 10
2.069316534268744
 20
2.864915047426353
 30
0.0
 11
2.069316534268744
 21
2.864915047426353
 31
0.0
  0
LINE
  5
3D2
330
A
100
AcDbEntity
  8
0
  6
Continuous
 62
     7
100
AcDbLine
 10
1.985812964757262
 20
3.137831405090539
 30
0.0
 11
1.985812964757262
 21
3.137831405090539
 31
0.0
  0
LINE
  5
3D3
330
A
100
AcDbEntity
  8
0
  6
Continuous
 62
     7
100
AcDbLine
 10
1.964511955924596
 20
3.135027074076587
 30
0.0
 11
1.964511955924596
 21
3.135027074076587
 31
0.0
  0
LINE
  5
3D4
330
A
100
AcDbEntity
  8
0
  6
Continuous
 62
     7
100
AcDbLine
 10
1.950432100609811
 20
3.133173425958726
 30
0.0
 11
1.950432100609811
 21
3.133173425958726
 31
0.0
  0
LINE
  5
3D5
330
A
100
AcDbEntity
  8
0
  6
Continuous
 62
     7
100
AcDbLine
 10
1.914911831954293
 20
3.128497093875251
 30
0.0
 11
1.914911831954293
 21
3.128497093875251
 31
0.0
  0
LINE
  5
3D6
330
A
100
AcDbEntity
  8
0
  6
Continuous
 62
     7
100
AcDbLine
 10
2.041918285555611
 20
3.124982830373184
 30
0.0
 11
2.041918285555611
 21
3.124982830373184
 31
0.0
  0
LINE
  5
3D7
330
A
100
AcDbEntity
  8
0
  6
Continuous
 62
     7
100
AcDbLine
 10
2.020617276722945
 20
3.122178499359232
 30
0.0
 11
2.020617276722945
 21
3.122178499359232
 31
0.0
  0
LINE
  5
3D8
330
A
100
AcDbEntity
  8
0
  6
Continuous
 62
     7
100
AcDbLine
 10
2.00653742140816
 20
3.120324851241371
 30
0.0
 11
2.00653742140816
 21
3.120324851241371
 31
0.0
  0
LINE
  5
3D9
330
A
100
AcDbEntity
  8
0
  6
Continuous
 62
     7
100
AcDbLine
 10
1.971017152752642
 20
3.115648519157897
 30
0.0
 11
1.971017152752642
 21
3.115648519157897
 31
0.0
  0
LINE
  5
3DA
330
A
100
AcDbEntity
  8
0
  6
Continuous
 62
     7
100
AcDbLine
 10
1.949716143919976
 20
3.112844188143945
 30
0.0
 11
1.949716143919976
 21
3.112844188143945
 31
0.0
  0
LINE
  5
3DB
330
A
100
AcDbEntity
  8
0
  6
Continuous
 62
     7
100
AcDbLine
 10
1.93563628860519
 20
3.110990540026085
 30
0.0
 11
1.93563628860519
 21
3.110990540026085
 31
0.0
  0
LINE
  5
3DC
330
A
100
AcDbEntity
  8
0
  6
Continuous
 62
     7
100
AcDbLine
 10
1.900116019949672
 20
3.10631420794261
 30
0.0
 11
1.900116019949672
 21
3.10631420794261
 31
0.0
  0
LINE
  5
3DD
330
A
100
AcDbEntity
  8
0
  6
Continuous
 62
     7
100
AcDbLine
 10
1.878815011117006
 20
3.103509876928659
 30
0.0
 11
1.878815011117006
 21
3.103509876928659
 31
0.0
  0
LINE
  5
3DE
330
A
100
AcDbEntity
  8
0
  6
Continuous
 62
     7
100
AcDbLine
 10
2.062642742206509
 20
3.107476276524017
 30
0.0
 11
2.062642742206509
 21
3.107476276524017
 31
0.0
  0
LINE
  5
3DF
330
A
100
AcDbEntity
  8
0
  6
Continuous
 62
     7
100
AcDbLine
 10
2.027122473550991
 20
3.102799944440542
 30
0.0
 11
2.027122473550991
 21
3.102799944440542
 31
0.0
  0
LINE
  5
3E0
330
A
100
AcDbEntity
  8
0
  6
Continuous
 62
     7
100
AcDbLine
 10
2.005821464718325
 20
3.099995613426591
 30
0.0
 11
2.005821464718325
 21
3.099995613426591
 31
0.0
  0
LINE
  5
3E1
330
A
100
AcDbEntity
  8
0
  6
Continuous
 62
     7
100
AcDbLine
 10
1.99174160940354
 20
3.09814196530873
 30
0.0
 11
1.99174160940354
 21
3.09814196530873
 31
0.0
  0
LINE
  5
3E2
330
A
100
AcDbEntity
  8
0
  6
Continuous
 62
     7
100
AcDbLine
 10
1.956221340748022
 20
3.093465633225256
 30
0.0
 11
1.956221340748022
 21
3.093465633225256
 31
0.0
  0
LINE
  5
3E3
330
A
100
AcDbEntity
  8
0
  6
Continuous
 62
     7
100
AcDbLine
 10
1.934920331915355
 20
3.090661302211304
 30
0.0
 11
1.934920331915355
 21
3.090661302211304
 31
0.0
  0
LINE
  5
3E4
330
A
100
AcDbEntity
  8
0
  6
Continuous
 62
     7
100
AcDbLine
 10
1.92084047660057
 20
3.088807654093444
 30
0.0
 11
1.92084047660057
 21
3.088807654093444
 31
0.0
  0
LINE
  5
3E5
330
A
100
AcDbEntity
  8
0
  6
Continuous
 62
     7
100
AcDbLine
 10
1.885320207945052
 20
3.084131322009969
 30
0.0
 11
1.885320207945052
 21
3.084131322009969
 31
0.0
  0
LINE
  5
3E6
330
A
100
AcDbEntity
  8
0
  6
Continuous
 62
     7
100
AcDbLine
 10
1.864019199112386
 20
3.081326990996018
 30
0.0
 11
1.864019199112386
 21
3.081326990996018
 31
0.0
  0
LINE
  5
3E7
330
A
100
AcDbEntity
  8
0
  6
Continuous
 62
     7
100
AcDbLine
 10
2.061926785516675
 20
3.087147038709236
 30
0.0
 11
2.061926785516675
 21
3.087147038709236
 31
0.0
  0
LINE
  5
3E8
330
A
100
AcDbEntity
  8
0
  6
Continuous
 62
     7
100
AcDbLine
 10
2.047846930201889
 20
3.085293390591376
 30
0.0
 11
2.047846930201889
 21
3.085293390591376
 31
0.0
  0
LINE
  5
3E9
330
A
100
AcDbEntity
  8
0
  6
Continuous
 62
     7
100
AcDbLine
 10
2.012326661546371
 20
3.080617058507901
 30
0.0
 11
2.012326661546371
 21
3.080617058507901
 31
0.0
  0
LINE
  5
3EA
330
A
100
AcDbEntity
  8
0
  6
Continuous
 62
     7
100
AcDbLine
 10
1.991025652713705
 20
3.07781272749395
 30
0.0
 11
1.991025652713705
 21
3.07781272749395
 31
0.0
  0
LINE
  5
3EB
330
A
100
AcDbEntity
  8
0
  6
Continuous
 62
     7
100
AcDbLine
 10
1.976945797398919
 20
3.075959079376089
 30
0.0
 11
1.976945797398919
 21
3.075959079376089
 31
0.0
  0
LINE
  5
3EC
330
A
100
AcDbEntity
  8
0
  6
Continuous
 62
     7
100
AcDbLine
 10
1.941425528743401
 20
3.071282747292615
 30
0.0
 11
1.941425528743401
 21
3.071282747292615
 31
0.0
  0
LINE
  5
3ED
330
A
100
AcDbEntity
  8
0
  6
Continuous
 62
     7
100
AcDbLine
 10
1.920124519910736
 20
3.068478416278663
 30
0.0
 11
1.920124519910736
 21
3.068478416278663
 31
0.0
  0
LINE
  5
3EE
330
A
100
AcDbEntity
  8
0
  6
Continuous
 62
     7
100
AcDbLine
 10
1.90604466459595
 20
3.066624768160802
 30
0.0
 11
1.90604466459595
 21
3.066624768160802
 31
0.0
  0
LINE
  5
3EF
330
A
100
AcDbEntity
  8
0
  6
Continuous
 62
     7
100
AcDbLine
 10
1.870524395940432
 20
3.061948436077328
 30
0.0
 11
1.870524395940432
 21
3.061948436077328
 31
0.0
  0
LINE
  5
3F0
330
A
100
AcDbEntity
  8
0
  6
Continuous
 62
     7
100
AcDbLine
 10
2.06843198234472
 20
3.067768483790547
 30
0.0
 11
2.06843198234472
 21
3.067768483790547
 31
0.0
  0
LINE
  5
3F1
330
A
100
AcDbEntity
  8
0
  6
Continuous
 62
     7
100
AcDbLine
 10
2.047130973512055
 20
3.064964152776595
 30
0.0
 11
2.047130973512055
 21
3.064964152776595
 31
0.0
  0
LINE
  5
3F2
330
A
100
AcDbEntity
  8
0
  6
Continuous
 62
     7
100
AcDbLine
 10
2.033051118197269
 20
3.063110504658735
 30
0.0
 11
2.033051118197269
 21
3.063110504658735
 31
0.0
  0
LINE
  5
3F3
330
A
100
AcDbEntity
  8
0
  6
Continuous
 62
     7
100
AcDbLine
 10
1.99753084954175
 20
3.05843417257526
 30
0.0
 11
1.99753084954175
 21
3.05843417257526
 31
0.0
  0
LINE
  5
3F4
330
A
100
AcDbEntity
  8
0
  6
Continuous
 62
     7
100
AcDbLine
 10
1.976229840709085
 20
3.055629841561309
 30
0.0
 11
1.976229840709085
 21
3.055629841561309
 31
0.0
  0
LINE
  5
3F5
330
A
100
AcDbEntity
  8
0
  6
Continuous
 62
     7
100
AcDbLine
 10
1.962149985394299
 20
3.053776193443447
 30
0.0
 11
1.962149985394299
 21
3.053776193443447
 31
0.0
  0
LINE
  5
3F6
330
A
100
AcDbEntity
  8
0
  6
Continuous
 62
     7
100
AcDbLine
 10
1.926629716738781
 20
3.049099861359973
 30
0.0
 11
1.926629716738781
 21
3.049099861359973
 31
0.0
  0
LINE
  5
3F7
330
A
100
AcDbEntity
  8
0
  6
Continuous
 62
     7
100
AcDbLine
 10
1.905328707906115
 20
3.046295530346021
 30
0.0
 11
1.905328707906115
 21
3.046295530346021
 31
0.0
  0
LINE
  5
3F8
330
A
100
AcDbEntity
  8
0
  6
Continuous
 62
     7
100
AcDbLine
 10
1.89124885259133
 20
3.044441882228161
 30
0.0
 11
1.89124885259133
 21
3.044441882228161
 31
0.0
  0
LINE
  5
3F9
330
A
100
AcDbEntity
  8
0
  6
Continuous
 62
     7
100
AcDbLine
 10
1.855728583935811
 20
3.039765550144687
 30
0.0
 11
1.855728583935811
 21
3.039765550144687
 31
0.0
  0
LINE
  5
3FA
330
A
100
AcDbEntity
  8
0
  6
Continuous
 62
     7
100
AcDbLine
 10
2.089156438995618
 20
3.05026192994138
 30
0.0
 11
2.089156438995618
 21
3.05026192994138
 31
0.0
  0
LINE
  5
3FB
330
A
100
AcDbEntity
  8
0
  6
Continuous
 62
     7
100
AcDbLine
 10
2.0536361703401
 20
3.045585597857906
 30
0.0
 11
2.0536361703401
 21
3.045585597857906
 31
0.0
  0
LINE
  5
3FC
330
A
100
AcDbEntity
  8
0
  6
Continuous
 62
     7
100
AcDbLine
 10
2.032335161507434
 20
3.042781266843954
 30
0.0
 11
2.032335161507434
 21
3.042781266843954
 31
0.0
  0
LINE
  5
3FD
330
A
100
AcDbEntity
  8
0
  6
Continuous
 62
     7
100
AcDbLine
 10
2.018255306192648
 20
3.040927618726093
 30
0.0
 11
2.018255306192648
 21
3.040927618726093
 31
0.0
  0
LINE
  5
3FE
330
A
100
AcDbEntity
  8
0
  6
Continuous
 62
     7
100
AcDbLine
 10
1.98273503753713
 20
3.036251286642619
 30
0.0
 11
1.98273503753713
 21
3.036251286642619
 31
0.0
  0
LINE
  5
3FF
330
A
100
AcDbEntity
  8
0
  6
Continuous
 62
     7
100
AcDbLine
 10
1.961434028704465
 20
3.033446955628667
 30
0.0
 11
1.961434028704465
 21
3.033446955628667
 31
0.0
  0
LINE
  5
400
330
A
100
AcDbEntity
  8
0
  6
Continuous
 62
     7
100
AcDbLine
 10
1.947354173389679
 20
3.031593307510807
 30
0.0
 11
1.947354173389679
 21
3.031593307510807
 31
0.0
  0
LINE
  5
401
330
A
100
AcDbEntity
  8
0
  6
Continuous
 62
     7
100
AcDbLine
 10
1.911833904734161
 20
3.026916975427332
 30
0.0
 11
1.911833904734161
 21
3.026916975427332
 31
0.0
  0
LINE
  5
402
330
A
100
AcDbEntity
  8
0
  6
Continuous
 62
     7
100
AcDbLine
 10
1.890532895901495
 20
3.024112644413381
 30
0.0
 11
1.890532895901495
 21
3.024112644413381
 31
0.0
  0
LINE
  5
403
330
A
100
AcDbEntity
  8
0
  6
Continuous
 62
     7
100
AcDbLine
 10
1.876453040586709
 20
3.02225899629552
 30
0.0
 11
1.876453040586709
 21
3.02225899629552
 31
0.0
  0
LINE
  5
404
330
A
100
AcDbEntity
  8
0
  6
Continuous
 62
     7
100
AcDbLine
 10
2.088440482305784
 20
3.0299326921266
 30
0.0
 11
2.088440482305784
 21
3.0299326921266
 31
0.0
  0
LINE
  5
405
330
A
100
AcDbEntity
  8
0
  6
Continuous
 62
     7
100
AcDbLine
 10
2.074360626990998
 20
3.028079044008738
 30
0.0
 11
2.074360626990998
 21
3.028079044008738
 31
0.0
  0
LINE
  5
406
330
A
100
AcDbEntity
  8
0
  6
Continuous
 62
     7
100
AcDbLine
 10
2.038840358335479
 20
3.023402711925264
 30
0.0
 11
2.038840358335479
 21
3.023402711925264
 31
0.0
  0
LINE
  5
407
330
A
100
AcDbEntity
  8
0
  6
Continuous
 62
     7
100
AcDbLine
 10
2.017539349502814
 20
3.020598380911312
 30
0.0
 11
2.017539349502814
 21
3.020598380911312
 31
0.0
  0
LINE
  5
408
330
A
100
AcDbEntity
  8
0
  6
Continuous
 62
     7
100
AcDbLine
 10
2.003459494188029
 20
3.018744732793452
 30
0.0
 11
2.003459494188029
 21
3.018744732793452
 31
0.0
  0
LINE
  5
409
330
A
100
AcDbEntity
  8
0
  6
Continuous
 62
     7
100
AcDbLine
 10
1.96793922553251
 20
3.014068400709978
 30
0.0
 11
1.96793922553251
 21
3.014068400709978
 31
0.0
  0
LINE
  5
40A
330
A
100
AcDbEntity
  8
0
  6
Continuous
 62
     7
100
AcDbLine
 10
1.946638216699844
 20
3.011264069696026
 30
0.0
 11
1.946638216699844
 21
3.011264069696026
 31
0.0
  0
LINE
  5
40B
330
A
100
AcDbEntity
  8
0
  6
Continuous
 62
     7
100
AcDbLine
 10
1.932558361385059
 20
3.009410421578166
 30
0.0
 11
1.932558361385059
 21
3.009410421578166
 31
0.0
  0
LINE
  5
40C
330
A
100
AcDbEntity
  8
0
  6
Continuous
 62
     7
100
AcDbLine
 10
1.89703809272954
 20
3.004734089494691
 30
0.0
 11
1.89703809272954
 21
3.004734089494691
 31
0.0
  0
LINE
  5
40D
330
A
100
AcDbEntity
  8
0
  6
Continuous
 62
     7
100
AcDbLine
 10
1.875737083896875
 20
3.00192975848074
 30
0.0
 11
1.875737083896875
 21
3.00192975848074
 31
0.0
  0
LINE
  5
40E
330
A
100
AcDbEntity
  8
0
  6
Continuous
 62
     7
100
AcDbLine
 10
1.861657228582089
 20
3.000076110362879
 30
0.0
 11
1.861657228582089
 21
3.000076110362879
 31
0.0
  0
LINE
  5
40F
330
A
100
AcDbEntity
  8
0
  6
Continuous
 62
     7
100
AcDbLine
 10
2.073644670301163
 20
3.007749806193958
 30
0.0
 11
2.073644670301163
 21
3.007749806193958
 31
0.0
  0
LINE
  5
410
330
A
100
AcDbEntity
  8
0
  6
Continuous
 62
     7
100
AcDbLine
 10
2.059564814986378
 20
3.005896158076097
 30
0.0
 11
2.059564814986378
 21
3.005896158076097
 31
0.0
  0
LINE
  5
411
330
A
100
AcDbEntity
  8
0
  6
Continuous
 62
     7
100
AcDbLine
 10
2.024044546330859
 20
3.001219825992623
 30
0.0
 11
2.024044546330859
 21
3.001219825992623
 31
0.0
  0
LINE
  5
412
330
A
100
AcDbEntity
  8
0
  6
Continuous
 62
     7
100
AcDbLine
 10
2.002743537498194
 20
2.998415494978671
 30
0.0
 11
2.002743537498194
 21
2.998415494978671
 31
0.0
  0
LINE
  5
413
330
A
100
AcDbEntity
  8
0
  6
Continuous
 62
     7
100
AcDbLine
 10
1.988663682183408
 20
2.996561846860811
 30
0.0
 11
1.988663682183408
 21
2.996561846860811
 31
0.0
  0
LINE
  5
414
330
A
100
AcDbEntity
  8
0
  6
Continuous
 62
     7
100
AcDbLine
 10
1.95314341352789
 20
2.991885514777337
 30
0.0
 11
1.95314341352789
 21
2.991885514777337
 31
0.0
  0
LINE
  5
415
330
A
100
AcDbEntity
  8
0
  6
Continuous
 62
     7
100
AcDbLine
 10
1.931842404695224
 20
2.989081183763385
 30
0.0
 11
1.931842404695224
 21
2.989081183763385
 31
0.0
  0
LINE
  5
416
330
A
100
AcDbEntity
  8
0
  6
Continuous
 62
     7
100
AcDbLine
 10
1.917762549380439
 20
2.987227535645525
 30
0.0
 11
1.917762549380439
 21
2.987227535645525
 31
0.0
  0
LINE
  5
417
330
A
100
AcDbEntity
  8
0
  6
Continuous
 62
     7
100
AcDbLine
 10
1.88224228072492
 20
2.98255120356205
 30
0.0
 11
1.88224228072492
 21
2.98255120356205
 31
0.0
  0
LINE
  5
418
330
A
100
AcDbEntity
  8
0
  6
Continuous
 62
     7
100
AcDbLine
 10
1.860941271892254
 20
2.979746872548099
 30
0.0
 11
1.860941271892254
 21
2.979746872548099
 31
0.0
  0
LINE
  5
419
330
A
100
AcDbEntity
  8
0
  6
Continuous
 62
     7
100
AcDbLine
 10
2.080149867129209
 20
2.988371251275268
 30
0.0
 11
2.080149867129209
 21
2.988371251275268
 31
0.0
  0
LINE
  5
41A
330
A
100
AcDbEntity
  8
0
  6
Continuous
 62
     7
100
AcDbLine
 10
2.058848858296543
 20
2.985566920261317
 30
0.0
 11
2.058848858296543
 21
2.985566920261317
 31
0.0
  0
LINE
  5
41B
330
A
100
AcDbEntity
  8
0
  6
Continuous
 62
     7
100
AcDbLine
 10
2.044769002981758
 20
2.983713272143456
 30
0.0
 11
2.044769002981758
 21
2.983713272143456
 31
0.0
  0
LINE
  5
41C
330
A
100
AcDbEntity
  8
0
  6
Continuous
 62
     7
100
AcDbLine
 10
2.009248734326239
 20
2.979036940059982
 30
0.0
 11
2.009248734326239
 21
2.979036940059982
 31
0.0
  0
LINE
  5
41D
330
A
100
AcDbEntity
  8
0
  6
Continuous
 62
     7
100
AcDbLine
 10
1.987947725493573
 20
2.97623260904603
 30
0.0
 11
1.987947725493573
 21
2.97623260904603
 31
0.0
  0
LINE
  5
41E
330
A
100
AcDbEntity
  8
0
  6
Continuous
 62
     7
100
AcDbLine
 10
1.973867870178788
 20
2.97437896092817
 30
0.0
 11
1.973867870178788
 21
2.97437896092817
 31
0.0
  0
LINE
  5
41F
330
A
100
AcDbEntity
  8
0
  6
Continuous
 62
     7
100
AcDbLine
 10
1.938347601523269
 20
2.969702628844696
 30
0.0
 11
1.938347601523269
 21
2.969702628844696
 31
0.0
  0
LINE
  5
420
330
A
100
AcDbEntity
  8
0
  6
Continuous
 62
     7
100
AcDbLine
 10
1.917046592690604
 20
2.966898297830744
 30
0.0
 11
1.917046592690604
 21
2.966898297830744
 31
0.0
  0
LINE
  5
421
330
A
100
AcDbEntity
  8
0
  6
Continuous
 62
     7
100
AcDbLine
 10
1.902966737375818
 20
2.965044649712883
 30
0.0
 11
1.902966737375818
 21
2.965044649712883
 31
0.0
  0
LINE
  5
422
330
A
100
AcDbEntity
  8
0
  6
Continuous
 62
     7
100
AcDbLine
 10
1.8674464687203
 20
2.960368317629408
 30
0.0
 11
1.8674464687203
 21
2.960368317629408
 31
0.0
  0
LINE
  5
423
330
A
100
AcDbEntity
  8
0
  6
Continuous
 62
     7
100
AcDbLine
 10
2.065354055124589
 20
2.966188365342627
 30
0.0
 11
2.065354055124589
 21
2.966188365342627
 31
0.0
  0
LINE
  5
424
330
A
100
AcDbEntity
  8
0
  6
Continuous
 62
     7
100
AcDbLine
 10
2.044053046291923
 20
2.963384034328676
 30
0.0
 11
2.044053046291923
 21
2.963384034328676
 31
0.0
  0
LINE
  5
425
330
A
100
AcDbEntity
  8
0
  6
Continuous
 62
     7
100
AcDbLine
 10
2.029973190977137
 20
2.961530386210815
 30
0.0
 11
2.029973190977137
 21
2.961530386210815
 31
0.0
  0
LINE
  5
426
330
A
100
AcDbEntity
  8
0
  6
Continuous
 62
     7
100
AcDbLine
 10
1.994452922321619
 20
2.956854054127341
 30
0.0
 11
1.994452922321619
 21
2.956854054127341
 31
0.0
  0
LINE
  5
427
330
A
100
AcDbEntity
  8
0
  6
Continuous
 62
     7
100
AcDbLine
 10
1.973151913488953
 20
2.954049723113389
 30
0.0
 11
1.973151913488953
 21
2.954049723113389
 31
0.0
  0
LINE
  5
428
330
A
100
AcDbEntity
  8
0
  6
Continuous
 62
     7
100
AcDbLine
 10
1.959072058174168
 20
2.952196074995528
 30
0.0
 11
1.959072058174168
 21
2.952196074995528
 31
0.0
  0
LINE
  5
429
330
A
100
AcDbEntity
  8
0
  6
Continuous
 62
     7
100
AcDbLine
 10
1.923551789518649
 20
2.947519742912054
 30
0.0
 11
1.923551789518649
 21
2.947519742912054
 31
0.0
  0
LINE
  5
42A
330
A
100
AcDbEntity
  8
0
  6
Continuous
 62
     7
100
AcDbLine
 10
1.902250780685983
 20
2.944715411898102
 30
0.0
 11
1.902250780685983
 21
2.944715411898102
 31
0.0
  0
LINE
  5
42B
330
A
100
AcDbEntity
  8
0
  6
Continuous
 62
     7
100
AcDbLine
 10
1.888170925371198
 20
2.942861763780242
 30
0.0
 11
1.888170925371198
 21
2.942861763780242
 31
0.0
  0
LINE
  5
42C
330
A
100
AcDbEntity
  8
0
  6
Continuous
 62
     7
100
AcDbLine
 10
1.85265065671568
 20
2.938185431696767
 30
0.0
 11
1.85265065671568
 21
2.938185431696767
 31
0.0
  0
LINE
  5
42D
330
A
100
AcDbEntity
  8
0
  6
Continuous
 62
     7
100
AcDbLine
 10
1.887454968681363
 20
2.922532525965461
 30
0.0
 11
1.887454968681363
 21
2.922532525965461
 31
0.0
  0
LINE
  5
42E
330
A
100
AcDbEntity
  8
0
  6
Continuous
 62
     7
100
AcDbLine
 10
1.873375113366578
 20
2.920678877847601
 30
0.0
 11
1.873375113366578
 21
2.920678877847601
 31
0.0
  0
LINE
  5
42F
330
A
100
AcDbEntity
  8
0
  6
Continuous
 62
     7
100
AcDbLine
 10
2.086078511775486
 20
2.948681811493461
 30
0.0
 11
2.086078511775486
 21
2.948681811493461
 31
0.0
  0
LINE
  5
430
330
A
100
AcDbEntity
  8
0
  6
Continuous
 62
     7
100
AcDbLine
 10
2.050558243119968
 20
2.944005479409987
 30
0.0
 11
2.050558243119968
 21
2.944005479409987
 31
0.0
  0
LINE
  5
431
330
A
100
AcDbEntity
  8
0
  6
Continuous
 62
     7
100
AcDbLine
 10
2.029257234287302
 20
2.941201148396034
 30
0.0
 11
2.029257234287302
 21
2.941201148396034
 31
0.0
  0
LINE
  5
432
330
A
100
AcDbEntity
  8
0
  6
Continuous
 62
     7
100
AcDbLine
 10
2.015177378972517
 20
2.939347500278174
 30
0.0
 11
2.015177378972517
 21
2.939347500278174
 31
0.0
  0
LINE
  5
433
330
A
100
AcDbEntity
  8
0
  6
Continuous
 62
     7
100
AcDbLine
 10
1.979657110316999
 20
2.934671168194699
 30
0.0
 11
1.979657110316999
 21
2.934671168194699
 31
0.0
  0
LINE
  5
434
330
A
100
AcDbEntity
  8
0
  6
Continuous
 62
     7
100
AcDbLine
 10
1.958356101484333
 20
2.931866837180748
 30
0.0
 11
1.958356101484333
 21
2.931866837180748
 31
0.0
  0
LINE
  5
435
330
A
100
AcDbEntity
  8
0
  6
Continuous
 62
     7
100
AcDbLine
 10
1.944276246169547
 20
2.930013189062887
 30
0.0
 11
1.944276246169547
 21
2.930013189062887
 31
0.0
  0
LINE
  5
436
330
A
100
AcDbEntity
  8
0
  6
Continuous
 62
     7
100
AcDbLine
 10
1.893960165509409
 20
2.903153971046772
 30
0.0
 11
1.893960165509409
 21
2.903153971046772
 31
0.0
  0
LINE
  5
437
330
A
100
AcDbEntity
  8
0
  6
Continuous
 62
     7
100
AcDbLine
 10
1.872659156676743
 20
2.90034964003282
 30
0.0
 11
1.872659156676743
 21
2.90034964003282
 31
0.0
  0
LINE
  5
438
330
A
100
AcDbEntity
  8
0
  6
Continuous
 62
     7
100
AcDbLine
 10
1.858579301361957
 20
2.898495991914959
 30
0.0
 11
1.858579301361957
 21
2.898495991914959
 31
0.0
  0
LINE
  5
439
330
A
100
AcDbEntity
  8
0
  6
Continuous
 62
     7
100
AcDbLine
 10
2.085362555085652
 20
2.928352573678679
 30
0.0
 11
2.085362555085652
 21
2.928352573678679
 31
0.0
  0
LINE
  5
43A
330
A
100
AcDbEntity
  8
0
  6
Continuous
 62
     7
100
AcDbLine
 10
2.071282699770866
 20
2.926498925560819
 30
0.0
 11
2.071282699770866
 21
2.926498925560819
 31
0.0
  0
LINE
  5
43B
330
A
100
AcDbEntity
  8
0
  6
Continuous
 62
     7
100
AcDbLine
 10
1.950065486307758
 20
2.890305396329417
 30
0.0
 11
1.950065486307758
 21
2.890305396329417
 31
0.0
  0
LINE
  5
43C
330
A
100
AcDbEntity
  8
0
  6
Continuous
 62
     7
100
AcDbLine
 10
1.928764477475093
 20
2.887501065315466
 30
0.0
 11
1.928764477475093
 21
2.887501065315466
 31
0.0
  0
LINE
  5
43D
330
A
100
AcDbEntity
  8
0
  6
Continuous
 62
     7
100
AcDbLine
 10
1.914684622160307
 20
2.885647417197604
 30
0.0
 11
1.914684622160307
 21
2.885647417197604
 31
0.0
  0
LINE
  5
43E
330
A
100
AcDbEntity
  8
0
  6
Continuous
 62
     7
100
AcDbLine
 10
1.879164353504788
 20
2.880971085114131
 30
0.0
 11
1.879164353504788
 21
2.880971085114131
 31
0.0
  0
LINE
  5
43F
330
A
100
AcDbEntity
  8
0
  6
Continuous
 62
     7
100
AcDbLine
 10
1.857863344672123
 20
2.878166754100179
 30
0.0
 11
1.857863344672123
 21
2.878166754100179
 31
0.0
  0
LINE
  5
440
330
A
100
AcDbEntity
  8
0
  6
Continuous
 62
     7
100
AcDbLine
 10
2.070566743081032
 20
2.906169687746039
 30
0.0
 11
2.070566743081032
 21
2.906169687746039
 31
0.0
  0
LINE
  5
441
330
A
100
AcDbEntity
  8
0
  6
Continuous
 62
     7
100
AcDbLine
 10
2.056486887766246
 20
2.904316039628178
 30
0.0
 11
2.056486887766246
 21
2.904316039628178
 31
0.0
  0
LINE
  5
442
330
A
100
AcDbEntity
  8
0
  6
Continuous
 62
     7
100
AcDbLine
 10
2.020966619110728
 20
2.899639707544704
 30
0.0
 11
2.020966619110728
 21
2.899639707544704
 31
0.0
  0
LINE
  5
443
330
A
100
AcDbEntity
  8
0
  6
Continuous
 62
     7
100
AcDbLine
 10
1.999665610278062
 20
2.896835376530752
 30
0.0
 11
1.999665610278062
 21
2.896835376530752
 31
0.0
  0
LINE
  5
444
330
A
100
AcDbEntity
  8
0
  6
Continuous
 62
     7
100
AcDbLine
 10
1.985585754963276
 20
2.894981728412892
 30
0.0
 11
1.985585754963276
 21
2.894981728412892
 31
0.0
  0
LINE
  5
445
330
A
100
AcDbEntity
  8
0
  6
Continuous
 62
     7
100
AcDbLine
 10
1.935269674303138
 20
2.868122510396776
 30
0.0
 11
1.935269674303138
 21
2.868122510396776
 31
0.0
  0
LINE
  5
446
330
A
100
AcDbEntity
  8
0
  6
Continuous
 62
     7
100
AcDbLine
 10
1.913968665470472
 20
2.865318179382825
 30
0.0
 11
1.913968665470472
 21
2.865318179382825
 31
0.0
  0
LINE
  5
447
330
A
100
AcDbEntity
  8
0
  6
Continuous
 62
     7
100
AcDbLine
 10
1.899888810155686
 20
2.863464531264964
 30
0.0
 11
1.899888810155686
 21
2.863464531264964
 31
0.0
  0
LINE
  5
448
330
A
100
AcDbEntity
  8
0
  6
Continuous
 62
     7
100
AcDbLine
 10
2.077071939909077
 20
2.886791132827349
 30
0.0
 11
2.077071939909077
 21
2.886791132827349
 31
0.0
  0
LINE
  5
449
330
A
100
AcDbEntity
  8
0
  6
Continuous
 62
     7
100
AcDbLine
 10
2.055770931076411
 20
2.883986801813398
 30
0.0
 11
2.055770931076411
 21
2.883986801813398
 31
0.0
  0
LINE
  5
44A
330
A
100
AcDbEntity
  8
0
  6
Continuous
 62
     7
100
AcDbLine
 10
2.041691075761626
 20
2.882133153695537
 30
0.0
 11
2.041691075761626
 21
2.882133153695537
 31
0.0
  0
LINE
  5
44B
330
A
100
AcDbEntity
  8
0
  6
Continuous
 62
     7
100
AcDbLine
 10
2.006170807106107
 20
2.877456821612063
 30
0.0
 11
2.006170807106107
 21
2.877456821612063
 31
0.0
  0
LINE
  5
44C
330
A
100
AcDbEntity
  8
0
  6
Continuous
 62
     7
100
AcDbLine
 10
1.984869798273442
 20
2.874652490598111
 30
0.0
 11
1.984869798273442
 21
2.874652490598111
 31
0.0
  0
LINE
  5
44D
330
A
100
AcDbEntity
  8
0
  6
Continuous
 62
     7
100
AcDbLine
 10
1.955994130954035
 20
2.850615956547609
 30
0.0
 11
1.955994130954035
 21
2.850615956547609
 31
0.0
  0
LINE
  5
44E
330
A
100
AcDbEntity
  8
0
  6
Continuous
 62
     7
100
AcDbLine
 10
1.991374995101487
 20
2.855273935679422
 30
0.0
 11
1.991374995101487
 21
2.855273935679422
 31
0.0
  0
LINE
  5
44F
330
A
100
AcDbEntity
  8
0
  6
Continuous
 62
     7
100
AcDbLine
 10
2.062276127904457
 20
2.864608246894708
 30
0.0
 11
2.062276127904457
 21
2.864608246894708
 31
0.0
  0
LINE
  5
450
330
A
100
AcDbEntity
  8
0
  6
Continuous
 62
     7
100
AcDbLine
 10
1.955278174264201
 20
2.830286718732828
 30
0.0
 11
1.955278174264201
 21
2.830286718732828
 31
0.0
  0
LINE
  5
451
330
A
100
AcDbEntity
  8
0
  6
Continuous
 62
     7
100
AcDbLine
 10
1.997303639747765
 20
2.815584495897613
 30
0.0
 11
1.997303639747765
 21
2.815584495897613
 31
0.0
  0
LINE
  5
452
330
A
100
AcDbEntity
  8
0
  6
Continuous
 62
     7
100
AcDbLine
 10
2.042508032168804
 20
3.126318038544432
 30
0.0
 11
2.042508032168804
 21
3.126318038544432
 31
0.0
  0
LINE
  5
453
330
A
100
AcDbEntity
  8
0
  6
Continuous
 62
     7
100
AcDbLine
 10
2.030649322300794
 20
3.133872869932886
 30
0.0
 11
2.030649322300794
 21
3.133872869932886
 31
0.0
  0
LINE
  5
454
330
A
100
AcDbEntity
  8
0
  6
Continuous
 62
     7
100
AcDbLine
 10
2.049483447892181
 20
3.104015517578395
 30
0.0
 11
2.049483447892181
 21
3.104015517578395
 31
0.0
  0
LINE
  5
455
330
A
100
AcDbEntity
  8
0
  6
Continuous
 62
     7
100
AcDbLine
 10
2.012484273103989
 20
3.127586591510371
 30
0.0
 11
2.012484273103989
 21
3.127586591510371
 31
0.0
  0
LINE
  5
456
330
A
100
AcDbEntity
  8
0
  6
Continuous
 62
     7
100
AcDbLine
 10
2.000625563235979
 20
3.135141422898825
 30
0.0
 11
2.000625563235979
 21
3.135141422898825
 31
0.0
  0
LINE
  5
457
330
A
100
AcDbEntity
  8
0
  6
Continuous
 62
     7
100
AcDbLine
 10
2.080413457548938
 20
3.066452237207681
 30
0.0
 11
2.080413457548938
 21
3.066452237207681
 31
0.0
  0
LINE
  5
458
330
A
100
AcDbEntity
  8
0
  6
Continuous
 62
     7
100
AcDbLine
 10
2.068554747680928
 20
3.074007068596135
 30
0.0
 11
2.068554747680928
 21
3.074007068596135
 31
0.0
  0
LINE
  5
459
330
A
100
AcDbEntity
  8
0
  6
Continuous
 62
     7
100
AcDbLine
 10
2.019459688827366
 20
3.105284070544334
 30
0.0
 11
2.019459688827366
 21
3.105284070544334
 31
0.0
  0
LINE
  5
45A
330
A
100
AcDbEntity
  8
0
  6
Continuous
 62
     7
100
AcDbLine
 10
1.982460514039174
 20
3.128855144476309
 30
0.0
 11
1.982460514039174
 21
3.128855144476309
 31
0.0
  0
LINE
  5
45B
330
A
100
AcDbEntity
  8
0
  6
Continuous
 62
     7
100
AcDbLine
 10
1.970601804171164
 20
3.136409975864762
 30
0.0
 11
1.970601804171164
 21
3.136409975864762
 31
0.0
  0
LINE
  5
45C
330
A
100
AcDbEntity
  8
0
  6
Continuous
 62
     7
100
AcDbLine
 10
2.087388873272315
 20
3.044149716241644
 30
0.0
 11
2.087388873272315
 21
3.044149716241644
 31
0.0
  0
LINE
  5
45D
330
A
100
AcDbEntity
  8
0
  6
Continuous
 62
     7
100
AcDbLine
 10
2.050389698484123
 20
3.06772079017362
 30
0.0
 11
2.050389698484123
 21
3.06772079017362
 31
0.0
  0
LINE
  5
45E
330
A
100
AcDbEntity
  8
0
  6
Continuous
 62
     7
100
AcDbLine
 10
2.038530988616113
 20
3.075275621562074
 30
0.0
 11
2.038530988616113
 21
3.075275621562074
 31
0.0
  0
LINE
  5
45F
330
A
100
AcDbEntity
  8
0
  6
Continuous
 62
     7
100
AcDbLine
 10
1.989435929762551
 20
3.106552623510271
 30
0.0
 11
1.989435929762551
 21
3.106552623510271
 31
0.0
  0
LINE
  5
460
330
A
100
AcDbEntity
  8
0
  6
Continuous
 62
     7
100
AcDbLine
 10
1.952436754974359
 20
3.130123697442247
 30
0.0
 11
1.952436754974359
 21
3.130123697442247
 31
0.0
  0
LINE
  5
461
330
A
100
AcDbEntity
  8
0
  6
Continuous
 62
     7
100
AcDbLine
 10
1.940578045106349
 20
3.137678528830701
 30
0.0
 11
1.940578045106349
 21
3.137678528830701
 31
0.0
  0
LINE
  5
462
330
A
100
AcDbEntity
  8
0
  6
Continuous
 62
     7
100
AcDbLine
 10
2.0573651142075
 20
3.045418269207583
 30
0.0
 11
2.0573651142075
 21
3.045418269207583
 31
0.0
  0
LINE
  5
463
330
A
100
AcDbEntity
  8
0
  6
Continuous
 62
     7
100
AcDbLine
 10
2.020365939419308
 20
3.068989343139558
 30
0.0
 11
2.020365939419308
 21
3.068989343139558
 31
0.0
  0
LINE
  5
464
330
A
100
AcDbEntity
  8
0
  6
Continuous
 62
     7
100
AcDbLine
 10
2.008507229551299
 20
3.076544174528011
 30
0.0
 11
2.008507229551299
 21
3.076544174528011
 31
0.0
  0
LINE
  5
465
330
A
100
AcDbEntity
  8
0
  6
Continuous
 62
     7
100
AcDbLine
 10
1.959412170697736
 20
3.10782117647621
 30
0.0
 11
1.959412170697736
 21
3.10782117647621
 31
0.0
  0
LINE
  5
466
330
A
100
AcDbEntity
  8
0
  6
Continuous
 62
     7
100
AcDbLine
 10
1.922412995909544
 20
3.131392250408185
 30
0.0
 11
1.922412995909544
 21
3.131392250408185
 31
0.0
  0
LINE
  5
467
330
A
100
AcDbEntity
  8
0
  6
Continuous
 62
     7
100
AcDbLine
 10
2.088295123864258
 20
3.007854988836869
 30
0.0
 11
2.088295123864258
 21
3.007854988836869
 31
0.0
  0
LINE
  5
468
330
A
100
AcDbEntity
  8
0
  6
Continuous
 62
     7
100
AcDbLine
 10
2.076436413996248
 20
3.015409820225323
 30
0.0
 11
2.076436413996248
 21
3.015409820225323
 31
0.0
  0
LINE
  5
469
330
A
100
AcDbEntity
  8
0
  6
Continuous
 62
     7
100
AcDbLine
 10
2.027341355142686
 20
3.046686822173521
 30
0.0
 11
2.027341355142686
 21
3.046686822173521
 31
0.0
  0
LINE
  5
46A
330
A
100
AcDbEntity
  8
0
  6
Continuous
 62
     7
100
AcDbLine
 10
1.990342180354494
 20
3.070257896105496
 30
0.0
 11
1.990342180354494
 21
3.070257896105496
 31
0.0
  0
LINE
  5
46B
330
A
100
AcDbEntity
  8
0
  6
Continuous
 62
     7
100
AcDbLine
 10
1.978483470486484
 20
3.07781272749395
 30
0.0
 11
1.978483470486484
 21
3.07781272749395
 31
0.0
  0
LINE
  5
46C
330
A
100
AcDbEntity
  8
0
  6
Continuous
 62
     7
100
AcDbLine
 10
1.929388411632921
 20
3.109089729442148
 30
0.0
 11
1.929388411632921
 21
3.109089729442148
 31
0.0
  0
LINE
  5
46D
330
A
100
AcDbEntity
  8
0
  6
Continuous
 62
     7
100
AcDbLine
 10
2.058271364799443
 20
3.009123541802807
 30
0.0
 11
2.058271364799443
 21
3.009123541802807
 31
0.0
  0
LINE
  5
46E
330
A
100
AcDbEntity
  8
0
  6
Continuous
 62
     7
100
AcDbLine
 10
2.046412654931433
 20
3.01667837319126
 30
0.0
 11
2.046412654931433
 21
3.01667837319126
 31
0.0
  0
LINE
  5
46F
330
A
100
AcDbEntity
  8
0
  6
Continuous
 62
     7
100
AcDbLine
 10
1.997317596077871
 20
3.047955375139459
 30
0.0
 11
1.997317596077871
 21
3.047955375139459
 31
0.0
  0
LINE
  5
470
330
A
100
AcDbEntity
  8
0
  6
Continuous
 62
     7
100
AcDbLine
 10
1.960318421289679
 20
3.071526449071434
 30
0.0
 11
1.960318421289679
 21
3.071526449071434
 31
0.0
  0
LINE
  5
471
330
A
100
AcDbEntity
  8
0
  6
Continuous
 62
     7
100
AcDbLine
 10
1.948459711421669
 20
3.079081280459888
 30
0.0
 11
1.948459711421669
 21
3.079081280459888
 31
0.0
  0
LINE
  5
472
330
A
100
AcDbEntity
  8
0
  6
Continuous
 62
     7
100
AcDbLine
 10
1.899364652568106
 20
3.110358282408086
 30
0.0
 11
1.899364652568106
 21
3.110358282408086
 31
0.0
  0
LINE
  5
473
330
A
100
AcDbEntity
  8
0
  6
Continuous
 62
     7
100
AcDbLine
 10
2.06524678052282
 20
2.98682102083677
 30
0.0
 11
2.06524678052282
 21
2.98682102083677
 31
0.0
  0
LINE
  5
474
330
A
100
AcDbEntity
  8
0
  6
Continuous
 62
     7
100
AcDbLine
 10
2.028247605734628
 20
3.010392094768745
 30
0.0
 11
2.028247605734628
 21
3.010392094768745
 31
0.0
  0
LINE
  5
475
330
A
100
AcDbEntity
  8
0
  6
Continuous
 62
     7
100
AcDbLine
 10
2.016388895866618
 20
3.017946926157199
 30
0.0
 11
2.016388895866618
 21
3.017946926157199
 31
0.0
  0
LINE
  5
476
330
A
100
AcDbEntity
  8
0
  6
Continuous
 62
     7
100
AcDbLine
 10
1.967293837013056
 20
3.049223928105397
 30
0.0
 11
1.967293837013056
 21
3.049223928105397
 31
0.0
  0
LINE
  5
477
330
A
100
AcDbEntity
  8
0
  6
Continuous
 62
     7
100
AcDbLine
 10
1.930294662224864
 20
3.072795002037373
 30
0.0
 11
1.930294662224864
 21
3.072795002037373
 31
0.0
  0
LINE
  5
478
330
A
100
AcDbEntity
  8
0
  6
Continuous
 62
     7
100
AcDbLine
 10
1.918435952356854
 20
3.080349833425826
 30
0.0
 11
1.918435952356854
 21
3.080349833425826
 31
0.0
  0
LINE
  5
479
330
A
100
AcDbEntity
  8
0
  6
Continuous
 62
     7
100
AcDbLine
 10
2.084318080311567
 20
2.956812571854509
 30
0.0
 11
2.084318080311567
 21
2.956812571854509
 31
0.0
  0
LINE
  5
47A
330
A
100
AcDbEntity
  8
0
  6
Continuous
 62
     7
100
AcDbLine
 10
2.035223021458005
 20
2.988089573802708
 30
0.0
 11
2.035223021458005
 21
2.988089573802708
 31
0.0
  0
LINE
  5
47B
330
A
100
AcDbEntity
  8
0
  6
Continuous
 62
     7
100
AcDbLine
 10
1.998223846669813
 20
3.011660647734683
 30
0.0
 11
1.998223846669813
 21
3.011660647734683
 31
0.0
  0
LINE
  5
47C
330
A
100
AcDbEntity
  8
0
  6
Continuous
 62
     7
100
AcDbLine
 10
1.986365136801803
 20
3.019215479123137
 30
0.0
 11
1.986365136801803
 21
3.019215479123137
 31
0.0
  0
LINE
  5
47D
330
A
100
AcDbEntity
  8
0
  6
Continuous
 62
     7
100
AcDbLine
 10
1.937270077948241
 20
3.050492481071335
 30
0.0
 11
1.937270077948241
 21
3.050492481071335
 31
0.0
  0
LINE
  5
47E
330
A
100
AcDbEntity
  8
0
  6
Continuous
 62
     7
100
AcDbLine
 10
1.900270903160049
 20
3.074063555003311
 30
0.0
 11
1.900270903160049
 21
3.074063555003311
 31
0.0
  0
LINE
  5
47F
330
A
100
AcDbEntity
  8
0
  6
Continuous
 62
     7
100
AcDbLine
 10
1.888412193292039
 20
3.081618386391764
 30
0.0
 11
1.888412193292039
 21
3.081618386391764
 31
0.0
  0
LINE
  5
480
330
A
100
AcDbEntity
  8
0
  6
Continuous
 62
     7
100
AcDbLine
 10
2.066153031114763
 20
2.950526293431994
 30
0.0
 11
2.066153031114763
 21
2.950526293431994
 31
0.0
  0
LINE
  5
481
330
A
100
AcDbEntity
  8
0
  6
Continuous
 62
     7
100
AcDbLine
 10
2.054294321246752
 20
2.958081124820448
 30
0.0
 11
2.054294321246752
 21
2.958081124820448
 31
0.0
  0
LINE
  5
482
330
A
100
AcDbEntity
  8
0
  6
Continuous
 62
     7
100
AcDbLine
 10
2.00519926239319
 20
2.989358126768646
 30
0.0
 11
2.00519926239319
 21
2.989358126768646
 31
0.0
  0
LINE
  5
483
330
A
100
AcDbEntity
  8
0
  6
Continuous
 62
     7
100
AcDbLine
 10
1.968200087604998
 20
3.012929200700622
 30
0.0
 11
1.968200087604998
 21
3.012929200700622
 31
0.0
  0
LINE
  5
484
330
A
100
AcDbEntity
  8
0
  6
Continuous
 62
     7
100
AcDbLine
 10
1.956341377736988
 20
3.020484032089075
 30
0.0
 11
1.956341377736988
 21
3.020484032089075
 31
0.0
  0
LINE
  5
485
330
A
100
AcDbEntity
  8
0
  6
Continuous
 62
     7
100
AcDbLine
 10
1.907246318883426
 20
3.051761034037273
 30
0.0
 11
1.907246318883426
 21
3.051761034037273
 31
0.0
  0
LINE
  5
486
330
A
100
AcDbEntity
  8
0
  6
Continuous
 62
     7
100
AcDbLine
 10
1.870247144095234
 20
3.075332107969249
 30
0.0
 11
1.870247144095234
 21
3.075332107969249
 31
0.0
  0
LINE
  5
487
330
A
100
AcDbEntity
  8
0
  6
Continuous
 62
     7
100
AcDbLine
 10
2.073128446838139
 20
2.928223772465956
 30
0.0
 11
2.073128446838139
 21
2.928223772465956
 31
0.0
  0
LINE
  5
488
330
A
100
AcDbEntity
  8
0
  6
Continuous
 62
     7
100
AcDbLine
 10
2.036129272049948
 20
2.951794846397932
 30
0.0
 11
2.036129272049948
 21
2.951794846397932
 31
0.0
  0
LINE
  5
489
330
A
100
AcDbEntity
  8
0
  6
Continuous
 62
     7
100
AcDbLine
 10
2.024270562181937
 20
2.959349677786386
 30
0.0
 11
2.024270562181937
 21
2.959349677786386
 31
0.0
  0
LINE
  5
48A
330
A
100
AcDbEntity
  8
0
  6
Continuous
 62
     7
100
AcDbLine
 10
1.975175503328375
 20
2.990626679734584
 30
0.0
 11
1.975175503328375
 21
2.990626679734584
 31
0.0
  0
LINE
  5
48B
330
A
100
AcDbEntity
  8
0
  6
Continuous
 62
     7
100
AcDbLine
 10
1.938176328540183
 20
3.014197753666559
 30
0.0
 11
1.938176328540183
 21
3.014197753666559
 31
0.0
  0
LINE
  5
48C
330
A
100
AcDbEntity
  8
0
  6
Continuous
 62
     7
100
AcDbLine
 10
1.926317618672173
 20
3.021752585055013
 30
0.0
 11
1.926317618672173
 21
3.021752585055013
 31
0.0
  0
LINE
  5
48D
330
A
100
AcDbEntity
  8
0
  6
Continuous
 62
     7
100
AcDbLine
 10
1.877222559818611
 20
3.053029587003211
 30
0.0
 11
1.877222559818611
 21
3.053029587003211
 31
0.0
  0
LINE
  5
48E
330
A
100
AcDbEntity
  8
0
  6
Continuous
 62
     7
100
AcDbLine
 10
2.043104687773324
 20
2.929492325431895
 30
0.0
 11
2.043104687773324
 21
2.929492325431895
 31
0.0
  0
LINE
  5
48F
330
A
100
AcDbEntity
  8
0
  6
Continuous
 62
     7
100
AcDbLine
 10
2.006105512985133
 20
2.953063399363871
 30
0.0
 11
2.006105512985133
 21
2.953063399363871
 31
0.0
  0
LINE
  5
490
330
A
100
AcDbEntity
  8
0
  6
Continuous
 62
     7
100
AcDbLine
 10
1.994246803117123
 20
2.960618230752324
 30
0.0
 11
1.994246803117123
 21
2.960618230752324
 31
0.0
  0
LINE
  5
491
330
A
100
AcDbEntity
  8
0
  6
Continuous
 62
     7
100
AcDbLine
 10
1.94515174426356
 20
2.991895232700522
 30
0.0
 11
1.94515174426356
 21
2.991895232700522
 31
0.0
  0
LINE
  5
492
330
A
100
AcDbEntity
  8
0
  6
Continuous
 62
     7
100
AcDbLine
 10
1.908152569475369
 20
3.015466306632498
 30
0.0
 11
1.908152569475369
 21
3.015466306632498
 31
0.0
  0
LINE
  5
493
330
A
100
AcDbEntity
  8
0
  6
Continuous
 62
     7
100
AcDbLine
 10
1.896293859607358
 20
3.023021138020951
 30
0.0
 11
1.896293859607358
 21
3.023021138020951
 31
0.0
  0
LINE
  5
494
330
A
100
AcDbEntity
  8
0
  6
Continuous
 62
     7
100
AcDbLine
 10
2.01308092870851
 20
2.930760878397833
 30
0.0
 11
2.01308092870851
 21
2.930760878397833
 31
0.0
  0
LINE
  5
495
330
A
100
AcDbEntity
  8
0
  6
Continuous
 62
     7
100
AcDbLine
 10
1.976081753920318
 20
2.954331952329809
 30
0.0
 11
1.976081753920318
 21
2.954331952329809
 31
0.0
  0
LINE
  5
496
330
A
100
AcDbEntity
  8
0
  6
Continuous
 62
     7
100
AcDbLine
 10
1.964223044052308
 20
2.961886783718262
 30
0.0
 11
1.964223044052308
 21
2.961886783718262
 31
0.0
  0
LINE
  5
497
330
A
100
AcDbEntity
  8
0
  6
Continuous
 62
     7
100
AcDbLine
 10
1.915127985198746
 20
2.99316378566646
 30
0.0
 11
1.915127985198746
 21
2.99316378566646
 31
0.0
  0
LINE
  5
498
330
A
100
AcDbEntity
  8
0
  6
Continuous
 62
     7
100
AcDbLine
 10
1.878128810410554
 20
3.016734859598436
 30
0.0
 11
1.878128810410554
 21
3.016734859598436
 31
0.0
  0
LINE
  5
499
330
A
100
AcDbEntity
  8
0
  6
Continuous
 62
     7
100
AcDbLine
 10
1.866270100542544
 20
3.02428969098689
 30
0.0
 11
1.866270100542544
 21
3.02428969098689
 31
0.0
  0
LINE
  5
49A
330
A
100
AcDbEntity
  8
0
  6
Continuous
 62
     7
100
AcDbLine
 10
2.074034697430082
 20
2.891929045061181
 30
0.0
 11
2.074034697430082
 21
2.891929045061181
 31
0.0
  0
LINE
  5
49B
330
A
100
AcDbEntity
  8
0
  6
Continuous
 62
     7
100
AcDbLine
 10
2.062175987562072
 20
2.899483876449635
 30
0.0
 11
2.062175987562072
 21
2.899483876449635
 31
0.0
  0
LINE
  5
49C
330
A
100
AcDbEntity
  8
0
  6
Continuous
 62
     7
100
AcDbLine
 10
1.983057169643695
 20
2.932029431363771
 30
0.0
 11
1.983057169643695
 21
2.932029431363771
 31
0.0
  0
LINE
  5
49D
330
A
100
AcDbEntity
  8
0
  6
Continuous
 62
     7
100
AcDbLine
 10
1.946057994855503
 20
2.955600505295747
 30
0.0
 11
1.946057994855503
 21
2.955600505295747
 31
0.0
  0
LINE
  5
49E
330
A
100
AcDbEntity
  8
0
  6
Continuous
 62
     7
100
AcDbLine
 10
1.934199284987493
 20
2.9631553366842
 30
0.0
 11
1.934199284987493
 21
2.9631553366842
 31
0.0
  0
LINE
  5
49F
330
A
100
AcDbEntity
  8
0
  6
Continuous
 62
     7
100
AcDbLine
 10
1.885104226133931
 20
2.994432338632399
 30
0.0
 11
1.885104226133931
 21
2.994432338632399
 31
0.0
  0
LINE
  5
4A0
330
A
100
AcDbEntity
  8
0
  6
Continuous
 62
     7
100
AcDbLine
 10
2.081010113153459
 20
2.869626524095144
 30
0.0
 11
2.081010113153459
 21
2.869626524095144
 31
0.0
  0
LINE
  5
4A1
330
A
100
AcDbEntity
  8
0
  6
Continuous
 62
     7
100
AcDbLine
 10
2.044010938365267
 20
2.89319759802712
 30
0.0
 11
2.044010938365267
 21
2.89319759802712
 31
0.0
  0
LINE
  5
4A2
330
A
100
AcDbEntity
  8
0
  6
Continuous
 62
     7
100
AcDbLine
 10
2.032152228497257
 20
2.900752429415573
 30
0.0
 11
2.032152228497257
 21
2.900752429415573
 31
0.0
  0
LINE
  5
4A3
330
A
100
AcDbEntity
  8
0
  6
Continuous
 62
     7
100
AcDbLine
 10
1.95303341057888
 20
2.933297984329709
 30
0.0
 11
1.95303341057888
 21
2.933297984329709
 31
0.0
  0
LINE
  5
4A4
330
A
100
AcDbEntity
  8
0
  6
Continuous
 62
     7
100
AcDbLine
 10
1.916034235790688
 20
2.956869058261685
 30
0.0
 11
1.916034235790688
 21
2.956869058261685
 31
0.0
  0
LINE
  5
4A5
330
A
100
AcDbEntity
  8
0
  6
Continuous
 62
     7
100
AcDbLine
 10
1.904175525922678
 20
2.964423889650139
 30
0.0
 11
1.904175525922678
 21
2.964423889650139
 31
0.0
  0
LINE
  5
4A6
330
A
100
AcDbEntity
  8
0
  6
Continuous
 62
     7
100
AcDbLine
 10
1.855080467069116
 20
2.995700891598336
 30
0.0
 11
1.855080467069116
 21
2.995700891598336
 31
0.0
  0
LINE
  5
4A7
330
A
100
AcDbEntity
  8
0
  6
Continuous
 62
     7
100
AcDbLine
 10
2.050986354088644
 20
2.870895077061082
 30
0.0
 11
2.050986354088644
 21
2.870895077061082
 31
0.0
  0
LINE
  5
4A8
330
A
100
AcDbEntity
  8
0
  6
Continuous
 62
     7
100
AcDbLine
 10
2.013987179300452
 20
2.894466150993057
 30
0.0
 11
2.013987179300452
 21
2.894466150993057
 31
0.0
  0
LINE
  5
4A9
330
A
100
AcDbEntity
  8
0
  6
Continuous
 62
     7
100
AcDbLine
 10
2.002128469432442
 20
2.902020982381511
 30
0.0
 11
2.002128469432442
 21
2.902020982381511
 31
0.0
  0
LINE
  5
4AA
330
A
100
AcDbEntity
  8
0
  6
Continuous
 62
     7
100
AcDbLine
 10
1.923009651514065
 20
2.934566537295648
 30
0.0
 11
1.923009651514065
 21
2.934566537295648
 31
0.0
  0
LINE
  5
4AB
330
A
100
AcDbEntity
  8
0
  6
Continuous
 62
     7
100
AcDbLine
 10
1.886010476725873
 20
2.958137611227623
 30
0.0
 11
1.886010476725873
 21
2.958137611227623
 31
0.0
  0
LINE
  5
4AC
330
A
100
AcDbEntity
  8
0
  6
Continuous
 62
     7
100
AcDbLine
 10
1.874151766857863
 20
2.965692442616076
 30
0.0
 11
1.874151766857863
 21
2.965692442616076
 31
0.0
  0
LINE
  5
4AD
330
A
100
AcDbEntity
  8
0
  6
Continuous
 62
     7
100
AcDbLine
 10
2.020962595023829
 20
2.872163630027021
 30
0.0
 11
2.020962595023829
 21
2.872163630027021
 31
0.0
  0
LINE
  5
4AE
330
A
100
AcDbEntity
  8
0
  6
Continuous
 62
     7
100
AcDbLine
 10
1.983963420235637
 20
2.895734703958996
 30
0.0
 11
1.983963420235637
 21
2.895734703958996
 31
0.0
  0
LINE
  5
4AF
330
A
100
AcDbEntity
  8
0
  6
Continuous
 62
     7
100
AcDbLine
 10
1.89298589244925
 20
2.935835090261585
 30
0.0
 11
1.89298589244925
 21
2.935835090261585
 31
0.0
  0
LINE
  5
4B0
330
A
100
AcDbEntity
  8
0
  6
Continuous
 62
     7
100
AcDbLine
 10
1.855986717661058
 20
2.959406164193561
 30
0.0
 11
1.855986717661058
 21
2.959406164193561
 31
0.0
  0
LINE
  5
4B1
330
A
100
AcDbEntity
  8
0
  6
Continuous
 62
     7
100
AcDbLine
 10
1.953939661170823
 20
2.897003256924934
 30
0.0
 11
1.953939661170823
 21
2.897003256924934
 31
0.0
  0
LINE
  5
4B2
330
A
100
AcDbEntity
  8
0
  6
Continuous
 62
     7
100
AcDbLine
 10
1.942080951302812
 20
2.904558088313388
 30
0.0
 11
1.942080951302812
 21
2.904558088313388
 31
0.0
  0
LINE
  5
4B3
330
A
100
AcDbEntity
  8
0
  6
Continuous
 62
     7
100
AcDbLine
 10
1.990938835959014
 20
2.873432182992958
 30
0.0
 11
1.990938835959014
 21
2.873432182992958
 31
0.0
  0
LINE
  5
4B4
330
A
100
AcDbEntity
  8
0
  6
Continuous
 62
     7
100
AcDbLine
 10
1.862962133384435
 20
2.937103643227524
 30
0.0
 11
1.862962133384435
 21
2.937103643227524
 31
0.0
  0
LINE
  5
4B5
330
A
100
AcDbEntity
  8
0
  6
Continuous
 62
     7
100
AcDbLine
 10
1.960915076894199
 20
2.874700735958897
 30
0.0
 11
1.960915076894199
 21
2.874700735958897
 31
0.0
  0
LINE
  5
4B6
330
A
100
AcDbEntity
  8
0
  6
Continuous
 62
     7
100
AcDbLine
 10
1.923915902106008
 20
2.898271809890872
 30
0.0
 11
1.923915902106008
 21
2.898271809890872
 31
0.0
  0
LINE
  5
4B7
330
A
100
AcDbEntity
  8
0
  6
Continuous
 62
     7
100
AcDbLine
 10
1.912057192237997
 20
2.905826641279325
 30
0.0
 11
1.912057192237997
 21
2.905826641279325
 31
0.0
  0
LINE
  5
4B8
330
A
100
AcDbEntity
  8
0
  6
Continuous
 62
     7
100
AcDbLine
 10
1.930891317829384
 20
2.875969288924835
 30
0.0
 11
1.930891317829384
 21
2.875969288924835
 31
0.0
  0
LINE
  5
4B9
330
A
100
AcDbEntity
  8
0
  6
Continuous
 62
     7
100
AcDbLine
 10
1.893892143041193
 20
2.89954036285681
 30
0.0
 11
1.893892143041193
 21
2.89954036285681
 31
0.0
  0
LINE
  5
4BA
330
A
100
AcDbEntity
  8
0
  6
Continuous
 62
     7
100
AcDbLine
 10
1.882033433173182
 20
2.907095194245264
 30
0.0
 11
1.882033433173182
 21
2.907095194245264
 31
0.0
  0
LINE
  5
4BB
330
A
100
AcDbEntity
  8
0
  6
Continuous
 62
     7
100
AcDbLine
 10
1.991845086550957
 20
2.837137455588183
 30
0.0
 11
1.991845086550957
 21
2.837137455588183
 31
0.0
  0
LINE
  5
4BC
330
A
100
AcDbEntity
  8
0
  6
Continuous
 62
     7
100
AcDbLine
 10
1.90086755876457
 20
2.877237841890773
 30
0.0
 11
1.90086755876457
 21
2.877237841890773
 31
0.0
  0
LINE
  5
4BD
330
A
100
AcDbEntity
  8
0
  6
Continuous
 62
     7
100
AcDbLine
 10
1.863868383976378
 20
2.900808915822748
 30
0.0
 11
1.863868383976378
 21
2.900808915822748
 31
0.0
  0
LINE
  5
4BE
330
A
100
AcDbEntity
  8
0
  6
Continuous
 62
     7
100
AcDbLine
 10
1.852009674108368
 20
2.908363747211202
 30
0.0
 11
1.852009674108368
 21
2.908363747211202
 31
0.0
  0
LINE
  5
4BF
330
A
100
AcDbEntity
  8
0
  6
Continuous
 62
     7
100
AcDbLine
 10
1.949962617618132
 20
2.845960839942574
 30
0.0
 11
1.949962617618132
 21
2.845960839942574
 31
0.0
  0
LINE
  5
4C0
330
A
100
AcDbEntity
  8
0
  6
Continuous
 62
     7
100
AcDbLine
 10
1.870843799699755
 20
2.878506394856711
 30
0.0
 11
1.870843799699755
 21
2.878506394856711
 31
0.0
  0
LINE
  5
4C1
330
A
100
AcDbEntity
  8
0
  6
Continuous
 62
     7
100
AcDbLine
 10
2.071259539554378
 20
3.094703331936973
 30
0.0
 11
2.071259539554378
 21
3.094703331936973
 31
0.0
  0
LINE
  5
4C2
330
A
100
AcDbEntity
  8
0
  6
Continuous
 62
     7
100
AcDbLine
 10
2.040781539410652
 20
3.122631273590376
 30
0.0
 11
2.040781539410652
 21
3.122631273590376
 31
0.0
  0
LINE
  5
4C3
330
A
100
AcDbEntity
  8
0
  6
Continuous
 62
     7
100
AcDbLine
 10
2.073415817708964
 20
3.05704149125349
 30
0.0
 11
2.073415817708964
 21
3.05704149125349
 31
0.0
  0
LINE
  5
4C4
330
A
100
AcDbEntity
  8
0
  6
Continuous
 62
     7
100
AcDbLine
 10
2.051936084274339
 20
3.076724040609222
 30
0.0
 11
2.051936084274339
 21
3.076724040609222
 31
0.0
  0
LINE
  5
4C5
330
A
100
AcDbEntity
  8
0
  6
Continuous
 62
     7
100
AcDbLine
 10
2.03845941754412
 20
3.089073130455965
 30
0.0
 11
2.03845941754412
 21
3.089073130455965
 31
0.0
  0
LINE
  5
4C6
330
A
100
AcDbEntity
  8
0
  6
Continuous
 62
     7
100
AcDbLine
 10
2.007981417400394
 20
3.117001072109368
 30
0.0
 11
2.007981417400394
 21
3.117001072109368
 31
0.0
  0
LINE
  5
4C7
330
A
100
AcDbEntity
  8
0
  6
Continuous
 62
     7
100
AcDbLine
 10
1.986501683965768
 20
3.1366836214651
 30
0.0
 11
1.986501683965768
 21
3.1366836214651
 31
0.0
  0
LINE
  5
4C8
330
A
100
AcDbEntity
  8
0
  6
Continuous
 62
     7
100
AcDbLine
 10
1.97302501723555
 20
3.149032711311843
 30
0.0
 11
1.97302501723555
 21
3.149032711311843
 31
0.0
  0
LINE
  5
4C9
330
A
100
AcDbEntity
  8
0
  6
Continuous
 62
     7
100
AcDbLine
 10
2.08457036257265
 20
3.011134258272337
 30
0.0
 11
2.08457036257265
 21
3.011134258272337
 31
0.0
  0
LINE
  5
4CA
330
A
100
AcDbEntity
  8
0
  6
Continuous
 62
     7
100
AcDbLine
 10
2.071093695842432
 20
3.023483348119079
 30
0.0
 11
2.071093695842432
 21
3.023483348119079
 31
0.0
  0
LINE
  5
4CB
330
A
100
AcDbEntity
  8
0
  6
Continuous
 62
     7
100
AcDbLine
 10
2.040615695698706
 20
3.051411289772483
 30
0.0
 11
2.040615695698706
 21
3.051411289772483
 31
0.0
  0
LINE
  5
4CC
330
A
100
AcDbEntity
  8
0
  6
Continuous
 62
     7
100
AcDbLine
 10
2.019135962264081
 20
3.071093839128215
 30
0.0
 11
2.019135962264081
 21
3.071093839128215
 31
0.0
  0
LINE
  5
4CD
330
A
100
AcDbEntity
  8
0
  6
Continuous
 62
     7
100
AcDbLine
 10
2.005659295533862
 20
3.083442928974958
 30
0.0
 11
2.005659295533862
 21
3.083442928974958
 31
0.0
  0
LINE
  5
4CE
330
A
100
AcDbEntity
  8
0
  6
Continuous
 62
     7
100
AcDbLine
 10
1.975181295390136
 20
3.111370870628361
 30
0.0
 11
1.975181295390136
 21
3.111370870628361
 31
0.0
  0
LINE
  5
4CF
330
A
100
AcDbEntity
  8
0
  6
Continuous
 62
     7
100
AcDbLine
 10
1.953701561955511
 20
3.131053419984092
 30
0.0
 11
1.953701561955511
 21
3.131053419984092
 31
0.0
  0
LINE
  5
4D0
330
A
100
AcDbEntity
  8
0
  6
Continuous
 62
     7
100
AcDbLine
 10
1.940224895225292
 20
3.143402509830836
 30
0.0
 11
1.940224895225292
 21
3.143402509830836
 31
0.0
  0
LINE
  5
4D1
330
A
100
AcDbEntity
  8
0
  6
Continuous
 62
     7
100
AcDbLine
 10
2.073249973997018
 20
2.985821507435597
 30
0.0
 11
2.073249973997018
 21
2.985821507435597
 31
0.0
  0
LINE
  5
4D2
330
A
100
AcDbEntity
  8
0
  6
Continuous
 62
     7
100
AcDbLine
 10
2.051770240562392
 20
3.005504056791329
 30
0.0
 11
2.051770240562392
 21
3.005504056791329
 31
0.0
  0
LINE
  5
4D3
330
A
100
AcDbEntity
  8
0
  6
Continuous
 62
     7
100
AcDbLine
 10
2.038293573832174
 20
3.017853146638072
 30
0.0
 11
2.038293573832174
 21
3.017853146638072
 31
0.0
  0
LINE
  5
4D4
330
A
100
AcDbEntity
  8
0
  6
Continuous
 62
     7
100
AcDbLine
 10
2.007815573688448
 20
3.045781088291475
 30
0.0
 11
2.007815573688448
 21
3.045781088291475
 31
0.0
  0
LINE
  5
4D5
330
A
100
AcDbEntity
  8
0
  6
Continuous
 62
     7
100
AcDbLine
 10
1.986335840253822
 20
3.065463637647207
 30
0.0
 11
1.986335840253822
 21
3.065463637647207
 31
0.0
  0
LINE
  5
4D6
330
A
100
AcDbEntity
  8
0
  6
Continuous
 62
     7
100
AcDbLine
 10
1.972859173523604
 20
3.07781272749395
 30
0.0
 11
1.972859173523604
 21
3.07781272749395
 31
0.0
  0
LINE
  5
4D7
330
A
100
AcDbEntity
  8
0
  6
Continuous
 62
     7
100
AcDbLine
 10
1.942381173379878
 20
3.105740669147353
 30
0.0
 11
1.942381173379878
 21
3.105740669147353
 31
0.0
  0
LINE
  5
4D8
330
A
100
AcDbEntity
  8
0
  6
Continuous
 62
     7
100
AcDbLine
 10
1.920901439945253
 20
3.125423218503085
 30
0.0
 11
1.920901439945253
 21
3.125423218503085
 31
0.0
  0
LINE
  5
4D9
330
A
100
AcDbEntity
  8
0
  6
Continuous
 62
     7
100
AcDbLine
 10
2.084404518860705
 20
2.939914274454443
 30
0.0
 11
2.084404518860705
 21
2.939914274454443
 31
0.0
  0
LINE
  5
4DA
330
A
100
AcDbEntity
  8
0
  6
Continuous
 62
     7
100
AcDbLine
 10
2.070927852130486
 20
2.952263364301185
 30
0.0
 11
2.070927852130486
 21
2.952263364301185
 31
0.0
  0
LINE
  5
4DB
330
A
100
AcDbEntity
  8
0
  6
Continuous
 62
     7
100
AcDbLine
 10
2.04044985198676
 20
2.980191305954589
 30
0.0
 11
2.04044985198676
 21
2.980191305954589
 31
0.0
  0
LINE
  5
4DC
330
A
100
AcDbEntity
  8
0
  6
Continuous
 62
     7
100
AcDbLine
 10
2.018970118552135
 20
2.999873855310321
 30
0.0
 11
2.018970118552135
 21
2.999873855310321
 31
0.0
  0
LINE
  5
4DD
330
A
100
AcDbEntity
  8
0
  6
Continuous
 62
     7
100
AcDbLine
 10
2.005493451821916
 20
3.012222945157064
 30
0.0
 11
2.005493451821916
 21
3.012222945157064
 31
0.0
  0
LINE
  5
4DE
330
A
100
AcDbEntity
  8
0
  6
Continuous
 62
     7
100
AcDbLine
 10
1.97501545167819
 20
3.040150886810467
 30
0.0
 11
1.97501545167819
 21
3.040150886810467
 31
0.0
  0
LINE
  5
4DF
330
A
100
AcDbEntity
  8
0
  6
Continuous
 62
     7
100
AcDbLine
 10
1.953535718243565
 20
3.059833436166199
 30
0.0
 11
1.953535718243565
 21
3.059833436166199
 31
0.0
  0
LINE
  5
4E0
330
A
100
AcDbEntity
  8
0
  6
Continuous
 62
     7
100
AcDbLine
 10
1.940059051513346
 20
3.072182526012942
 30
0.0
 11
1.940059051513346
 21
3.072182526012942
 31
0.0
  0
LINE
  5
4E1
330
A
100
AcDbEntity
  8
0
  6
Continuous
 62
     7
100
AcDbLine
 10
1.90958105136962
 20
3.100110467666345
 30
0.0
 11
1.90958105136962
 21
3.100110467666345
 31
0.0
  0
LINE
  5
4E2
330
A
100
AcDbEntity
  8
0
  6
Continuous
 62
     7
100
AcDbLine
 10
2.073084130285072
 20
2.914601523617703
 30
0.0
 11
2.073084130285072
 21
2.914601523617703
 31
0.0
  0
LINE
  5
4E3
330
A
100
AcDbEntity
  8
0
  6
Continuous
 62
     7
100
AcDbLine
 10
2.051604396850446
 20
2.934284072973435
 30
0.0
 11
2.051604396850446
 21
2.934284072973435
 31
0.0
  0
LINE
  5
4E4
330
A
100
AcDbEntity
  8
0
  6
Continuous
 62
     7
100
AcDbLine
 10
2.038127730120228
 20
2.946633162820178
 30
0.0
 11
2.038127730120228
 21
2.946633162820178
 31
0.0
  0
LINE
  5
4E5
330
A
100
AcDbEntity
  8
0
  6
Continuous
 62
     7
100
AcDbLine
 10
2.007649729976502
 20
2.974561104473581
 30
0.0
 11
2.007649729976502
 21
2.974561104473581
 31
0.0
  0
LINE
  5
4E6
330
A
100
AcDbEntity
  8
0
  6
Continuous
 62
     7
100
AcDbLine
 10
1.986169996541877
 20
2.994243653829313
 30
0.0
 11
1.986169996541877
 21
2.994243653829313
 31
0.0
  0
LINE
  5
4E7
330
A
100
AcDbEntity
  8
0
  6
Continuous
 62
     7
100
AcDbLine
 10
1.972693329811658
 20
3.006592743676056
 30
0.0
 11
1.972693329811658
 21
3.006592743676056
 31
0.0
  0
LINE
  5
4E8
330
A
100
AcDbEntity
  8
0
  6
Continuous
 62
     7
100
AcDbLine
 10
1.942215329667932
 20
3.034520685329459
 30
0.0
 11
1.942215329667932
 21
3.034520685329459
 31
0.0
  0
LINE
  5
4E9
330
A
100
AcDbEntity
  8
0
  6
Continuous
 62
     7
100
AcDbLine
 10
1.920735596233307
 20
3.054203234685191
 30
0.0
 11
1.920735596233307
 21
3.054203234685191
 31
0.0
  0
LINE
  5
4EA
330
A
100
AcDbEntity
  8
0
  6
Continuous
 62
     7
100
AcDbLine
 10
1.907258929503088
 20
3.066552324531934
 30
0.0
 11
1.907258929503088
 21
3.066552324531934
 31
0.0
  0
LINE
  5
4EB
330
A
100
AcDbEntity
  8
0
  6
Continuous
 62
     7
100
AcDbLine
 10
1.876780929359362
 20
3.094480266185337
 30
0.0
 11
1.876780929359362
 21
3.094480266185337
 31
0.0
  0
LINE
  5
4EC
330
A
100
AcDbEntity
  8
0
  6
Continuous
 62
     7
100
AcDbLine
 10
2.018804274840189
 20
2.928653871492427
 30
0.0
 11
2.018804274840189
 21
2.928653871492427
 31
0.0
  0
LINE
  5
4ED
330
A
100
AcDbEntity
  8
0
  6
Continuous
 62
     7
100
AcDbLine
 10
2.00532760810997
 20
2.941002961339171
 30
0.0
 11
2.00532760810997
 21
2.941002961339171
 31
0.0
  0
LINE
  5
4EE
330
A
100
AcDbEntity
  8
0
  6
Continuous
 62
     7
100
AcDbLine
 10
1.974849607966244
 20
2.968930902992574
 30
0.0
 11
1.974849607966244
 21
2.968930902992574
 31
0.0
  0
LINE
  5
4EF
330
A
100
AcDbEntity
  8
0
  6
Continuous
 62
     7
100
AcDbLine
 10
1.953369874531619
 20
2.988613452348305
 30
0.0
 11
1.953369874531619
 21
2.988613452348305
 31
0.0
  0
LINE
  5
4F0
330
A
100
AcDbEntity
  8
0
  6
Continuous
 62
     7
100
AcDbLine
 10
1.9398932078014
 20
3.000962542195049
 30
0.0
 11
1.9398932078014
 21
3.000962542195049
 31
0.0
  0
LINE
  5
4F1
330
A
100
AcDbEntity
  8
0
  6
Continuous
 62
     7
100
AcDbLine
 10
1.909415207657674
 20
3.028890483848452
 30
0.0
 11
1.909415207657674
 21
3.028890483848452
 31
0.0
  0
LINE
  5
4F2
330
A
100
AcDbEntity
  8
0
  6
Continuous
 62
     7
100
AcDbLine
 10
1.887935474223049
 20
3.048573033204183
 30
0.0
 11
1.887935474223049
 21
3.048573033204183
 31
0.0
  0
LINE
  5
4F3
330
A
100
AcDbEntity
  8
0
  6
Continuous
 62
     7
100
AcDbLine
 10
1.87445880749283
 20
3.060922123050927
 30
0.0
 11
1.87445880749283
 21
3.060922123050927
 31
0.0
  0
LINE
  5
4F4
330
A
100
AcDbEntity
  8
0
  6
Continuous
 62
     7
100
AcDbLine
 10
2.084238675148759
 20
2.868694290636549
 30
0.0
 11
2.084238675148759
 21
2.868694290636549
 31
0.0
  0
LINE
  5
4F5
330
A
100
AcDbEntity
  8
0
  6
Continuous
 62
     7
100
AcDbLine
 10
2.07076200841854
 20
2.881043380483292
 30
0.0
 11
2.07076200841854
 21
2.881043380483292
 31
0.0
  0
LINE
  5
4F6
330
A
100
AcDbEntity
  8
0
  6
Continuous
 62
     7
100
AcDbLine
 10
1.972527486099712
 20
2.935372759858163
 30
0.0
 11
1.972527486099712
 21
2.935372759858163
 31
0.0
  0
LINE
  5
4F7
330
A
100
AcDbEntity
  8
0
  6
Continuous
 62
     7
100
AcDbLine
 10
1.942049485955987
 20
2.963300701511566
 30
0.0
 11
1.942049485955987
 21
2.963300701511566
 31
0.0
  0
LINE
  5
4F8
330
A
100
AcDbEntity
  8
0
  6
Continuous
 62
     7
100
AcDbLine
 10
1.920569752521361
 20
2.982983250867298
 30
0.0
 11
1.920569752521361
 21
2.982983250867298
 31
0.0
  0
LINE
  5
4F9
330
A
100
AcDbEntity
  8
0
  6
Continuous
 62
     7
100
AcDbLine
 10
1.907093085791142
 20
2.995332340714041
 30
0.0
 11
1.907093085791142
 21
2.995332340714041
 31
0.0
  0
LINE
  5
4FA
330
A
100
AcDbEntity
  8
0
  6
Continuous
 62
     7
100
AcDbLine
 10
1.876615085647416
 20
3.023260282367444
 30
0.0
 11
1.876615085647416
 21
3.023260282367444
 31
0.0
  0
LINE
  5
4FB
330
A
100
AcDbEntity
  8
0
  6
Continuous
 62
     7
100
AcDbLine
 10
1.855135352212791
 20
3.042942831723176
 30
0.0
 11
1.855135352212791
 21
3.042942831723176
 31
0.0
  0
LINE
  5
4FC
330
A
100
AcDbEntity
  8
0
  6
Continuous
 62
     7
100
AcDbLine
 10
2.051438553138501
 20
2.863064089155542
 30
0.0
 11
2.051438553138501
 21
2.863064089155542
 31
0.0
  0
LINE
  5
4FD
330
A
100
AcDbEntity
  8
0
  6
Continuous
 62
     7
100
AcDbLine
 10
2.037961886408282
 20
2.875413179002284
 30
0.0
 11
2.037961886408282
 21
2.875413179002284
 31
0.0
  0
LINE
  5
4FE
330
A
100
AcDbEntity
  8
0
  6
Continuous
 62
     7
100
AcDbLine
 10
2.007483886264556
 20
2.903341120655688
 30
0.0
 11
2.007483886264556
 21
2.903341120655688
 31
0.0
  0
LINE
  5
4FF
330
A
100
AcDbEntity
  8
0
  6
Continuous
 62
     7
100
AcDbLine
 10
1.939727364089454
 20
2.929742558377155
 30
0.0
 11
1.939727364089454
 21
2.929742558377155
 31
0.0
  0
LINE
  5
500
330
A
100
AcDbEntity
  8
0
  6
Continuous
 62
     7
100
AcDbLine
 10
1.909249363945729
 20
2.957670500030558
 30
0.0
 11
1.909249363945729
 21
2.957670500030558
 31
0.0
  0
LINE
  5
501
330
A
100
AcDbEntity
  8
0
  6
Continuous
 62
     7
100
AcDbLine
 10
1.887769630511103
 20
2.97735304938629
 30
0.0
 11
1.887769630511103
 21
2.97735304938629
 31
0.0
  0
LINE
  5
502
330
A
100
AcDbEntity
  8
0
  6
Continuous
 62
     7
100
AcDbLine
 10
1.874292963780884
 20
2.989702139233033
 30
0.0
 11
1.874292963780884
 21
2.989702139233033
 31
0.0
  0
LINE
  5
503
330
A
100
AcDbEntity
  8
0
  6
Continuous
 62
     7
100
AcDbLine
 10
2.005161764398024
 20
2.869782977521277
 30
0.0
 11
2.005161764398024
 21
2.869782977521277
 31
0.0
  0
LINE
  5
504
330
A
100
AcDbEntity
  8
0
  6
Continuous
 62
     7
100
AcDbLine
 10
1.87644924193547
 20
2.95204029854955
 30
0.0
 11
1.87644924193547
 21
2.95204029854955
 31
0.0
  0
LINE
  5
505
330
A
100
AcDbEntity
  8
0
  6
Continuous
 62
     7
100
AcDbLine
 10
1.854969508500845
 20
2.971722847905282
 30
0.0
 11
1.854969508500845
 21
2.971722847905282
 31
0.0
  0
LINE
  5
506
330
A
100
AcDbEntity
  8
0
  6
Continuous
 62
     7
100
AcDbLine
 10
1.94188364224404
 20
2.892080717693672
 30
0.0
 11
1.94188364224404
 21
2.892080717693672
 31
0.0
  0
LINE
  5
507
330
A
100
AcDbEntity
  8
0
  6
Continuous
 62
     7
100
AcDbLine
 10
1.985838309117985
 20
2.851803686193526
 30
0.0
 11
1.985838309117985
 21
2.851803686193526
 31
0.0
  0
LINE
  5
508
330
A
100
AcDbEntity
  8
0
  6
Continuous
 62
     7
100
AcDbLine
 10
1.953038187107727
 20
2.846173484712518
 30
0.0
 11
1.953038187107727
 21
2.846173484712518
 31
0.0
  0
LINE
  5
509
330
A
100
AcDbEntity
  8
0
  6
Continuous
 62
     7
100
AcDbLine
 10
1.939561520377508
 20
2.858522574559261
 30
0.0
 11
1.939561520377508
 21
2.858522574559261
 31
0.0
  0
LINE
  5
50A
330
A
100
AcDbEntity
  8
0
  6
Continuous
 62
     7
100
AcDbLine
 10
1.909083520233783
 20
2.886450516212665
 30
0.0
 11
1.909083520233783
 21
2.886450516212665
 31
0.0
  0
LINE
  5
50B
330
A
100
AcDbEntity
  8
0
  6
Continuous
 62
     7
100
AcDbLine
 10
1.887603786799157
 20
2.906133065568397
 30
0.0
 11
1.887603786799157
 21
2.906133065568397
 31
0.0
  0
LINE
  5
50C
330
A
100
AcDbEntity
  8
0
  6
Continuous
 62
     7
100
AcDbLine
 10
1.874127120068938
 20
2.918482155415139
 30
0.0
 11
1.874127120068938
 21
2.918482155415139
 31
0.0
  0
LINE
  5
50D
330
A
100
AcDbEntity
  8
0
  6
Continuous
 62
     7
100
AcDbLine
 10
1.876283398223525
 20
2.880820314731657
 30
0.0
 11
1.876283398223525
 21
2.880820314731657
 31
0.0
  0
LINE
  5
50E
330
A
100
AcDbEntity
  8
0
  6
Continuous
 62
     7
100
AcDbLine
 10
1.854803664788899
 20
2.900502864087389
 30
0.0
 11
1.854803664788899
 21
2.900502864087389
 31
0.0
  0
ARC
  5
50F
330
A
100
AcDbEntity
  8
0
  6
Continuous
 62
     7
100
AcDbCircle
 10
1.861025652713705
 20
2.87231272749395
 30
0.0
 40
0.0150000000000001
100
AcDbArc
 50
180.0000000000004
 51
270.0000000000008
  0
LINE
  5
510
330
A
100
AcDbEntity
  8
0
  6
Continuous
 62
     7
100
AcDbLine
 10
1.846025652713705
 20
3.03231272749395
 30
0.0
 11
1.846025652713705
 21
2.87231272749395
 31
0.0
  0
ARC
  5
511
330
A
100
AcDbEntity
  8
0
  6
Continuous
 62
     7
100
AcDbCircle
 10
1.971025652713705
 20
3.03231272749395
 30
0.0
 40
0.125
100
AcDbArc
 50
0.0
 51
180.0000000000004
  0
LINE
  5
512
330
A
100
AcDbEntity
  8
0
  6
Continuous
 62
     7
100
AcDbLine
 10
2.096025652713705
 20
2.87231272749395
 30
0.0
 11
2.096025652713705
 21
3.03231272749395
 31
0.0
  0
LINE
  5
513
330
A
100
AcDbEntity
  8
0
  6
Continuous
 62
     7
100
AcDbLine
 10
2.013525652713705
 20
2.857312727493949
 30
0.0
 11
2.081025652713705
 21
2.857312727493949
 31
0.0
  0
ARC
  5
514
330
A
100
AcDbEntity
  8
0
  6
Continuous
 62
     7
100
AcDbCircle
 10
2.013525652713705
 20
2.84731272749395
 30
0.0
 40
0.0100000000000001
100
AcDbArc
 50
90.0
 51
180.0000000000004
  0
LINE
  5
515
330
A
100
AcDbEntity
  8
0
  6
Continuous
 62
     7
100
AcDbLine
 10
2.003525652713705
 20
2.813168415364348
 30
0.0
 11
2.003525652713705
 21
2.84731272749395
 31
0.0
  0
LINE
  5
516
330
A
100
AcDbEntity
  8
0
  6
Continuous
 62
     7
100
AcDbLine
 10
1.986025652713705
 20
2.75231272749395
 30
0.0
 11
1.981025652713705
 21
2.75231272749395
 31
0.0
  0
LINE
  5
517
330
A
100
AcDbEntity
  8
0
  6
Continuous
 62
     7
100
AcDbLine
 10
1.981025652713705
 20
2.794132578665281
 30
0.0
 11
1.998525652713705
 21
2.81498826653568
 31
0.0
  0
LINE
  5
518
330
A
100
AcDbEntity
  8
0
  6
Continuous
 62
     7
100
AcDbLine
 10
1.998525652713705
 20
2.81498826653568
 30
0.0
 11
1.998525652713705
 21
2.84731272749395
 31
0.0
  0
LINE
  5
519
330
A
100
AcDbEntity
  8
0
  6
Continuous
 62
     7
100
AcDbLine
 10
2.013525652713705
 20
2.86231272749395
 30
0.0
 11
2.081025652713705
 21
2.86231272749395
 31
0.0
  0
ARC
  5
51A
330
A
100
AcDbEntity
  8
0
  6
Continuous
 62
     7
100
AcDbCircle
 10
2.081025652713705
 20
2.87231272749395
 30
0.0
 40
0.0100000000000001
100
AcDbArc
 50
270.0000000000008
 51
0.0
  0
LINE
  5
51B
330
A
100
AcDbEntity
  8
0
  6
Continuous
 62
     7
100
AcDbLine
 10
2.091025652713705
 20
2.87231272749395
 30
0.0
 11
2.091025652713705
 21
3.03231272749395
 31
0.0
  0
ARC
  5
51C
330
A
100
AcDbEntity
  8
0
  6
Continuous
 62
     7
100
AcDbCircle
 10
1.971025652713705
 20
3.03231272749395
 30
0.0
 40
0.12
100
AcDbArc
 50
0.0
 51
180.0000000000004
  0
ARC
  5
51D
330
A
100
AcDbEntity
  8
0
  6
Continuous
 62
     7
100
AcDbCircle
 10
1.861025652713705
 20
2.87231272749395
 30
0.0
 40
0.0100000000000001
100
AcDbArc
 50
180.0000000000004
 51
270.0000000000008
  0
LINE
  5
51E
330
A
100
AcDbEntity
  8
0
  6
Continuous
 62
     7
100
AcDbLine
 10
1.861025652713705
 20
2.86231272749395
 30
0.0
 11
1.928525652713705
 21
2.86231272749395
 31
0.0
  0
ARC
  5
51F
330
A
100
AcDbEntity
  8
0
  6
Continuous
 62
     7
100
AcDbCircle
 10
1.928525652713705
 20
2.84731272749395
 30
0.0
 40
0.015
100
AcDbArc
 50
0.0
 51
90.0
  0
LINE
  5
520
330
A
100
AcDbEntity
  8
0
  6
Continuous
 62
     7
100
AcDbLine
 10
1.943525652713705
 20
2.84731272749395
 30
0.0
 11
1.943525652713705
 21
2.81498826653568
 31
0.0
  0
LINE
  5
521
330
A
100
AcDbEntity
  8
0
  6
Continuous
 62
     7
100
AcDbLine
 10
1.943525652713705
 20
2.81498826653568
 30
0.0
 11
1.961025652713705
 21
2.794132578665281
 31
0.0
  0
LINE
  5
522
330
A
100
AcDbEntity
  8
0
  6
Continuous
 62
     7
100
AcDbLine
 10
1.961025652713705
 20
2.75231272749395
 30
0.0
 11
1.956025652713705
 21
2.75231272749395
 31
0.0
  0
LINE
  5
523
330
A
100
AcDbEntity
  8
0
  6
Continuous
 62
     7
100
AcDbLine
 10
1.956025652713705
 20
2.79231272749395
 30
0.0
 11
1.956025652713705
 21
2.75231272749395
 31
0.0
  0
LINE
  5
524
330
A
100
AcDbEntity
  8
0
  6
Continuous
 62
     7
100
AcDbLine
 10
1.938525652713705
 20
2.813168415364348
 30
0.0
 11
1.956025652713705
 21
2.79231272749395
 31
0.0
  0
LINE
  5
525
330
A
100
AcDbEntity
  8
0
  6
Continuous
 62
     7
100
AcDbLine
 10
1.986025652713705
 20
2.79231272749395
 30
0.0
 11
2.003525652713705
 21
2.813168415364348
 31
0.0
  0
LINE
  5
526
330
A
100
AcDbEntity
  8
0
  6
Continuous
 62
     7
100
AcDbLine
 10
1.861025652713705
 20
2.857312727493949
 30
0.0
 11
1.928525652713705
 21
2.857312727493949
 31
0.0
  0
LINE
  5
527
330
A
100
AcDbEntity
  8
0
  6
Continuous
 62
     7
100
AcDbLine
 10
1.986025652713705
 20
2.75231272749395
 30
0.0
 11
1.986025652713705
 21
2.79231272749395
 31
0.0
  0
LINE
  5
528
330
A
100
AcDbEntity
  8
0
  6
Continuous
 62
     7
100
AcDbLine
 10
1.938525652713705
 20
2.84731272749395
 30
0.0
 11
1.938525652713705
 21
2.813168415364348
 31
0.0
  0
ARC
  5
529
330
A
100
AcDbEntity
  8
0
  6
Continuous
 62
     7
100
AcDbCircle
 10
2.081025652713705
 20
2.87231272749395
 30
0.0
 40
0.015
100
AcDbArc
 50
270.0000000000008
 51
0.0
  0
ARC
  5
52A
330
A
100
AcDbEntity
  8
0
  6
Continuous
 62
     7
100
AcDbCircle
 10
2.013525652713705
 20
2.84731272749395
 30
0.0
 40
0.015
100
AcDbArc
 50
90.0
 51
180.0000000000004
  0
ARC
  5
52B
330
A
100
AcDbEntity
  8
0
  6
Continuous
 62
     7
100
AcDbCircle
 10
1.928525652713705
 20
2.84731272749395
 30
0.0
 40
0.01
100
AcDbArc
 50
0.0
 51
90.0
  0
LINE
  5
52C
330
A
100
AcDbEntity
  8
0
  6
Continuous
 62
     7
100
AcDbLine
 10
1.851025652713705
 20
3.03231272749395
 30
0.0
 11
1.851025652713705
 21
2.87231272749395
 31
0.0
  0
LINE
  5
52D
330
A
100
AcDbEntity
  8
0
  6
Continuous
 62
     7
100
AcDbLine
 10
2.046025652713705
 20
2.92731272749395
 30
0.0
 11
1.896025652713705
 21
2.92731272749395
 31
0.0
  0
ARC
  5
52E
330
A
100
AcDbEntity
  8
0
  6
Continuous
 62
     7
100
AcDbCircle
 10
2.046025652713705
 20
2.91731272749395
 30
0.0
 40
0.0100000000000001
100
AcDbArc
 50
270.0000000000008
 51
90.0
  0
LINE
  5
52F
330
A
100
AcDbEntity
  8
0
  6
Continuous
 62
     7
100
AcDbLine
 10
1.981025652713705
 20
2.90731272749395
 30
0.0
 11
2.046025652713705
 21
2.90731272749395
 31
0.0
  0
LINE
  5
530
330
A
100
AcDbEntity
  8
0
  6
Continuous
 62
     7
100
AcDbLine
 10
1.981025652713705
 20
2.62231272749395
 30
0.0
 11
1.981025652713705
 21
2.90731272749395
 31
0.0
  0
ARC
  5
531
330
A
100
AcDbEntity
  8
0
  6
Continuous
 62
     7
100
AcDbCircle
 10
1.971025652713705
 20
2.62231272749395
 30
0.0
 40
0.0100000000000001
100
AcDbArc
 50
180.0000000000004
 51
0.0
  0
LINE
  5
532
330
A
100
AcDbEntity
  8
0
  6
Continuous
 62
     7
100
AcDbLine
 10
1.961025652713705
 20
2.90731272749395
 30
0.0
 11
1.961025652713705
 21
2.62231272749395
 31
0.0
  0
LINE
  5
533
330
A
100
AcDbEntity
  8
0
  6
Continuous
 62
     7
100
AcDbLine
 10
1.896025652713705
 20
2.90731272749395
 30
0.0
 11
1.961025652713705
 21
2.90731272749395
 31
0.0
  0
ARC
  5
534
330
A
100
AcDbEntity
  8
0
  6
Continuous
 62
     7
100
AcDbCircle
 10
1.896025652713705
 20
2.91731272749395
 30
0.0
 40
0.0100000000000001
100
AcDbArc
 50
90.0
 51
270.0000000000008
  0
LINE
  5
535
330
A
100
AcDbEntity
  8
0
  6
Continuous
 62
     7
100
AcDbLine
 10
1.961025652713705
 20
2.746180240953431
 30
0.0
 11
1.934775652713705
 21
2.761335685519659
 31
0.0
  0
LINE
  5
536
330
A
100
AcDbEntity
  8
0
  6
Continuous
 62
     7
100
AcDbLine
 10
1.922275652713705
 20
2.739685050425048
 30
0.0
 11
1.961025652713705
 21
2.71731272749395
 31
0.0
  0
ARC
  5
537
330
A
100
AcDbEntity
  8
0
  6
Continuous
 62
     7
100
AcDbCircle
 10
1.928525652713705
 20
2.750510367972354
 30
0.0
 40
0.0125
100
AcDbArc
 50
60.00000000000007
 51
240.0000000000004
  0
LINE
  5
538
330
A
100
AcDbEntity
  8
0
  6
Continuous
 62
     7
100
AcDbLine
 10
1.981025652713705
 20
2.62731272749395
 30
0.0
 11
2.019775652713705
 21
2.649685050425048
 31
0.0
  0
LINE
  5
539
330
A
100
AcDbEntity
  8
0
  6
Continuous
 62
     7
100
AcDbLine
 10
2.007275652713705
 20
2.671335685519659
 30
0.0
 11
1.981025652713705
 21
2.656180240953431
 31
0.0
  0
ARC
  5
53A
330
A
100
AcDbEntity
  8
0
  6
Continuous
 62
     7
100
AcDbCircle
 10
2.013525652713705
 20
2.660510367972354
 30
0.0
 40
0.0125000000000001
100
AcDbArc
 50
300.0000000000015
 51
119.9999999999993
  0
LINE
  5
53B
330
A
100
AcDbEntity
  8
0
  6
Continuous
 62
     7
100
AcDbLine
 10
1.981025652713705
 20
2.71731272749395
 30
0.0
 11
2.019775652713705
 21
2.739685050425048
 31
0.0
  0
LINE
  5
53C
330
A
100
AcDbEntity
  8
0
  6
Continuous
 62
     7
100
AcDbLine
 10
2.007275652713705
 20
2.761335685519659
 30
0.0
 11
1.981025652713705
 21
2.746180240953431
 31
0.0
  0
ARC
  5
53D
330
A
100
AcDbEntity
  8
0
  6
Continuous
 62
     7
100
AcDbCircle
 10
2.013525652713705
 20
2.750510367972354
 30
0.0
 40
0.0125000000000001
100
AcDbArc
 50
300.0000000000019
 51
119.9999999999993
  0
LINE
  5
53E
330
A
100
AcDbEntity
  8
0
  6
Continuous
 62
     7
100
AcDbLine
 10
1.961025652713705
 20
2.656180240953431
 30
0.0
 11
1.934775652713705
 21
2.671335685519659
 31
0.0
  0
LINE
  5
53F
330
A
100
AcDbEntity
  8
0
  6
Continuous
 62
     7
100
AcDbLine
 10
1.922275652713705
 20
2.649685050425048
 30
0.0
 11
1.961025652713705
 21
2.62731272749395
 31
0.0
  0
ARC
  5
540
330
A
100
AcDbEntity
  8
0
  6
Continuous
 62
     7
100
AcDbCircle
 10
1.928525652713705
 20
2.660510367972354
 30
0.0
 40
0.0125
100
AcDbArc
 50
60.00000000000008
 51
240.0000000000004
  0
MTEXT
  5
5FB
330
A
100
AcDbEntity
  8
0
 62
     7
100
AcDbMText
 10
2.278550487193957
 20
2.967642423622134
 30
0.0
 40
0.0137795275590551
 41
0.0
 71
     1
 72
     5
  1
.300
  7
SLDTEXTSTYLE0
 73
     1
 44
1.0
  0
LINE
  5
5FC
330
A
100
AcDbEntity
  8
0
 62
     7
100
AcDbLine
 10
1.976025652713705
 20
3.15731272749395
 30
0.0
 11
2.308858101134975
 21
3.15731272749395
 31
0.0
  0
LINE
  5
5FD
330
A
100
AcDbEntity
  8
0
 62
     7
100
AcDbLine
 10
2.086025652713705
 20
2.857312727493949
 30
0.0
 11
2.308858101134976
 21
2.857312727493949
 31
0.0
  0
LINE
  5
5FE
330
A
100
AcDbEntity
  8
0
 62
     7
100
AcDbLine
 10
2.296358101134975
 20
3.15731272749395
 30
0.0
 11
2.296358101134976
 21
2.971794360726422
 31
0.0
  0
LINE
  5
5FF
330
A
100
AcDbEntity
  8
0
 62
     7
100
AcDbLine
 10
2.296358101134976
 20
2.857312727493949
 30
0.0
 11
2.296358101134976
 21
2.949925888876555
 31
0.0
  0
SOLID
  5
600
330
A
100
AcDbEntity
  8
0
 62
     7
100
AcDbTrace
 10
2.296358101134975
 20
3.15731272749395
 30
0.0
 11
2.293758101134976
 21
3.14171272749395
 31
0.0
 12
2.298958101134975
 22
3.14171272749395
 32
0.0
 13
2.298958101134975
 23
3.14171272749395
 33
0.0
  0
SOLID
  5
601
330
A
100
AcDbEntity
  8
0
 62
     7
100
AcDbTrace
 10
2.296358101134976
 20
2.857312727493949
 30
0.0
 11
2.298958101134976
 21
2.872912727493949
 31
0.0
 12
2.293758101134976
 22
2.872912727493949
 32
0.0
 13
2.293758101134976
 23
2.872912727493949
 33
0.0
  0
MTEXT
  5
602
330
A
100
AcDbEntity
  8
0
 62
     7
100
AcDbMText
 10
1.953293244633181
 20
3.187459524625815
 30
0.0
 40
0.0137795275590551
 41
0.0
 71
     1
 72
     5
  1
.250
  7
SLDTEXTSTYLE0
 73
     1
 44
1.0
  0
LINE
  5
603
330
A
100
AcDbEntity
  8
0
 62
     7
100
AcDbLine
 10
1.846025652713705
 20
3.03731272749395
 30
0.0
 11
1.846025652713705
 21
3.193177225805169
 31
0.0
  0
LINE
  5
604
330
A
100
AcDbEntity
  8
0
 62
     7
100
AcDbLine
 10
2.096025652713705
 20
3.03731272749395
 30
0.0
 11
2.096025652713705
 21
3.193177225805169
 31
0.0
  0
LINE
  5
605
330
A
100
AcDbEntity
  8
0
 62
     7
100
AcDbLine
 10
1.846025652713705
 20
3.180677225805169
 30
0.0
 11
1.947043244633181
 21
3.180677225805169
 31
0.0
  0
LINE
  5
606
330
A
100
AcDbEntity
  8
0
 62
     7
100
AcDbLine
 10
2.096025652713705
 20
3.180677225805169
 30
0.0
 11
1.995158472515218
 21
3.180677225805169
 31
0.0
  0
SOLID
  5
607
330
A
100
AcDbEntity
  8
0
 62
     7
100
AcDbTrace
 10
1.846025652713705
 20
3.180677225805169
 30
0.0
 11
1.861625652713705
 21
3.178077225805169
 31
0.0
 12
1.861625652713705
 22
3.183277225805169
 32
0.0
 13
1.861625652713705
 23
3.183277225805169
 33
0.0
  0
SOLID
  5
608
330
A
100
AcDbEntity
  8
0
 62
     7
100
AcDbTrace
 10
2.096025652713705
 20
3.180677225805169
 30
0.0
 11
2.080425652713705
 21
3.183277225805169
 31
0.0
 12
2.080425652713705
 22
3.178077225805169
 32
0.0
 13
2.080425652713705
 23
3.178077225805169
 33
0.0
  0
MTEXT
  5
609
330
A
100
AcDbEntity
  8
0
 62
     7
100
AcDbMText
 10
1.729050151371285
 20
2.932736498884265
 30
0.0
 40
0.0137795275590551
 41
0.0
 71
     1
 72
     5
  1
.545
  7
SLDTEXTSTYLE0
 73
     1
 44
1.0
  0
LINE
  5
60A
330
A
100
AcDbEntity
  8
0
 62
     7
100
AcDbLine
 10
1.966025652713705
 20
3.15731272749395
 30
0.0
 11
1.734357765312303
 21
3.15731272749395
 31
0.0
  0
LINE
  5
60B
330
A
100
AcDbEntity
  8
0
 62
     7
100
AcDbLine
 10
1.966025652713705
 20
2.61231272749395
 30
0.0
 11
1.734357765312303
 21
2.612312727493949
 31
0.0
  0
LINE
  5
60C
330
A
100
AcDbEntity
  8
0
 62
     7
100
AcDbLine
 10
1.746857765312304
 20
3.15731272749395
 30
0.0
 11
1.746857765312304
 21
2.936888435988553
 31
0.0
  0
LINE
  5
60D
330
A
100
AcDbEntity
  8
0
 62
     7
100
AcDbLine
 10
1.746857765312304
 20
2.612312727493949
 30
0.0
 11
1.746857765312304
 21
2.915019964138687
 31
0.0
  0
SOLID
  5
60E
330
A
100
AcDbEntity
  8
0
 62
     7
100
AcDbTrace
 10
1.746857765312304
 20
3.15731272749395
 30
0.0
 11
1.744257765312303
 21
3.14171272749395
 31
0.0
 12
1.749457765312303
 22
3.14171272749395
 32
0.0
 13
1.749457765312303
 23
3.14171272749395
 33
0.0
  0
SOLID
  5
60F
330
A
100
AcDbEntity
  8
0
 62
     7
100
AcDbTrace
 10
1.746857765312304
 20
2.612312727493949
 30
0.0
 11
1.749457765312303
 21
2.627912727493949
 31
0.0
 12
1.744257765312303
 22
2.627912727493949
 32
0.0
 13
1.744257765312303
 23
2.627912727493949
 33
0.0
  0
MTEXT
  5
610
330
A
100
AcDbEntity
  8
0
 62
     7
100
AcDbMText
 10
1.953376150963324
 20
2.5901668614674
 30
0.0
 40
0.0137795275590551
 41
0.0
 71
     1
 72
     5
  1
.110
  7
SLDTEXTSTYLE0
 73
     1
 44
1.0
  0
LINE
  5
611
330
A
100
AcDbEntity
  8
0
 62
     7
100
AcDbLine
 10
1.916025652713705
 20
2.655510367972354
 30
0.0
 11
1.916025652713705
 21
2.570884562646755
 31
0.0
  0
LINE
  5
612
330
A
100
AcDbEntity
  8
0
 62
     7
100
AcDbLine
 10
2.026025652713705
 20
2.655510367972354
 30
0.0
 11
2.026025652713705
 21
2.570884562646755
 31
0.0
  0
LINE
  5
613
330
A
100
AcDbEntity
  8
0
 62
     7
100
AcDbLine
 10
1.916025652713705
 20
2.583384562646754
 30
0.0
 11
1.947126150963324
 21
2.583384562646754
 31
0.0
  0
LINE
  5
614
330
A
100
AcDbEntity
  8
0
 62
     7
100
AcDbLine
 10
2.026025652713705
 20
2.583384562646754
 30
0.0
 11
1.995241378845362
 21
2.583384562646754
 31
0.0
  0
SOLID
  5
615
330
A
100
AcDbEntity
  8
0
 62
     7
100
AcDbTrace
 10
1.916025652713705
 20
2.583384562646754
 30
0.0
 11
1.931625652713705
 21
2.580784562646754
 31
0.0
 12
1.931625652713705
 22
2.585984562646754
 32
0.0
 13
1.931625652713705
 23
2.585984562646754
 33
0.0
  0
SOLID
  5
616
330
A
100
AcDbEntity
  8
0
 62
     7
100
AcDbTrace
 10
2.026025652713705
 20
2.583384562646754
 30
0.0
 11
2.010425652713705
 21
2.585984562646754
 31
0.0
 12
2.010425652713705
 22
2.580784562646754
 32
0.0
 13
2.010425652713705
 23
2.580784562646754
 33
0.0
  0
ENDSEC
  0
SECTION
  2
OBJECTS
  0
DICTIONARY
  5
19
330
0
100
AcDbDictionary
281
     1
  3
ACAD_GROUP
350
1A
  3
ACAD_LAYOUT
350
5CD
  3
ACAD_MLINESTYLE
350
1B
  3
ACAD_PLOTSETTINGS
350
5CE
  3
ACAD_PLOTSTYLENAME
350
5CB
  3
AcDbVariableDictionary
350
61C
  3
ASE_INDEX_DICTIONARY
350
618
  0
DICTIONARY
  5
1A
102
{ACAD_REACTORS
330
19
102
}
330
19
100
AcDbDictionary
281
     1
  0
DICTIONARY
  5
5CD
102
{ACAD_REACTORS
330
19
102
}
330
19
100
AcDbDictionary
281
     1
  3
Layout1
350
5D0
  3
Model
350
5CF
  0
DICTIONARY
  5
1B
102
{ACAD_REACTORS
330
19
102
}
330
19
100
AcDbDictionary
281
     1
  3
STANDARD
350
1C
  0
DICTIONARY
  5
5CE
102
{ACAD_REACTORS
330
19
102
}
330
19
100
AcDbDictionary
281
     1
  0
ACDBDICTIONARYWDFLT
  5
5CB
102
{ACAD_REACTORS
330
19
102
}
330
19
100
AcDbDictionary
281
     1
  3
Normal
350
5CC
100
AcDbDictionaryWithDefault
340
5CC
  0
DICTIONARY
  5
61C
102
{ACAD_REACTORS
330
19
102
}
330
19
100
AcDbDictionary
281
     1
  3
DIMASSOC
350
61D
  0
DICTIONARY
  5
618
102
{ACAD_REACTORS
330
19
102
}
330
19
100
AcDbDictionary
281
     1
  3
ASEBlockHierarchyIndexRecord
350
61A
1001
DCO15
1040
1526965385.89
  0
LAYOUT
  5
5D0
102
{ACAD_REACTORS
330
5CD
102
}
330
5CD
100
AcDbPlotSettings
  1

  2
\\SSI\Engineering - Xerox DC220.SSI
  4

  6

 40
0.0
 41
0.0
 42
0.0
 43
0.0
 44
0.0
 45
0.0
 46
0.0
 47
0.0
 48
0.0
 49
0.0
140
0.0
141
0.0
142
1.0
143
1.0
 70
   688
 72
     0
 73
     0
 74
     5
  7

 75
    16
147
1.0
148
0.0
149
0.0
100
AcDbLayout
  1
Layout1
 70
     1
 71
     1
 10
0.0
 20
0.0
 11
12.0
 21
9.0
 12
0.0
 22
0.0
 32
0.0
 14
1.000000000000000E+20
 24
1.000000000000000E+20
 34
1.000000000000000E+20
 15
-1.000000000000000E+20
 25
-1.000000000000000E+20
 35
-1.000000000000000E+20
146
0.0
 13
0.0
 23
0.0
 33
0.0
 16
1.0
 26
0.0
 36
0.0
 17
0.0
 27
1.0
 37
0.0
 76
     0
330
B
  0
LAYOUT
  5
5CF
102
{ACAD_REACTORS
330
5CD
102
}
330
5CD
100
AcDbPlotSettings
  1

  2
\\SSI\Engineering - Xerox DC220.SSI
  4

  6

 40
0.0
 41
0.0
 42
0.0
 43
0.0
 44
0.0
 45
0.0
 46
0.0
 47
0.0
 48
0.0
 49
0.0
140
0.0
141
0.0
142
1.0
143
1.0
 70
  1712
 72
     0
 73
     0
 74
     0
  7

 75
     0
147
1.0
148
0.0
149
0.0
100
AcDbLayout
  1
Model
 70
     1
 71
     0
 10
0.0
 20
0.0
 11
12.0
 21
9.0
 12
0.0
 22
0.0
 32
0.0
 14
0.0
 24
0.0
 34
0.0
 15
0.0
 25
0.0
 35
0.0
146
0.0
 13
0.0
 23
0.0
 33
0.0
 16
1.0
 26
0.0
 36
0.0
 17
0.0
 27
1.0
 37
0.0
 76
     0
330
A
  0
MLINESTYLE
  5
1C
102
{ACAD_REACTORS
330
1B
102
}
330
1B
100
AcDbMlineStyle
  2
STANDARD
 70
     0
  3

 62
     0
 51
90.0
 52
90.0
 71
     2
 49
0.5
 62
   256
  6
BYLAYER
 49
-0.5
 62
   256
  6
BYLAYER
  0
ACDBPLACEHOLDER
  5
5CC
102
{ACAD_REACTORS
330
5CB
102
}
330
5CB
  0
DICTIONARYVAR
  5
61D
102
{ACAD_REACTORS
330
61C
102
}
330
61C
100
DictionaryVariables
280
     0
  1
1
  0
XRECORD
  5
61A
102
{ACAD_REACTORS
330
618
102
}
330
618
100
AcDbXrecord
280
     1
330
1EF
330
1F3
330
1F7
330
20B
330
216
330
220
330
224
330
228
330
22E
330
232
330
236
330
23A
  0
ENDSEC
  0
EOF
