  0
SECTION
  2
HEADER
  9
$ACADVER
  1
AC1009
  9
$INSBASE
 10
0.0
 20
0.0
 30
0.0
  9
$EXTMIN
 10
2.2503090145057532
 20
2.2926531336882339
 30
0.0
  9
$EXTMAX
 10
2.5403539426700048
 20
2.7987547727791751
 30
0.0
  9
$LIMMIN
 10
0.0
 20
0.0
  9
$LIMMAX
 10
8.5
 20
11.0
  9
$ORTHOMODE
 70
     0
  9
$REGENMODE
 70
     1
  9
$FILLMODE
 70
     1
  9
$QTEXTMODE
 70
     0
  9
$MIRRTEXT
 70
     1
  9
$DRAGMODE
 70
     2
  9
$LTSCALE
 40
0.717037037
  9
$OSMODE
 70
    39
  9
$ATTMODE
 70
     1
  9
$TEXTSIZE
 40
0.2
  9
$TRACEWID
 40
0.05
  9
$TEXTSTYLE
  7
STANDARD
  9
$CLAYER
  8
0
  9
$CELTYPE
  6
BYLAYER
  9
$CECOLOR
 62
   256
  9
$DIMSCALE
 40
1.0
  9
$DIMASZ
 40
0.1875
  9
$DIMEXO
 40
0.0814814815
  9
$DIMDLI
 40
0.4954074074000001
  9
$DIMRND
 40
0.0
  9
$DIMDLE
 40
0.0
  9
$DIMEXE
 40
0.2346666667
  9
$DIMTP
 40
0.0
  9
$DIMTM
 40
0.0
  9
$DIMTXT
 40
0.1473214286
  9
$DIMCEN
 40
0.1173333333
  9
$DIMTSZ
 40
0.0
  9
$DIMTOL
 70
     0
  9
$DIMLIM
 70
     0
  9
$DIMTIH
 70
     1
  9
$DIMTOH
 70
     1
  9
$DIMSE1
 70
     0
  9
$DIMSE2
 70
     0
  9
$DIMTAD
 70
     0
  9
$DIMZIN
 70
     0
  9
$DIMBLK
  1

  9
$DIMASO
 70
     1
  9
$DIMSHO
 70
     1
  9
$DIMPOST
  1

  9
$DIMAPOST
  1

  9
$DIMALT
 70
     0
  9
$DIMALTD
 70
     2
  9
$DIMALTF
 40
25.399999999999999
  9
$DIMLFAC
 40
1.0
  9
$DIMTOFL
 70
     0
  9
$DIMTVP
 40
0.0
  9
$DIMTIX
 70
     0
  9
$DIMSOXD
 70
     0
  9
$DIMSAH
 70
     0
  9
$DIMBLK1
  1

  9
$DIMBLK2
  1

  9
$DIMSTYLE
  2
STANDARD
  9
$DIMCLRD
 70
     0
  9
$DIMCLRE
 70
     0
  9
$DIMCLRT
 70
     0
  9
$DIMTFAC
 40
1.0
  9
$DIMGAP
 40
0.09
  9
$LUNITS
 70
     2
  9
$LUPREC
 70
     4
  9
$SKETCHINC
 40
0.1
  9
$FILLETRAD
 40
0.0
  9
$AUNITS
 70
     0
  9
$AUPREC
 70
     0
  9
$MENU
  1
.
  9
$ELEVATION
 40
0.0
  9
$PELEVATION
 40
0.0
  9
$THICKNESS
 40
0.0
  9
$LIMCHECK
 70
     0
  9
$BLIPMODE
 70
     0
  9
$CHAMFERA
 40
0.0
  9
$CHAMFERB
 40
0.0
  9
$SKPOLY
 70
     0
  9
$TDCREATE
 40
2451948.4821630782
  9
$TDUPDATE
 40
2451982.581772801
  9
$TDINDWG
 40
0.0936828704
  9
$TDUSRTIMER
 40
0.0936828704
  9
$USRTIMER
 70
     1
  9
$ANGBASE
 50
0.0
  9
$ANGDIR
 70
     0
  9
$PDMODE
 70
     0
  9
$PDSIZE
 40
0.0
  9
$PLINEWID
 40
0.0
  9
$COORDS
 70
     0
  9
$SPLFRAME
 70
     0
  9
$SPLINETYPE
 70
     6
  9
$SPLINESEGS
 70
     8
  9
$ATTDIA
 70
     0
  9
$ATTREQ
 70
     1
  9
$HANDLING
 70
  4097
  9
$HANDSEED
  5
B1D
  9
$SURFTAB1
 70
     6
  9
$SURFTAB2
 70
     6
  9
$SURFTYPE
 70
     6
  9
$SURFU
 70
     6
  9
$SURFV
 70
     6
  9
$UCSNAME
  2

  9
$UCSORG
 10
0.0
 20
0.0
 30
0.0
  9
$UCSXDIR
 10
1.0
 20
0.0
 30
0.0
  9
$UCSYDIR
 10
0.0
 20
1.0
 30
0.0
  9
$PUCSNAME
  2

  9
$PUCSORG
 10
0.0
 20
0.0
 30
0.0
  9
$PUCSXDIR
 10
1.0
 20
0.0
 30
0.0
  9
$PUCSYDIR
 10
0.0
 20
1.0
 30
0.0
  9
$USERI1
 70
     0
  9
$USERI2
 70
     0
  9
$USERI3
 70
     0
  9
$USERI4
 70
     0
  9
$USERI5
 70
     0
  9
$USERR1
 40
0.0
  9
$USERR2
 40
0.0
  9
$USERR3
 40
0.0
  9
$USERR4
 40
0.0
  9
$USERR5
 40
0.0
  9
$WORLDVIEW
 70
     1
  9
$SHADEDGE
 70
     3
  9
$SHADEDIF
 70
    70
  9
$TILEMODE
 70
     1
  9
$MAXACTVP
 70
    48
  9
$PLIMCHECK
 70
     0
  9
$PEXTMIN
 10
1.0000000000000000E+020
 20
1.0000000000000000E+020
 30
1.0000000000000000E+020
  9
$PEXTMAX
 10
-1.0000000000000000E+020
 20
-1.0000000000000000E+020
 30
-1.0000000000000000E+020
  9
$PLIMMIN
 10
0.0
 20
0.0
  9
$PLIMMAX
 10
12.0
 20
9.0
  9
$UNITMODE
 70
     0
  9
$VISRETAIN
 70
     1
  9
$PLINEGEN
 70
     0
  9
$PSLTSCALE
 70
     1
  0
ENDSEC
  0
SECTION
  2
TABLES
  0
TABLE
  2
VPORT
 70
     2
  0
VPORT
  2
*ACTIVE
 70
     0
 10
0.0
 20
0.0
 11
1.0
 21
1.0
 12
2.6381800321495641
 22
2.7061005375211118
 13
0.0
 23
0.0
 14
1.0
 24
1.0
 15
0.0
 25
0.0
 16
0.0
 26
0.0
 36
1.0
 17
0.0
 27
0.0
 37
0.0
 40
2.0956650285668621
 41
2.0222222222222221
 42
50.0
 43
0.0
 44
0.0
 50
0.0
 51
0.0
 71
     0
 72
   100
 73
     1
 74
     0
 75
     0
 76
     0
 77
     0
 78
     0
  0
ENDTAB
  0
TABLE
  2
LTYPE
 70
     1
  0
LTYPE
  2
CONTINUOUS
 70
     0
  3
Solid line
 72
    65
 73
     0
 40
0.0
  0
ENDTAB
  0
TABLE
  2
LAYER
 70
     1
  0
LAYER
  2
0
 70
     0
 62
     1
  6
CONTINUOUS
  0
ENDTAB
  0
TABLE
  2
STYLE
 70
     1
  0
STYLE
  2
STANDARD
 70
     0
 40
0.0
 41
1.0
 50
0.0
 71
     0
 42
0.2
  3
txt
  4

  0
ENDTAB
  0
TABLE
  2
VIEW
 70
     0
  0
ENDTAB
  0
TABLE
  2
UCS
 70
     0
  0
ENDTAB
  0
TABLE
  2
APPID
 70
     1
  0
APPID
  2
ACAD
 70
     0
  0
ENDTAB
  0
TABLE
  2
DIMSTYLE
 70
     1
  0
DIMSTYLE
  2
STANDARD
 70
     0
  3

  4

  5

  6

  7

 40
1.0
 41
0.18
 42
0.0625
 43
0.38
 44
0.18
 45
0.0
 46
0.0
 47
0.0
 48
0.0
140
0.18
141
0.09
142
0.0
143
25.399999999999999
144
1.0
145
0.0
146
1.0
147
0.09
 71
     0
 72
     0
 73
     1
 74
     1
 75
     0
 76
     0
 77
     0
 78
     0
170
     0
171
     2
172
     0
173
     0
174
     0
175
     0
176
     0
177
     0
178
     0
  0
ENDTAB
  0
ENDSEC
  0
SECTION
  2
BLOCKS
  0
BLOCK
  8
0
  2
$MODEL_SPACE
 70
     0
 10
0.0
 20
0.0
 30
0.0
  3
$MODEL_SPACE
  1

  0
ENDBLK
  5
9
  8
0
  0
BLOCK
 67
     1
  8
0
  2
$PAPER_SPACE
 70
     0
 10
0.0
 20
0.0
 30
0.0
  3
$PAPER_SPACE
  1

  0
ENDBLK
  5
E
 67
     1
  8
0
  0
ENDSEC
  0
SECTION
  2
ENTITIES
  0
LINE
  5
24
  8
0
 10
2.3461433413783341
 20
2.3466606982093241
 30
0.0
 11
2.3198844638021678
 21
2.3315206404732649
 31
0.0
  0
ARC
  5
25
  8
0
 10
2.3523869959590908
 20
2.335831719618616
 30
0.0
 40
0.0125
 50
299.96642091442629
 51
119.96642091442639
  0
ARC
  5
26
  8
0
 10
2.2673870105566891
 20
2.335881535192025
 30
0.0
 40
0.0125
 50
59.966420914426408
 51
239.96642091442629
  0
LINE
  5
27
  8
0
 10
2.2998844672368959
 20
2.3315323617846562
 30
0.0
 11
2.2736433538292262
 21
2.3467031879631142
 31
0.0
  0
LINE
  5
28
  8
0
 10
2.319867545546451
 20
2.3026531319708692
 30
0.0
 11
2.3200384852699751
 21
2.5943264583999222
 31
0.0
1001
ACAD
1000
ASC_BOUNDS
1002
{
1070
    19
1005
2E
1002
}
  0
LINE
  5
29
  8
0
 10
2.300049229307731
 20
2.6126648000439632
 30
0.0
 11
2.2998675489811791
 21
2.30266485328226
 31
0.0
1001
ACAD
1000
ASC_BOUNDS
1002
{
1070
    19
1005
2E
1002
}
  0
LINE
  5
2A
  8
0
 10
2.5340198858429268
 20
2.5625276692875181
 30
0.0
 11
2.534137098956831
 21
2.7625276349402301
 31
0.0
  0
LINE
  5
2B
  8
0
 10
2.529137099815514
 20
2.7625305652680772
 30
0.0
 11
2.5290198867016098
 21
2.5625305996153651
 31
0.0
1001
ACAD
1000
ASC_BOUNDS
1002
{
1070
    19
1005
2E
1002
}
  0
LINE
  5
2C
  8
0
 10
2.274148864919697
 20
2.7826800085535761
 30
0.0
 11
2.2740052945766309
 21
2.537706876064397
 31
0.0
  0
LINE
  5
2D
  8
0
 10
2.279006360270067
 20
2.5395237966040138
 30
0.0
 11
2.279148864061014
 21
2.7826770782257282
 31
0.0
1001
ACAD
1000
ASC_BOUNDS
1002
{
1070
    19
1005
2E
1002
}
  0
ARC
  5
2F
  8
0
 10
2.5041371041089251
 20
2.762545216907315
 30
0.0
 40
0.03
 50
359.96642091442641
 51
89.966420914426394
  0
ARC
  5
30
  8
0
 10
2.5041371041089251
 20
2.762545216907315
 30
0.0
 40
0.025
 50
359.96642091442641
 51
89.966420914426394
1001
ACAD
1000
ASC_BOUNDS
1002
{
1070
    19
1005
2E
1002
}
  0
LINE
  5
31
  8
0
 10
2.5041546860760109
 20
2.7925452117552219
 30
0.0
 11
2.2841547238580269
 21
2.792674146180516
 31
0.0
  0
LINE
  5
32
  8
0
 10
2.2841517935301789
 20
2.787674147039199
 30
0.0
 11
2.504151755748163
 21
2.787545212613904
 31
0.0
1001
ACAD
1000
ASC_BOUNDS
1002
{
1070
    19
1005
2E
1002
}
  0
ARC
  5
33
  8
0
 10
2.2841488632023319
 20
2.7826741478978811
 30
0.0
 40
0.005
 50
89.966420914426394
 51
179.96642091442641
1001
ACAD
1000
ASC_BOUNDS
1002
{
1070
    19
1005
2E
1002
}
  0
ARC
  5
34
  8
0
 10
2.2841488632023319
 20
2.7826741478978811
 30
0.0
 40
0.01
 50
89.966420914426394
 51
179.96642091442641
  0
ARC
  5
35
  8
0
 10
2.5040198909950209
 20
2.562545251254603
 30
0.0
 40
0.03
 50
269.96642091442629
 51
359.96642091442641
  0
ARC
  5
36
  8
0
 10
2.5040198909950209
 20
2.562545251254603
 30
0.0
 40
0.025
 50
269.96642091442629
 51
359.96642091442641
1001
ACAD
1000
ASC_BOUNDS
1002
{
1070
    19
1005
2E
1002
}
  0
ARC
  5
37
  8
0
 10
2.35498475264958
 20
2.5026325853286489
 30
0.0
 40
0.03
 50
89.966420914426394
 51
179.96642091442641
  0
ARC
  5
38
  8
0
 10
2.35498475264958
 20
2.5026325853286489
 30
0.0
 40
0.035
 50
89.966420914426394
 51
179.96642091442641
1001
ACAD
1000
ASC_BOUNDS
1002
{
1070
    19
1005
2E
1002
}
  0
LINE
  5
39
  8
0
 10
2.2949906236094608
 20
2.5126677475454549
 30
0.0
 11
2.294934361314787
 21
2.416667764032153
 31
0.0
  0
LINE
  5
3A
  8
0
 10
2.2740052945766309
 20
2.537706876064397
 30
0.0
 11
2.2949906236094608
 21
2.5126677475454549
 31
0.0
  0
LINE
  5
3B
  8
0
 10
2.2999916893028969
 20
2.5144846680850721
 30
0.0
 11
2.279006360270067
 21
2.5395237966040138
 31
0.0
1001
ACAD
1000
ASC_BOUNDS
1002
{
1070
    19
1005
2E
1002
}
  0
LINE
  5
3C
  8
0
 10
2.426311367907247
 20
2.6035613744684061
 30
0.0
 11
2.4245799300548638
 21
2.6234862865863509
 31
0.0
1001
ACAD
1000
ASC_BOUNDS
1002
{
1070
    19
1005
2E
1002
}
  0
LINE
  5
3D
  8
0
 10
2.3200384852699751
 20
2.5943264583999222
 30
0.0
 11
2.426311367907247
 21
2.6035613744684061
 31
0.0
1001
ACAD
1000
ASC_BOUNDS
1002
{
1070
    19
1005
2E
1002
}
  0
LINE
  5
3E
  8
0
 10
2.4245799300548638
 20
2.6234862865863509
 30
0.0
 11
2.300049229307731
 21
2.6126648000439632
 31
0.0
1001
ACAD
1000
ASC_BOUNDS
1002
{
1070
    19
1005
2E
1002
}
  0
LINE
  5
3F
  8
0
 10
2.3550023346166662
 20
2.5326325801765548
 30
0.0
 11
2.504002309027936
 21
2.532545256406697
 31
0.0
  0
LINE
  5
40
  8
0
 10
2.504005239355783
 20
2.537545255548014
 30
0.0
 11
2.3550052649445128
 21
2.5376325793178731
 31
0.0
1001
ACAD
1000
ASC_BOUNDS
1002
{
1070
    19
1005
2E
1002
}
  0
LINE
  5
41
  8
0
 10
2.261177552529714
 20
2.405059868682021
 30
0.0
 11
2.299914434226741
 21
2.3826648395433452
 31
0.0
  0
LINE
  5
42
  8
0
 10
2.2999313524824578
 20
2.41153234804574
 30
0.0
 11
2.2736902390747882
 21
2.426703174224198
 31
0.0
  0
ARC
  5
43
  8
0
 10
2.2674338958022502
 20
2.4158815214531102
 30
0.0
 40
0.0125
 50
59.966420914426408
 51
239.96642091442629
  0
LINE
  5
44
  8
0
 10
2.3249343561626938
 20
2.4166501820650681
 30
0.0
 11
2.3249847578016731
 21
2.5026501672957342
 31
0.0
  0
ARC
  5
45
  8
0
 10
2.3524338812046528
 20
2.4158317058796999
 30
0.0
 40
0.0125
 50
299.96642091442629
 51
119.96642091442639
  0
LINE
  5
46
  8
0
 10
2.294934361314787
 20
2.416667764032153
 30
0.0
 11
2.2999343604561049
 21
2.4166648337043051
 31
0.0
  0
LINE
  5
47
  8
0
 10
2.3199343570213768
 20
2.4166531123929151
 30
0.0
 11
2.3249343561626938
 21
2.4166501820650681
 31
0.0
  0
LINE
  5
48
  8
0
 10
2.319914430792013
 20
2.3826531182319539
 30
0.0
 11
2.3586775357854108
 21
2.4050027272889918
 31
0.0
  0
LINE
  5
49
  8
0
 10
2.3461902266238952
 20
2.4266606844704079
 30
0.0
 11
2.3199313490477298
 21
2.4115206267343501
 31
0.0
  0
LINE
  5
4A
  8
0
 10
2.2611306672841529
 20
2.325059882420935
 30
0.0
 11
2.2998675489811791
 21
2.30266485328226
 31
0.0
  0
LINE
  5
4B
  8
0
 10
2.319867545546451
 20
2.3026531319708692
 30
0.0
 11
2.3586306505398502
 21
2.325002741027907
 31
0.0
  0
ARC
  5
4C
  8
0
 10
2.3098675472638162
 20
2.302658992626565
 30
0.0
 40
0.01
 50
179.96642091442641
 51
359.96642091442641
  0
ENDSEC
  0
EOF
