  0
SECTION
  2
HEADER
  9
$ACADVER
  1
AC1015
  9
$ACADMAINTVER
 70
    14
  9
$DWGCODEPAGE
  3
ANSI_1252
  9
$INSBASE
 10
0.0
 20
0.0
 30
0.0
  9
$EXTMIN
 10
-0.0075181785
 20
0.0
 30
0.0
  9
$EXTMAX
 10
8.0
 20
10.0
 30
0.0
  9
$LIMMIN
 10
0.0
 20
0.0
  9
$LIMMAX
 10
8.0
 20
10.0
  9
$ORTHOMODE
 70
     0
  9
$REGENMODE
 70
     1
  9
$FILLMODE
 70
     1
  9
$QTEXTMODE
 70
     0
  9
$MIRRTEXT
 70
     1
  9
$LTSCALE
 40
0.6518518519
  9
$ATTMODE
 70
     1
  9
$TEXTSIZE
 40
0.2
  9
$TRACEWID
 40
0.05
  9
$TEXTSTYLE
  7
Standard
  9
$CLAYER
  8
0
  9
$CELTYPE
  6
ByLayer
  9
$CECOLOR
 62
   256
  9
$CELTSCALE
 40
1.0
  9
$DISPSILH
 70
     0
  9
$DIMSCALE
 40
1.0
  9
$DIMASZ
 40
0.1875
  9
$DIMEXO
 40
0.0740740741
  9
$DIMDLI
 40
0.4503703704000001
  9
$DIMRND
 40
0.0
  9
$DIMDLE
 40
0.0
  9
$DIMEXE
 40
0.2133333333
  9
$DIMTP
 40
0.0
  9
$DIMTM
 40
0.0
  9
$DIMTXT
 40
0.1339285714
  9
$DIMCEN
 40
0.1066666667
  9
$DIMTSZ
 40
0.0
  9
$DIMTOL
 70
     0
  9
$DIMLIM
 70
     0
  9
$DIMTIH
 70
     1
  9
$DIMTOH
 70
     1
  9
$DIMSE1
 70
     0
  9
$DIMSE2
 70
     0
  9
$DIMTAD
 70
     0
  9
$DIMZIN
 70
     0
  9
$DIMBLK
  1

  9
$DIMASO
 70
     1
  9
$DIMSHO
 70
     1
  9
$DIMPOST
  1

  9
$DIMAPOST
  1

  9
$DIMALT
 70
     0
  9
$DIMALTD
 70
     2
  9
$DIMALTF
 40
25.4
  9
$DIMLFAC
 40
1.0
  9
$DIMTOFL
 70
     0
  9
$DIMTVP
 40
0.0
  9
$DIMTIX
 70
     0
  9
$DIMSOXD
 70
     0
  9
$DIMSAH
 70
     0
  9
$DIMBLK1
  1

  9
$DIMBLK2
  1

  9
$DIMSTYLE
  2
Standard
  9
$DIMCLRD
 70
     0
  9
$DIMCLRE
 70
     0
  9
$DIMCLRT
 70
     0
  9
$DIMTFAC
 40
1.0
  9
$DIMGAP
 40
0.09
  9
$DIMJUST
 70
     0
  9
$DIMSD1
 70
     0
  9
$DIMSD2
 70
     0
  9
$DIMTOLJ
 70
     1
  9
$DIMTZIN
 70
     0
  9
$DIMALTZ
 70
     0
  9
$DIMALTTZ
 70
     0
  9
$DIMUPT
 70
     0
  9
$DIMDEC
 70
     4
  9
$DIMTDEC
 70
     4
  9
$DIMALTU
 70
     2
  9
$DIMALTTD
 70
     2
  9
$DIMTXSTY
  7
Standard
  9
$DIMAUNIT
 70
     0
  9
$DIMADEC
 70
     0
  9
$DIMALTRND
 40
0.0
  9
$DIMAZIN
 70
     0
  9
$DIMDSEP
 70
    46
  9
$DIMATFIT
 70
     3
  9
$DIMFRAC
 70
     0
  9
$DIMLDRBLK
  1

  9
$DIMLUNIT
 70
     2
  9
$DIMLWD
 70
    -2
  9
$DIMLWE
 70
    -2
  9
$DIMTMOVE
 70
     0
  9
$LUNITS
 70
     2
  9
$LUPREC
 70
     4
  9
$SKETCHINC
 40
0.1
  9
$FILLETRAD
 40
0.0
  9
$AUNITS
 70
     0
  9
$AUPREC
 70
     0
  9
$MENU
  1
.
  9
$ELEVATION
 40
0.0
  9
$PELEVATION
 40
0.0
  9
$THICKNESS
 40
0.0
  9
$LIMCHECK
 70
     0
  9
$CHAMFERA
 40
0.0
  9
$CHAMFERB
 40
0.0
  9
$CHAMFERC
 40
0.0
  9
$CHAMFERD
 40
0.0
  9
$SKPOLY
 70
     0
  9
$TDCREATE
 40
2453476.415162940
  9
$TDUCREATE
 40
2453476.581829606
  9
$TDUPDATE
 40
2453476.417078448
  9
$TDUUPDATE
 40
2453476.583745116
  9
$TDINDWG
 40
0.0019156829
  9
$TDUSRTIMER
 40
0.0019156829
  9
$USRTIMER
 70
     1
  9
$ANGBASE
 50
0.0
  9
$ANGDIR
 70
     0
  9
$PDMODE
 70
     0
  9
$PDSIZE
 40
0.0
  9
$PLINEWID
 40
0.0
  9
$SPLFRAME
 70
     0
  9
$SPLINETYPE
 70
     6
  9
$SPLINESEGS
 70
     8
  9
$HANDSEED
  5
36A
  9
$SURFTAB1
 70
     6
  9
$SURFTAB2
 70
     6
  9
$SURFTYPE
 70
     6
  9
$SURFU
 70
     6
  9
$SURFV
 70
     6
  9
$UCSBASE
  2

  9
$UCSNAME
  2

  9
$UCSORG
 10
0.0
 20
0.0
 30
0.0
  9
$UCSXDIR
 10
1.0
 20
0.0
 30
0.0
  9
$UCSYDIR
 10
0.0
 20
1.0
 30
0.0
  9
$UCSORTHOREF
  2

  9
$UCSORTHOVIEW
 70
     0
  9
$UCSORGTOP
 10
0.0
 20
0.0
 30
0.0
  9
$UCSORGBOTTOM
 10
0.0
 20
0.0
 30
0.0
  9
$UCSORGLEFT
 10
0.0
 20
0.0
 30
0.0
  9
$UCSORGRIGHT
 10
0.0
 20
0.0
 30
0.0
  9
$UCSORGFRONT
 10
0.0
 20
0.0
 30
0.0
  9
$UCSORGBACK
 10
0.0
 20
0.0
 30
0.0
  9
$PUCSBASE
  2

  9
$PUCSNAME
  2

  9
$PUCSORG
 10
0.0
 20
0.0
 30
0.0
  9
$PUCSXDIR
 10
1.0
 20
0.0
 30
0.0
  9
$PUCSYDIR
 10
0.0
 20
1.0
 30
0.0
  9
$PUCSORTHOREF
  2

  9
$PUCSORTHOVIEW
 70
     0
  9
$PUCSORGTOP
 10
0.0
 20
0.0
 30
0.0
  9
$PUCSORGBOTTOM
 10
0.0
 20
0.0
 30
0.0
  9
$PUCSORGLEFT
 10
0.0
 20
0.0
 30
0.0
  9
$PUCSORGRIGHT
 10
0.0
 20
0.0
 30
0.0
  9
$PUCSORGFRONT
 10
0.0
 20
0.0
 30
0.0
  9
$PUCSORGBACK
 10
0.0
 20
0.0
 30
0.0
  9
$USERI1
 70
     0
  9
$USERI2
 70
     0
  9
$USERI3
 70
     0
  9
$USERI4
 70
     0
  9
$USERI5
 70
     0
  9
$USERR1
 40
0.0
  9
$USERR2
 40
0.0
  9
$USERR3
 40
0.0
  9
$USERR4
 40
0.0
  9
$USERR5
 40
0.0
  9
$WORLDVIEW
 70
     1
  9
$SHADEDGE
 70
     3
  9
$SHADEDIF
 70
    70
  9
$TILEMODE
 70
     1
  9
$MAXACTVP
 70
    64
  9
$PINSBASE
 10
0.0
 20
0.0
 30
0.0
  9
$PLIMCHECK
 70
     0
  9
$PEXTMIN
 10
1.000000000000000E+20
 20
1.000000000000000E+20
 30
1.000000000000000E+20
  9
$PEXTMAX
 10
-1.000000000000000E+20
 20
-1.000000000000000E+20
 30
-1.000000000000000E+20
  9
$PLIMMIN
 10
0.0
 20
0.0
  9
$PLIMMAX
 10
12.0
 20
9.0
  9
$UNITMODE
 70
     0
  9
$VISRETAIN
 70
     1
  9
$PLINEGEN
 70
     0
  9
$PSLTSCALE
 70
     1
  9
$TREEDEPTH
 70
  3020
  9
$CMLSTYLE
  2
Standard
  9
$CMLJUST
 70
     0
  9
$CMLSCALE
 40
1.0
  9
$PROXYGRAPHICS
 70
     1
  9
$MEASUREMENT
 70
     0
  9
$CELWEIGHT
370
    -1
  9
$ENDCAPS
280
     0
  9
$JOINSTYLE
280
     0
  9
$LWDISPLAY
290
     0
  9
$INSUNITS
 70
     0
  9
$HYPERLINKBASE
  1

  9
$STYLESHEET
  1

  9
$XEDIT
290
     1
  9
$CEPSNTYPE
380
     0
  9
$PSTYLEMODE
290
     1
  9
$FINGERPRINTGUID
  2
{1880FB2B-CAB9-442D-8414-FA7667E4DEB2}
  9
$VERSIONGUID
  2
{48A23564-1CB3-49F2-B4C4-1592C941ACDC}
  9
$EXTNAMES
290
     1
  9
$PSVPSCALE
 40
0.0
  9
$OLESTARTUP
290
     0
  0
ENDSEC
  0
SECTION
  2
CLASSES
  0
CLASS
  1
ACDBDICTIONARYWDFLT
  2
AcDbDictionaryWithDefault
  3
AutoCAD 2000
 90
        0
280
     0
281
     0
  0
CLASS
  1
ACDBPLACEHOLDER
  2
AcDbPlaceHolder
  3
AutoCAD 2000
 90
        0
280
     0
281
     0
  0
CLASS
  1
LAYOUT
  2
AcDbLayout
  3
AutoCAD 2000
 90
        0
280
     0
281
     0
  0
CLASS
  1
DICTIONARYVAR
  2
AcDbDictionaryVar
  3
AutoCAD 2000
 90
        0
280
     0
281
     0
  0
ENDSEC
  0
SECTION
  2
TABLES
  0
TABLE
  2
VPORT
  5
8
330
0
100
AcDbSymbolTable
 70
     3
  0
VPORT
  5
369
330
8
100
AcDbSymbolTableRecord
100
AcDbViewportTableRecord
  2
*Active
 70
     0
 10
0.0
 20
0.0
 11
1.0
 21
1.0
 12
5.291624109346617
 22
5.251729111421601
 13
0.0
 23
0.0
 14
1.0
 24
1.0
 15
0.0
 25
0.0
 16
0.0
 26
0.0
 36
1.0
 17
0.0
 27
0.0
 37
0.0
 40
0.7588030544657336
 41
2.151057401812688
 42
50.0
 43
0.0
 44
0.0
 50
0.0
 51
0.0
 71
     0
 72
   100
 73
     1
 74
     1
 75
     0
 76
     0
 77
     0
 78
     0
281
     0
 65
     1
110
0.0
120
0.0
130
0.0
111
1.0
121
0.0
131
0.0
112
0.0
122
1.0
132
0.0
 79
     0
146
0.0
  0
ENDTAB
  0
TABLE
  2
LTYPE
  5
5
330
0
100
AcDbSymbolTable
 70
     6
  0
LTYPE
  5
13
330
5
100
AcDbSymbolTableRecord
100
AcDbLinetypeTableRecord
  2
ByBlock
 70
     0
  3

 72
    65
 73
     0
 40
0.0
  0
LTYPE
  5
14
330
5
100
AcDbSymbolTableRecord
100
AcDbLinetypeTableRecord
  2
ByLayer
 70
     0
  3

 72
    65
 73
     0
 40
0.0
  0
LTYPE
  5
15
330
5
100
AcDbSymbolTableRecord
100
AcDbLinetypeTableRecord
  2
CONTINUOUS
 70
     0
  3
Solid line
 72
    65
 73
     0
 40
0.0
  0
LTYPE
  5
22
330
5
100
AcDbSymbolTableRecord
100
AcDbLinetypeTableRecord
  2
CENTER
 70
     0
  3
____ _ ____ _ ____ _ ____ _ ____ _ ____ _ ____
 72
    65
 73
     4
 40
0.6
 49
0.375
 74
     0
 49
-0.075
 74
     0
 49
0.075
 74
     0
 49
-0.075
 74
     0
  0
LTYPE
  5
23
330
5
100
AcDbSymbolTableRecord
100
AcDbLinetypeTableRecord
  2
HIDDEN
 70
     0
  3
- - - - - - - - - - - - - - - - - - - -
 72
    65
 73
     2
 40
0.2
 49
0.1
 74
     0
 49
-0.1
 74
     0
  0
LTYPE
  5
24
330
5
100
AcDbSymbolTableRecord
100
AcDbLinetypeTableRecord
  2
PHANTOM
 70
     0
  3
_____ _ _ _____ _ _ _____ _ _ _____
 72
    65
 73
     6
 40
0.8
 49
0.45
 74
     0
 49
-0.05
 74
     0
 49
0.1
 74
     0
 49
-0.05
 74
     0
 49
0.1
 74
     0
 49
-0.05
 74
     0
  0
LTYPE
  5
25
330
5
100
AcDbSymbolTableRecord
100
AcDbLinetypeTableRecord
  2
DOT
 70
     0
  3
. . . . . . . . . . . . . . . . . . . .
 72
    65
 73
     2
 40
0.2
 49
0.1
 74
     0
 49
-0.1
 74
     0
  0
LTYPE
  5
26
330
5
100
AcDbSymbolTableRecord
100
AcDbLinetypeTableRecord
  2
DASHED
 70
     0
  3
- - - - - - - - - - - - - - - - - - - -
 72
    65
 73
     2
 40
0.2
 49
0.1
 74
     0
 49
-0.1
 74
     0
  0
ENDTAB
  0
TABLE
  2
LAYER
  5
2
330
0
100
AcDbSymbolTable
 70
     4
  0
LAYER
  5
10
330
2
100
AcDbSymbolTableRecord
100
AcDbLayerTableRecord
  2
0
 70
     0
 62
     7
  6
CONTINUOUS
370
    -3
390
F
  0
LAYER
  5
27
330
2
100
AcDbSymbolTableRecord
100
AcDbLayerTableRecord
  2
DEFAULT_1
 70
     0
 62
     7
  6
CENTER
370
    -3
390
F
  0
LAYER
  5
28
330
2
100
AcDbSymbolTableRecord
100
AcDbLayerTableRecord
  2
DEFAULT_2
 70
     0
 62
     8
  6
HIDDEN
370
    -3
390
F
  0
LAYER
  5
29
330
2
100
AcDbSymbolTableRecord
100
AcDbLayerTableRecord
  2
DEFAULT_3
 70
     0
 62
     7
  6
PHANTOM
370
    -3
390
F
  0
ENDTAB
  0
TABLE
  2
STYLE
  5
3
330
0
100
AcDbSymbolTable
 70
     1
  0
STYLE
  5
11
330
3
100
AcDbSymbolTableRecord
100
AcDbTextStyleTableRecord
  2
Standard
 70
     0
 40
0.0
 41
1.0
 50
0.0
 71
     0
 42
0.2
  3
txt
  4

  0
ENDTAB
  0
TABLE
  2
VIEW
  5
6
330
0
100
AcDbSymbolTable
 70
     0
  0
ENDTAB
  0
TABLE
  2
UCS
  5
7
330
0
100
AcDbSymbolTable
 70
     0
  0
ENDTAB
  0
TABLE
  2
APPID
  5
9
330
0
100
AcDbSymbolTable
 70
     2
  0
APPID
  5
12
330
9
100
AcDbSymbolTableRecord
100
AcDbRegAppTableRecord
  2
ACAD
 70
     0
  0
APPID
  5
364
330
9
100
AcDbSymbolTableRecord
100
AcDbRegAppTableRecord
  2
DCO15
 70
     0
  0
ENDTAB
  0
TABLE
  2
DIMSTYLE
  5
A
330
0
100
AcDbSymbolTable
 70
     1
100
AcDbDimStyleTable
 71
     0
  0
DIMSTYLE
105
341
330
A
100
AcDbSymbolTableRecord
100
AcDbDimStyleTableRecord
  2
Standard
 70
     0
340
11
  0
ENDTAB
  0
TABLE
  2
BLOCK_RECORD
  5
1
330
0
100
AcDbSymbolTable
 70
     5
  0
BLOCK_RECORD
  5
1E
330
1
100
AcDbSymbolTableRecord
100
AcDbBlockTableRecord
  2
*Model_Space
340
21
  0
BLOCK_RECORD
  5
1A
330
1
100
AcDbSymbolTableRecord
100
AcDbBlockTableRecord
  2
*Paper_Space
340
1D
  0
BLOCK_RECORD
  5
2C
330
1
100
AcDbSymbolTableRecord
100
AcDbBlockTableRecord
  2
SCHLEGEL_BL0
340
0
102
{BLKREFS
331
20F
102
}
  0
BLOCK_RECORD
  5
1B8
330
1
100
AcDbSymbolTableRecord
100
AcDbBlockTableRecord
  2
*D1
340
0
  0
BLOCK_RECORD
  5
1CD
330
1
100
AcDbSymbolTableRecord
100
AcDbBlockTableRecord
  2
*D2
340
0
  0
BLOCK_RECORD
  5
1E2
330
1
100
AcDbSymbolTableRecord
100
AcDbBlockTableRecord
  2
*D3
340
0
  0
BLOCK_RECORD
  5
1F6
330
1
100
AcDbSymbolTableRecord
100
AcDbBlockTableRecord
  2
*D4
340
0
  0
ENDTAB
  0
ENDSEC
  0
SECTION
  2
BLOCKS
  0
BLOCK
  5
1F
330
1E
100
AcDbEntity
  8
0
100
AcDbBlockBegin
  2
*Model_Space
 70
     0
 10
0.0
 20
0.0
 30
0.0
  3
*Model_Space
  1

  0
ENDBLK
  5
20
330
1E
100
AcDbEntity
  8
0
100
AcDbBlockEnd
  0
BLOCK
  5
1B
330
1A
100
AcDbEntity
 67
     1
  8
0
100
AcDbBlockBegin
  2
*Paper_Space
 70
     0
 10
0.0
 20
0.0
 30
0.0
  3
*Paper_Space
  1

  0
ENDBLK
  5
1C
330
1A
100
AcDbEntity
 67
     1
  8
0
100
AcDbBlockEnd
  0
BLOCK
  5
2D
330
2C
100
AcDbEntity
  8
0
  6
Continuous
 62
     2
100
AcDbBlockBegin
  2
SCHLEGEL_BL0
 70
     0
 10
0.0
 20
0.0
 30
0.0
  3
SCHLEGEL_BL0
  1

  0
LINE
  5
2E
330
2C
100
AcDbEntity
  8
0
  6
Continuous
 62
     7
100
AcDbLine
 10
0.077848713
 20
9.0733772312
 30
0.0
 11
0.9214327515999999
 21
9.0733772312
 31
0.0
  0
LINE
  5
2F
330
2C
100
AcDbEntity
  8
0
  6
Continuous
 62
     7
100
AcDbLine
 10
0.9214327515999999
 20
9.0733772312
 30
0.0
 11
0.9340409432999999
 21
9.0750376559
 31
0.0
  0
LINE
  5
30
330
2C
100
AcDbEntity
  8
0
  6
Continuous
 62
     7
100
AcDbLine
 10
0.9340409432999999
 20
9.0750376559
 30
0.0
 11
0.9457913325999999
 21
9.079903553099999
 31
0.0
  0
LINE
  5
31
330
2C
100
AcDbEntity
  8
0
  6
Continuous
 62
     7
100
AcDbLine
 10
0.9457913325999999
 20
9.079903553099999
 30
0.0
 11
0.9558792905
 21
9.087645847599999
 31
0.0
  0
LINE
  5
32
330
2C
100
AcDbEntity
  8
0
  6
Continuous
 62
     7
100
AcDbLine
 10
0.9558792905
 20
9.087645847599999
 30
0.0
 11
0.9636195784999998
 21
9.0977348088
 31
0.0
  0
LINE
  5
33
330
2C
100
AcDbEntity
  8
0
  6
Continuous
 62
     7
100
AcDbLine
 10
0.9636195784999998
 20
9.0977348088
 30
0.0
 11
0.9684884854999999
 21
9.109483191499998
 31
0.0
  0
LINE
  5
34
330
2C
100
AcDbEntity
  8
0
  6
Continuous
 62
     7
100
AcDbLine
 10
0.9684884854999999
 20
9.109483191499998
 30
0.0
 11
0.9701469036
 21
9.1220923865
 31
0.0
  0
LINE
  5
35
330
2C
100
AcDbEntity
  8
0
  6
Continuous
 62
     7
100
AcDbLine
 10
0.9701469036
 20
9.1220923865
 30
0.0
 11
0.9701469036
 21
9.8746610726
 31
0.0
  0
LINE
  5
36
330
2C
100
AcDbEntity
  8
0
  6
Continuous
 62
     7
100
AcDbLine
 10
0.9701469036
 20
9.8746610726
 30
0.0
 11
0.9684884854999999
 21
9.887270267599999
 31
0.0
  0
LINE
  5
37
330
2C
100
AcDbEntity
  8
0
  6
Continuous
 62
     7
100
AcDbLine
 10
0.9684884854999999
 20
9.887270267599999
 30
0.0
 11
0.9636195784999998
 21
9.8990186503
 31
0.0
  0
LINE
  5
38
330
2C
100
AcDbEntity
  8
0
  6
Continuous
 62
     7
100
AcDbLine
 10
0.9636195784999998
 20
9.8990186503
 30
0.0
 11
0.9558792905
 21
9.9091086148
 31
0.0
  0
LINE
  5
39
330
2C
100
AcDbEntity
  8
0
  6
Continuous
 62
     7
100
AcDbLine
 10
0.9558792905
 20
9.9091086148
 30
0.0
 11
0.9457913325999999
 21
9.916849905999999
 31
0.0
  0
LINE
  5
3A
330
2C
100
AcDbEntity
  8
0
  6
Continuous
 62
     7
100
AcDbLine
 10
0.9457913325999999
 20
9.916849905999999
 30
0.0
 11
0.9340409432999999
 21
9.921716806499999
 31
0.0
  0
LINE
  5
3B
330
2C
100
AcDbEntity
  8
0
  6
Continuous
 62
     7
100
AcDbLine
 10
0.9340409432999999
 20
9.921716806499999
 30
0.0
 11
0.9214327515999999
 21
9.923377231199999
 31
0.0
  0
LINE
  5
3C
330
2C
100
AcDbEntity
  8
0
  6
Continuous
 62
     7
100
AcDbLine
 10
0.9214327515999999
 20
9.923377231199999
 30
0.0
 11
0.077848713
 21
9.923377231199999
 31
0.0
  0
LINE
  5
3D
330
2C
100
AcDbEntity
  8
0
  6
Continuous
 62
     7
100
AcDbLine
 10
0.077848713
 20
9.923377231199999
 30
0.0
 11
0.065239518
 21
9.921716806499999
 31
0.0
  0
LINE
  5
3E
330
2C
100
AcDbEntity
  8
0
  6
Continuous
 62
     7
100
AcDbLine
 10
0.065239518
 20
9.921716806499999
 30
0.0
 11
0.0534921386
 21
9.916849905999999
 31
0.0
  0
LINE
  5
3F
330
2C
100
AcDbEntity
  8
0
  6
Continuous
 62
     7
100
AcDbLine
 10
0.0534921386
 20
9.916849905999999
 30
0.0
 11
0.0434021741
 21
9.9091086148
 31
0.0
  0
LINE
  5
40
330
2C
100
AcDbEntity
  8
0
  6
Continuous
 62
     7
100
AcDbLine
 10
0.0434021741
 20
9.9091086148
 30
0.0
 11
0.0356618861
 21
9.8990186503
 31
0.0
  0
LINE
  5
41
330
2C
100
AcDbEntity
  8
0
  6
Continuous
 62
     7
100
AcDbLine
 10
0.0356618861
 20
9.8990186503
 30
0.0
 11
0.0307929791
 21
9.887270267599999
 31
0.0
  0
LINE
  5
42
330
2C
100
AcDbEntity
  8
0
  6
Continuous
 62
     7
100
AcDbLine
 10
0.0307929791
 20
9.887270267599999
 30
0.0
 11
0.029134561
 21
9.8746610726
 31
0.0
  0
LINE
  5
43
330
2C
100
AcDbEntity
  8
0
  6
Continuous
 62
     7
100
AcDbLine
 10
0.029134561
 20
9.8746610726
 30
0.0
 11
0.029134561
 21
9.1220923865
 31
0.0
  0
LINE
  5
44
330
2C
100
AcDbEntity
  8
0
  6
Continuous
 62
     7
100
AcDbLine
 10
0.029134561
 20
9.1220923865
 30
0.0
 11
0.0307929791
 21
9.109483191499998
 31
0.0
  0
LINE
  5
45
330
2C
100
AcDbEntity
  8
0
  6
Continuous
 62
     7
100
AcDbLine
 10
0.0307929791
 20
9.109483191499998
 30
0.0
 11
0.0356618861
 21
9.0977348088
 31
0.0
  0
LINE
  5
46
330
2C
100
AcDbEntity
  8
0
  6
Continuous
 62
     7
100
AcDbLine
 10
0.0356618861
 20
9.0977348088
 30
0.0
 11
0.0434021741
 21
9.087645847599999
 31
0.0
  0
LINE
  5
47
330
2C
100
AcDbEntity
  8
0
  6
Continuous
 62
     7
100
AcDbLine
 10
0.0434021741
 20
9.087645847599999
 30
0.0
 11
0.053490132
 21
9.079903553099999
 31
0.0
  0
LINE
  5
48
330
2C
100
AcDbEntity
  8
0
  6
Continuous
 62
     7
100
AcDbLine
 10
0.053490132
 20
9.079903553099999
 30
0.0
 11
0.065239518
 21
9.0750376559
 31
0.0
  0
LINE
  5
49
330
2C
100
AcDbEntity
  8
0
  6
Continuous
 62
     7
100
AcDbLine
 10
0.065239518
 20
9.0750376559
 30
0.0
 11
0.077848713
 21
9.0733772312
 31
0.0
  0
LINE
  5
4A
330
2C
100
AcDbEntity
  8
0
  6
Continuous
 62
     7
100
AcDbLine
 10
0.2851620177
 20
9.340695575999999
 30
0.0
 11
0.1556157826
 21
9.340695575999999
 31
0.0
  0
LINE
  5
4B
330
2C
100
AcDbEntity
  8
0
  6
Continuous
 62
     7
100
AcDbLine
 10
0.1556157826
 20
9.340695575999999
 30
0.0
 11
0.1483149302
 21
9.338890679299998
 31
0.0
  0
LINE
  5
4C
330
2C
100
AcDbEntity
  8
0
  6
Continuous
 62
     7
100
AcDbLine
 10
0.1483149302
 20
9.338890679299998
 30
0.0
 11
0.1426945682
 21
9.333892349400001
 31
0.0
  0
LINE
  5
4D
330
2C
100
AcDbEntity
  8
0
  6
Continuous
 62
     7
100
AcDbLine
 10
0.1426945682
 20
9.333892349400001
 30
0.0
 11
0.140049928
 21
9.326851345999999
 31
0.0
  0
LINE
  5
4E
330
2C
100
AcDbEntity
  8
0
  6
Continuous
 62
     7
100
AcDbLine
 10
0.140049928
 20
9.326851345999999
 30
0.0
 11
0.1409899993
 21
9.319388965999999
 31
0.0
  0
LINE
  5
4F
330
2C
100
AcDbEntity
  8
0
  6
Continuous
 62
     7
100
AcDbLine
 10
0.1409899993
 20
9.319388965999999
 30
0.0
 11
0.1944045076
 21
9.1806858147
 31
0.0
  0
LINE
  5
50
330
2C
100
AcDbEntity
  8
0
  6
Continuous
 62
     7
100
AcDbLine
 10
0.1944045076
 20
9.1806858147
 30
0.0
 11
0.1945519894
 21
9.1773760013
 31
0.0
  0
LINE
  5
51
330
2C
100
AcDbEntity
  8
0
  6
Continuous
 62
     7
100
AcDbLine
 10
0.1945519894
 20
9.1773760013
 30
0.0
 11
0.1926778666
 21
9.174645079199999
 31
0.0
  0
LINE
  5
52
330
2C
100
AcDbEntity
  8
0
  6
Continuous
 62
     7
100
AcDbLine
 10
0.1926778666
 20
9.174645079199999
 30
0.0
 11
0.1895356006
 21
9.1735936441
 31
0.0
  0
LINE
  5
53
330
2C
100
AcDbEntity
  8
0
  6
Continuous
 62
     7
100
AcDbLine
 10
0.1895356006
 20
9.1735936441
 30
0.0
 11
0.0988061822
 21
9.1735936441
 31
0.0
  0
LINE
  5
54
330
2C
100
AcDbEntity
  8
0
  6
Continuous
 62
     7
100
AcDbLine
 10
0.0988061822
 20
9.1735936441
 30
0.0
 11
0.0904137637
 21
9.142269305700001
 31
0.0
  0
LINE
  5
55
330
2C
100
AcDbEntity
  8
0
  6
Continuous
 62
     7
100
AcDbLine
 10
0.0904137637
 20
9.142269305700001
 30
0.0
 11
0.2199579923
 21
9.142269305700001
 31
0.0
  0
LINE
  5
56
330
2C
100
AcDbEntity
  8
0
  6
Continuous
 62
     7
100
AcDbLine
 10
0.2199579923
 20
9.142269305700001
 30
0.0
 11
0.2272608512
 21
9.144073199099999
 31
0.0
  0
LINE
  5
57
330
2C
100
AcDbEntity
  8
0
  6
Continuous
 62
     7
100
AcDbLine
 10
0.2272608512
 20
9.144073199099999
 30
0.0
 11
0.2328812133
 21
9.1490715289
 31
0.0
  0
LINE
  5
58
330
2C
100
AcDbEntity
  8
0
  6
Continuous
 62
     7
100
AcDbLine
 10
0.2328812133
 20
9.1490715289
 30
0.0
 11
0.2355258535
 21
9.156113535599999
 31
0.0
  0
LINE
  5
59
330
2C
100
AcDbEntity
  8
0
  6
Continuous
 62
     7
100
AcDbLine
 10
0.2355258535
 20
9.156113535599999
 30
0.0
 11
0.2345837756
 21
9.163574912299999
 31
0.0
  0
LINE
  5
5A
330
2C
100
AcDbEntity
  8
0
  6
Continuous
 62
     7
100
AcDbLine
 10
0.2345837756
 20
9.163574912299999
 30
0.0
 11
0.1825016202
 21
9.298822775099999
 31
0.0
  0
LINE
  5
5B
330
2C
100
AcDbEntity
  8
0
  6
Continuous
 62
     7
100
AcDbLine
 10
0.1825016202
 20
9.298822775099999
 30
0.0
 11
0.1823521318
 21
9.302132588400001
 31
0.0
  0
LINE
  5
5C
330
2C
100
AcDbEntity
  8
0
  6
Continuous
 62
     7
100
AcDbLine
 10
0.1823521318
 20
9.302132588400001
 30
0.0
 11
0.1842272579
 21
9.304862507200001
 31
0.0
  0
LINE
  5
5D
330
2C
100
AcDbEntity
  8
0
  6
Continuous
 62
     7
100
AcDbLine
 10
0.1842272579
 20
9.304862507200001
 30
0.0
 11
0.1873695239
 21
9.305914945599999
 31
0.0
  0
LINE
  5
5E
330
2C
100
AcDbEntity
  8
0
  6
Continuous
 62
     7
100
AcDbLine
 10
0.1873695239
 20
9.305914945599999
 30
0.0
 11
0.2758435738
 21
9.305914945599999
 31
0.0
  0
LINE
  5
5F
330
2C
100
AcDbEntity
  8
0
  6
Continuous
 62
     7
100
AcDbLine
 10
0.2758435738
 20
9.305914945599999
 30
0.0
 11
0.2851620177
 21
9.340695575999999
 31
0.0
  0
LINE
  5
60
330
2C
100
AcDbEntity
  8
0
  6
Continuous
 62
     7
100
AcDbLine
 10
0.3654262457
 20
9.288357584699999
 30
0.0
 11
0.2762388653
 21
9.288357584699999
 31
0.0
  0
LINE
  5
61
330
2C
100
AcDbEntity
  8
0
  6
Continuous
 62
     7
100
AcDbLine
 10
0.2762388653
 20
9.288357584699999
 30
0.0
 11
0.2696162287
 21
9.286888786
 31
0.0
  0
LINE
  5
62
330
2C
100
AcDbEntity
  8
0
  6
Continuous
 62
     7
100
AcDbLine
 10
0.2696162287
 20
9.286888786
 30
0.0
 11
0.2642336435
 21
9.282759294699999
 31
0.0
  0
LINE
  5
63
330
2C
100
AcDbEntity
  8
0
  6
Continuous
 62
     7
100
AcDbLine
 10
0.2642336435
 20
9.282759294699999
 30
0.0
 11
0.261100407
 21
9.276740631399999
 31
0.0
  0
LINE
  5
64
330
2C
100
AcDbEntity
  8
0
  6
Continuous
 62
     7
100
AcDbLine
 10
0.261100407
 20
9.276740631399999
 30
0.0
 11
0.2396764136
 21
9.196779393299999
 31
0.0
  0
LINE
  5
65
330
2C
100
AcDbEntity
  8
0
  6
Continuous
 62
     7
100
AcDbLine
 10
0.2396764136
 20
9.196779393299999
 30
0.0
 11
0.2394426499
 21
9.189665150699999
 31
0.0
  0
LINE
  5
66
330
2C
100
AcDbEntity
  8
0
  6
Continuous
 62
     7
100
AcDbLine
 10
0.2394426499
 20
9.189665150699999
 30
0.0
 11
0.2423802472
 21
9.1831809665
 31
0.0
  0
LINE
  5
67
330
2C
100
AcDbEntity
  8
0
  6
Continuous
 62
     7
100
AcDbLine
 10
0.2423802472
 20
9.1831809665
 30
0.0
 11
0.2478812192
 21
9.178666216499999
 31
0.0
  0
LINE
  5
68
330
2C
100
AcDbEntity
  8
0
  6
Continuous
 62
     7
100
AcDbLine
 10
0.2478812192
 20
9.178666216499999
 30
0.0
 11
0.2548148718
 21
9.177049935999999
 31
0.0
  0
LINE
  5
69
330
2C
100
AcDbEntity
  8
0
  6
Continuous
 62
     7
100
AcDbLine
 10
0.2548148718
 20
9.177049935999999
 30
0.0
 11
0.3356008042
 21
9.177049935999999
 31
0.0
  0
LINE
  5
6A
330
2C
100
AcDbEntity
  8
0
  6
Continuous
 62
     7
100
AcDbLine
 10
0.3356008042
 20
9.177049935999999
 30
0.0
 11
0.343994226
 21
9.208373271199999
 31
0.0
  0
LINE
  5
6B
330
2C
100
AcDbEntity
  8
0
  6
Continuous
 62
     7
100
AcDbLine
 10
0.343994226
 20
9.208373271199999
 30
0.0
 11
0.2820107223
 21
9.208373271199999
 31
0.0
  0
LINE
  5
6C
330
2C
100
AcDbEntity
  8
0
  6
Continuous
 62
     7
100
AcDbLine
 10
0.2820107223
 20
9.208373271199999
 30
0.0
 11
0.2778711982
 21
9.210414941499999
 31
0.0
  0
LINE
  5
6D
330
2C
100
AcDbEntity
  8
0
  6
Continuous
 62
     7
100
AcDbLine
 10
0.2778711982
 20
9.210414941499999
 30
0.0
 11
0.2769722613
 21
9.2149407275
 31
0.0
  0
LINE
  5
6E
330
2C
100
AcDbEntity
  8
0
  6
Continuous
 62
     7
100
AcDbLine
 10
0.2769722613
 20
9.2149407275
 30
0.0
 11
0.2872137208
 21
9.253166613699999
 31
0.0
  0
LINE
  5
6F
330
2C
100
AcDbEntity
  8
0
  6
Continuous
 62
     7
100
AcDbLine
 10
0.2872137208
 20
9.253166613699999
 30
0.0
 11
0.2890778108
 21
9.2559547226
 31
0.0
  0
LINE
  5
70
330
2C
100
AcDbEntity
  8
0
  6
Continuous
 62
     7
100
AcDbLine
 10
0.2890778108
 20
9.2559547226
 30
0.0
 11
0.2922521817
 21
9.257032242899999
 31
0.0
  0
LINE
  5
71
330
2C
100
AcDbEntity
  8
0
  6
Continuous
 62
     7
100
AcDbLine
 10
0.2922521817
 20
9.257032242899999
 30
0.0
 11
0.3570338271
 21
9.257032242899999
 31
0.0
  0
LINE
  5
72
330
2C
100
AcDbEntity
  8
0
  6
Continuous
 62
     7
100
AcDbLine
 10
0.3570338271
 20
9.257032242899999
 30
0.0
 11
0.3654262457
 21
9.288357584699999
 31
0.0
  0
LINE
  5
73
330
2C
100
AcDbEntity
  8
0
  6
Continuous
 62
     7
100
AcDbLine
 10
0.3863746855
 20
9.340695575999999
 30
0.0
 11
0.3425264306
 21
9.177049935999999
 31
0.0
  0
LINE
  5
74
330
2C
100
AcDbEntity
  8
0
  6
Continuous
 62
     7
100
AcDbLine
 10
0.3425264306
 20
9.177049935999999
 30
0.0
 11
0.3785902533
 21
9.177049935999999
 31
0.0
  0
LINE
  5
75
330
2C
100
AcDbEntity
  8
0
  6
Continuous
 62
     7
100
AcDbLine
 10
0.3785902533
 20
9.177049935999999
 30
0.0
 11
0.4000222729
 21
9.257032242899999
 31
0.0
  0
LINE
  5
76
330
2C
100
AcDbEntity
  8
0
  6
Continuous
 62
     7
100
AcDbLine
 10
0.4000222729
 20
9.257032242899999
 30
0.0
 11
0.4220632822
 21
9.257032242899999
 31
0.0
  0
LINE
  5
77
330
2C
100
AcDbEntity
  8
0
  6
Continuous
 62
     7
100
AcDbLine
 10
0.4220632822
 20
9.257032242899999
 30
0.0
 11
0.4262098292000001
 21
9.254988566099999
 31
0.0
  0
LINE
  5
78
330
2C
100
AcDbEntity
  8
0
  6
Continuous
 62
     7
100
AcDbLine
 10
0.4262098292000001
 20
9.254988566099999
 30
0.0
 11
0.4271117759000001
 21
9.250455757200001
 31
0.0
  0
LINE
  5
79
330
2C
100
AcDbEntity
  8
0
  6
Continuous
 62
     7
100
AcDbLine
 10
0.4271117759000001
 20
9.250455757200001
 30
0.0
 11
0.4074435186
 21
9.177049935999999
 31
0.0
  0
LINE
  5
7A
330
2C
100
AcDbEntity
  8
0
  6
Continuous
 62
     7
100
AcDbLine
 10
0.4074435186
 20
9.177049935999999
 30
0.0
 11
0.4434501544
 21
9.177049935999999
 31
0.0
  0
LINE
  5
7B
330
2C
100
AcDbEntity
  8
0
  6
Continuous
 62
     7
100
AcDbLine
 10
0.4434501544
 20
9.177049935999999
 30
0.0
 11
0.4692735208
 21
9.2734258017
 31
0.0
  0
LINE
  5
7C
330
2C
100
AcDbEntity
  8
0
  6
Continuous
 62
     7
100
AcDbLine
 10
0.4692735208
 20
9.2734258017
 30
0.0
 11
0.4689845768
 21
9.272135586399999
 31
0.0
  0
LINE
  5
7D
330
2C
100
AcDbEntity
  8
0
  6
Continuous
 62
     7
100
AcDbLine
 10
0.4689845768
 20
9.272135586399999
 30
0.0
 11
0.4692183406
 21
9.2792518356
 31
0.0
  0
LINE
  5
7E
330
2C
100
AcDbEntity
  8
0
  6
Continuous
 62
     7
100
AcDbLine
 10
0.4692183406
 20
9.2792518356
 30
0.0
 11
0.4662807433
 21
9.285736019899999
 31
0.0
  0
LINE
  5
7F
330
2C
100
AcDbEntity
  8
0
  6
Continuous
 62
     7
100
AcDbLine
 10
0.4662807433
 20
9.285736019899999
 30
0.0
 11
0.4607777647
 21
9.290252776399999
 31
0.0
  0
LINE
  5
80
330
2C
100
AcDbEntity
  8
0
  6
Continuous
 62
     7
100
AcDbLine
 10
0.4607777647
 20
9.290252776399999
 30
0.0
 11
0.453844112
 21
9.291869056900001
 31
0.0
  0
LINE
  5
81
330
2C
100
AcDbEntity
  8
0
  6
Continuous
 62
     7
100
AcDbLine
 10
0.453844112
 20
9.291869056900001
 30
0.0
 11
0.4093567693
 21
9.291869056900001
 31
0.0
  0
LINE
  5
82
330
2C
100
AcDbEntity
  8
0
  6
Continuous
 62
     7
100
AcDbLine
 10
0.4093567693
 20
9.291869056900001
 30
0.0
 11
0.4224385081000001
 21
9.340695575999999
 31
0.0
  0
LINE
  5
83
330
2C
100
AcDbEntity
  8
0
  6
Continuous
 62
     7
100
AcDbLine
 10
0.4224385081000001
 20
9.340695575999999
 30
0.0
 11
0.3863746855
 21
9.340695575999999
 31
0.0
  0
LINE
  5
84
330
2C
100
AcDbEntity
  8
0
  6
Continuous
 62
     7
100
AcDbLine
 10
0.4942230324000001
 20
9.340695575999999
 30
0.0
 11
0.4503747775
 21
9.177049935999999
 31
0.0
  0
LINE
  5
85
330
2C
100
AcDbEntity
  8
0
  6
Continuous
 62
     7
100
AcDbLine
 10
0.4503747775
 20
9.177049935999999
 30
0.0
 11
0.4864386002
 21
9.177049935999999
 31
0.0
  0
LINE
  5
86
330
2C
100
AcDbEntity
  8
0
  6
Continuous
 62
     7
100
AcDbLine
 10
0.4864386002
 20
9.177049935999999
 30
0.0
 11
0.530286855
 21
9.340695575999999
 31
0.0
  0
LINE
  5
87
330
2C
100
AcDbEntity
  8
0
  6
Continuous
 62
     7
100
AcDbLine
 10
0.530286855
 20
9.340695575999999
 30
0.0
 11
0.4942230324000001
 21
9.340695575999999
 31
0.0
  0
LINE
  5
88
330
2C
100
AcDbEntity
  8
0
  6
Continuous
 62
     7
100
AcDbLine
 10
0.5361881347999999
 20
9.215842674199999
 30
0.0
 11
0.6049708520000001
 21
9.215842674199999
 31
0.0
  0
LINE
  5
89
330
2C
100
AcDbEntity
  8
0
  6
Continuous
 62
     7
100
AcDbLine
 10
0.6049708520000001
 20
9.215842674199999
 30
0.0
 11
0.6200561365000001
 21
9.272138596299999
 31
0.0
  0
LINE
  5
8A
330
2C
100
AcDbEntity
  8
0
  6
Continuous
 62
     7
100
AcDbLine
 10
0.6200561365000001
 20
9.272138596299999
 30
0.0
 11
0.6202878937
 21
9.279252838899999
 31
0.0
  0
LINE
  5
8B
330
2C
100
AcDbEntity
  8
0
  6
Continuous
 62
     7
100
AcDbLine
 10
0.6202878937
 20
9.279252838899999
 30
0.0
 11
0.6173502964000001
 21
9.285737023099999
 31
0.0
  0
LINE
  5
8C
330
2C
100
AcDbEntity
  8
0
  6
Continuous
 62
     7
100
AcDbLine
 10
0.6173502964000001
 20
9.285737023099999
 30
0.0
 11
0.6118483211
 21
9.290252776399999
 31
0.0
  0
LINE
  5
8D
330
2C
100
AcDbEntity
  8
0
  6
Continuous
 62
     7
100
AcDbLine
 10
0.6118483211
 20
9.290252776399999
 30
0.0
 11
0.6049156717000001
 21
9.291869056900001
 31
0.0
  0
LINE
  5
8E
330
2C
100
AcDbEntity
  8
0
  6
Continuous
 62
     7
100
AcDbLine
 10
0.6049156717000001
 20
9.291869056900001
 30
0.0
 11
0.5361560299
 21
9.291869056900001
 31
0.0
  0
LINE
  5
8F
330
2C
100
AcDbEntity
  8
0
  6
Continuous
 62
     7
100
AcDbLine
 10
0.5361560299
 20
9.291869056900001
 30
0.0
 11
0.5295333934000001
 21
9.2904002582
 31
0.0
  0
LINE
  5
90
330
2C
100
AcDbEntity
  8
0
  6
Continuous
 62
     7
100
AcDbLine
 10
0.5295333934000001
 20
9.2904002582
 30
0.0
 11
0.5241498049000001
 21
9.286270766900001
 31
0.0
  0
LINE
  5
91
330
2C
100
AcDbEntity
  8
0
  6
Continuous
 62
     7
100
AcDbLine
 10
0.5241498049000001
 20
9.286270766900001
 30
0.0
 11
0.5210175717000001
 21
9.2802521036
 31
0.0
  0
LINE
  5
92
330
2C
100
AcDbEntity
  8
0
  6
Continuous
 62
     7
100
AcDbLine
 10
0.5210175717000001
 20
9.2802521036
 30
0.0
 11
0.4986494939
 21
9.196779393299999
 31
0.0
  0
LINE
  5
93
330
2C
100
AcDbEntity
  8
0
  6
Continuous
 62
     7
100
AcDbLine
 10
0.4986494939
 20
9.196779393299999
 30
0.0
 11
0.4984177367
 21
9.189665150699999
 31
0.0
  0
LINE
  5
94
330
2C
100
AcDbEntity
  8
0
  6
Continuous
 62
     7
100
AcDbLine
 10
0.4984177367
 20
9.189665150699999
 30
0.0
 11
0.501355334
 21
9.1831809665
 31
0.0
  0
LINE
  5
95
330
2C
100
AcDbEntity
  8
0
  6
Continuous
 62
     7
100
AcDbLine
 10
0.501355334
 20
9.1831809665
 30
0.0
 11
0.5068573093
 21
9.178666216499999
 31
0.0
  0
LINE
  5
96
330
2C
100
AcDbEntity
  8
0
  6
Continuous
 62
     7
100
AcDbLine
 10
0.5068573093
 20
9.178666216499999
 30
0.0
 11
0.5137899587
 21
9.177049935999999
 31
0.0
  0
LINE
  5
97
330
2C
100
AcDbEntity
  8
0
  6
Continuous
 62
     7
100
AcDbLine
 10
0.5137899587
 20
9.177049935999999
 30
0.0
 11
0.594575891
 21
9.177049935999999
 31
0.0
  0
LINE
  5
98
330
2C
100
AcDbEntity
  8
0
  6
Continuous
 62
     7
100
AcDbLine
 10
0.594575891
 20
9.177049935999999
 30
0.0
 11
0.6029693128
 21
9.208373271199999
 31
0.0
  0
LINE
  5
99
330
2C
100
AcDbEntity
  8
0
  6
Continuous
 62
     7
100
AcDbLine
 10
0.6029693128
 20
9.208373271199999
 30
0.0
 11
0.5409858091
 21
9.208373271199999
 31
0.0
  0
LINE
  5
9A
330
2C
100
AcDbEntity
  8
0
  6
Continuous
 62
     7
100
AcDbLine
 10
0.5409858091
 20
9.208373271199999
 30
0.0
 11
0.5359453416
 21
9.2149407275
 31
0.0
  0
LINE
  5
9B
330
2C
100
AcDbEntity
  8
0
  6
Continuous
 62
     7
100
AcDbLine
 10
0.5359453416
 20
9.2149407275
 30
0.0
 11
0.5361881347999999
 21
9.215842674199999
 31
0.0
  0
LINE
  5
9C
330
2C
100
AcDbEntity
  8
0
  6
Continuous
 62
     7
100
AcDbLine
 10
0.5445815566
 20
9.2471670126
 30
0.0
 11
0.5809343232000001
 21
9.2471670126
 31
0.0
  0
LINE
  5
9D
330
2C
100
AcDbEntity
  8
0
  6
Continuous
 62
     7
100
AcDbLine
 10
0.5809343232000001
 20
9.2471670126
 30
0.0
 11
0.5827602888000002
 21
9.253977262100001
 31
0.0
  0
LINE
  5
9E
330
2C
100
AcDbEntity
  8
0
  6
Continuous
 62
     7
100
AcDbLine
 10
0.5827602888000002
 20
9.253977262100001
 30
0.0
 11
0.5818583421
 21
9.258503048099999
 31
0.0
  0
LINE
  5
9F
330
2C
100
AcDbEntity
  8
0
  6
Continuous
 62
     7
100
AcDbLine
 10
0.5818583421
 20
9.258503048099999
 30
0.0
 11
0.5777198213000001
 21
9.2605437151
 31
0.0
  0
LINE
  5
A0
330
2C
100
AcDbEntity
  8
0
  6
Continuous
 62
     7
100
AcDbLine
 10
0.5777198213000001
 20
9.2605437151
 30
0.0
 11
0.5521693464000001
 21
9.2605437151
 31
0.0
  0
LINE
  5
A1
330
2C
100
AcDbEntity
  8
0
  6
Continuous
 62
     7
100
AcDbLine
 10
0.5521693464000001
 20
9.2605437151
 30
0.0
 11
0.5489919657
 21
9.259466194799999
 31
0.0
  0
LINE
  5
A2
330
2C
100
AcDbEntity
  8
0
  6
Continuous
 62
     7
100
AcDbLine
 10
0.5489919657
 20
9.259466194799999
 30
0.0
 11
0.5471288789000001
 21
9.256677082599999
 31
0.0
  0
LINE
  5
A3
330
2C
100
AcDbEntity
  8
0
  6
Continuous
 62
     7
100
AcDbLine
 10
0.5471288789000001
 20
9.256677082599999
 30
0.0
 11
0.5445815566
 21
9.2471670126
 31
0.0
  0
LINE
  5
A4
330
2C
100
AcDbEntity
  8
0
  6
Continuous
 62
     7
100
AcDbLine
 10
0.6633586082000001
 20
9.177049935999999
 30
0.0
 11
0.6219272495000001
 21
9.177049935999999
 31
0.0
  0
LINE
  5
A5
330
2C
100
AcDbEntity
  8
0
  6
Continuous
 62
     7
100
AcDbLine
 10
0.6219272495000001
 20
9.177049935999999
 30
0.0
 11
0.6149946002000001
 21
9.178666216499999
 31
0.0
  0
LINE
  5
A6
330
2C
100
AcDbEntity
  8
0
  6
Continuous
 62
     7
100
AcDbLine
 10
0.6149946002000001
 20
9.178666216499999
 30
0.0
 11
0.6094926249000001
 21
9.1831809665
 31
0.0
  0
LINE
  5
A7
330
2C
100
AcDbEntity
  8
0
  6
Continuous
 62
     7
100
AcDbLine
 10
0.6094926249000001
 20
9.1831809665
 30
0.0
 11
0.606553021
 21
9.189665150699999
 31
0.0
  0
LINE
  5
A8
330
2C
100
AcDbEntity
  8
0
  6
Continuous
 62
     7
100
AcDbLine
 10
0.606553021
 20
9.189665150699999
 30
0.0
 11
0.6067867847999999
 21
9.196779393299999
 31
0.0
  0
LINE
  5
A9
330
2C
100
AcDbEntity
  8
0
  6
Continuous
 62
     7
100
AcDbLine
 10
0.6067867847999999
 20
9.196779393299999
 30
0.0
 11
0.6291528560000001
 21
9.2802521036
 31
0.0
  0
LINE
  5
AA
330
2C
100
AcDbEntity
  8
0
  6
Continuous
 62
     7
100
AcDbLine
 10
0.6291528560000001
 20
9.2802521036
 30
0.0
 11
0.6322860925000001
 21
9.286270766900001
 31
0.0
  0
LINE
  5
AB
330
2C
100
AcDbEntity
  8
0
  6
Continuous
 62
     7
100
AcDbLine
 10
0.6322860925000001
 20
9.286270766900001
 30
0.0
 11
0.6376686777
 21
9.2904002582
 31
0.0
  0
LINE
  5
AC
330
2C
100
AcDbEntity
  8
0
  6
Continuous
 62
     7
100
AcDbLine
 10
0.6376686777
 20
9.2904002582
 30
0.0
 11
0.6442933208000001
 21
9.291869056900001
 31
0.0
  0
LINE
  5
AD
330
2C
100
AcDbEntity
  8
0
  6
Continuous
 62
     7
100
AcDbLine
 10
0.6442933208000001
 20
9.291869056900001
 30
0.0
 11
0.7265550748000001
 21
9.291869056900001
 31
0.0
  0
LINE
  5
AE
330
2C
100
AcDbEntity
  8
0
  6
Continuous
 62
     7
100
AcDbLine
 10
0.7265550748000001
 20
9.291869056900001
 30
0.0
 11
0.6895822825
 21
9.1538852557
 31
0.0
  0
LINE
  5
AF
330
2C
100
AcDbEntity
  8
0
  6
Continuous
 62
     7
100
AcDbLine
 10
0.6895822825
 20
9.1538852557
 30
0.0
 11
0.6864500493000002
 21
9.147867595599999
 31
0.0
  0
LINE
  5
B0
330
2C
100
AcDbEntity
  8
0
  6
Continuous
 62
     7
100
AcDbLine
 10
0.6864500493000002
 20
9.147867595599999
 30
0.0
 11
0.6810674641
 21
9.143738104299998
 31
0.0
  0
LINE
  5
B1
330
2C
100
AcDbEntity
  8
0
  6
Continuous
 62
     7
100
AcDbLine
 10
0.6810674641
 20
9.143738104299998
 30
0.0
 11
0.6744418177
 21
9.142269305700001
 31
0.0
  0
LINE
  5
B2
330
2C
100
AcDbEntity
  8
0
  6
Continuous
 62
     7
100
AcDbLine
 10
0.6744418177
 20
9.142269305700001
 30
0.0
 11
0.5921800637
 21
9.142269305700001
 31
0.0
  0
LINE
  5
B3
330
2C
100
AcDbEntity
  8
0
  6
Continuous
 62
     7
100
AcDbLine
 10
0.5921800637
 20
9.142269305700001
 30
0.0
 11
0.6005754921000001
 21
9.1735936441
 31
0.0
  0
LINE
  5
B4
330
2C
100
AcDbEntity
  8
0
  6
Continuous
 62
     7
100
AcDbLine
 10
0.6005754921000001
 20
9.1735936441
 30
0.0
 11
0.6584295046000001
 21
9.1735936441
 31
0.0
  0
LINE
  5
B5
330
2C
100
AcDbEntity
  8
0
  6
Continuous
 62
     7
100
AcDbLine
 10
0.6584295046000001
 20
9.1735936441
 30
0.0
 11
0.6614313116
 21
9.174543748200001
 31
0.0
  0
LINE
  5
B6
330
2C
100
AcDbEntity
  8
0
  6
Continuous
 62
     7
100
AcDbLine
 10
0.6614313116
 20
9.174543748200001
 30
0.0
 11
0.6633415525000001
 21
9.177049935999999
 31
0.0
  0
LINE
  5
B7
330
2C
100
AcDbEntity
  8
0
  6
Continuous
 62
     7
100
AcDbLine
 10
0.6857306992000001
 20
9.2605437151
 30
0.0
 11
0.6603066372999999
 21
9.2605437151
 31
0.0
  0
LINE
  5
B8
330
2C
100
AcDbEntity
  8
0
  6
Continuous
 62
     7
100
AcDbLine
 10
0.6603066372999999
 20
9.2605437151
 30
0.0
 11
0.6571302597999999
 21
9.259466194799999
 31
0.0
  0
LINE
  5
B9
330
2C
100
AcDbEntity
  8
0
  6
Continuous
 62
     7
100
AcDbLine
 10
0.6571302597999999
 20
9.259466194799999
 30
0.0
 11
0.6552661698
 21
9.256677082599999
 31
0.0
  0
LINE
  5
BA
330
2C
100
AcDbEntity
  8
0
  6
Continuous
 62
     7
100
AcDbLine
 10
0.6552661698
 20
9.256677082599999
 30
0.0
 11
0.6440826325
 21
9.2149407275
 31
0.0
  0
LINE
  5
BB
330
2C
100
AcDbEntity
  8
0
  6
Continuous
 62
     7
100
AcDbLine
 10
0.6440826325
 20
9.2149407275
 30
0.0
 11
0.6449845792
 21
9.210414941499999
 31
0.0
  0
LINE
  5
BC
330
2C
100
AcDbEntity
  8
0
  6
Continuous
 62
     7
100
AcDbLine
 10
0.6449845792
 20
9.210414941499999
 30
0.0
 11
0.6491230999999999
 21
9.208373271199999
 31
0.0
  0
LINE
  5
BD
330
2C
100
AcDbEntity
  8
0
  6
Continuous
 62
     7
100
AcDbLine
 10
0.6491230999999999
 20
9.208373271199999
 30
0.0
 11
0.6717520300000001
 21
9.208373271199999
 31
0.0
  0
LINE
  5
BE
330
2C
100
AcDbEntity
  8
0
  6
Continuous
 62
     7
100
AcDbLine
 10
0.6717520300000001
 20
9.208373271199999
 30
0.0
 11
0.6857306992000001
 21
9.2605437151
 31
0.0
  0
LINE
  5
BF
330
2C
100
AcDbEntity
  8
0
  6
Continuous
 62
     7
100
AcDbLine
 10
0.7455380934
 20
9.215842674199999
 30
0.0
 11
0.8212444304999999
 21
9.215842674199999
 31
0.0
  0
LINE
  5
C0
330
2C
100
AcDbEntity
  8
0
  6
Continuous
 62
     7
100
AcDbLine
 10
0.8212444304999999
 20
9.215842674199999
 30
0.0
 11
0.8363287117
 21
9.272138596299999
 31
0.0
  0
LINE
  5
C1
330
2C
100
AcDbEntity
  8
0
  6
Continuous
 62
     7
100
AcDbLine
 10
0.8363287117
 20
9.272138596299999
 30
0.0
 11
0.8365624754999998
 21
9.279252838899999
 31
0.0
  0
LINE
  5
C2
330
2C
100
AcDbEntity
  8
0
  6
Continuous
 62
     7
100
AcDbLine
 10
0.8365624754999998
 20
9.279252838899999
 30
0.0
 11
0.8336248781
 21
9.285737023099999
 31
0.0
  0
LINE
  5
C3
330
2C
100
AcDbEntity
  8
0
  6
Continuous
 62
     7
100
AcDbLine
 10
0.8336248781
 20
9.285737023099999
 30
0.0
 11
0.8281218995999999
 21
9.290252776399999
 31
0.0
  0
LINE
  5
C4
330
2C
100
AcDbEntity
  8
0
  6
Continuous
 62
     7
100
AcDbLine
 10
0.8281218995999999
 20
9.290252776399999
 30
0.0
 11
0.8211902535
 21
9.291869056900001
 31
0.0
  0
LINE
  5
C5
330
2C
100
AcDbEntity
  8
0
  6
Continuous
 62
     7
100
AcDbLine
 10
0.8211902535
 20
9.291869056900001
 30
0.0
 11
0.7455059885999999
 21
9.291869056900001
 31
0.0
  0
LINE
  5
C6
330
2C
100
AcDbEntity
  8
0
  6
Continuous
 62
     7
100
AcDbLine
 10
0.7455059885999999
 20
9.291869056900001
 30
0.0
 11
0.7388813455
 21
9.2904002582
 31
0.0
  0
LINE
  5
C7
330
2C
100
AcDbEntity
  8
0
  6
Continuous
 62
     7
100
AcDbLine
 10
0.7388813455
 20
9.2904002582
 30
0.0
 11
0.7334997634999999
 21
9.286270766900001
 31
0.0
  0
LINE
  5
C8
330
2C
100
AcDbEntity
  8
0
  6
Continuous
 62
     7
100
AcDbLine
 10
0.7334997634999999
 20
9.286270766900001
 30
0.0
 11
0.7303655238
 21
9.2802521036
 31
0.0
  0
LINE
  5
C9
330
2C
100
AcDbEntity
  8
0
  6
Continuous
 62
     7
100
AcDbLine
 10
0.7303655238
 20
9.2802521036
 30
0.0
 11
0.7079994525
 21
9.196779393299999
 31
0.0
  0
LINE
  5
CA
330
2C
100
AcDbEntity
  8
0
  6
Continuous
 62
     7
100
AcDbLine
 10
0.7079994525
 20
9.196779393299999
 30
0.0
 11
0.7077676953000001
 21
9.189665150699999
 31
0.0
  0
LINE
  5
CB
330
2C
100
AcDbEntity
  8
0
  6
Continuous
 62
     7
100
AcDbLine
 10
0.7077676953000001
 20
9.189665150699999
 30
0.0
 11
0.7107052926000001
 21
9.1831809665
 31
0.0
  0
LINE
  5
CC
330
2C
100
AcDbEntity
  8
0
  6
Continuous
 62
     7
100
AcDbLine
 10
0.7107052926000001
 20
9.1831809665
 30
0.0
 11
0.7162062645999999
 21
9.178666216499999
 31
0.0
  0
LINE
  5
CD
330
2C
100
AcDbEntity
  8
0
  6
Continuous
 62
     7
100
AcDbLine
 10
0.7162062645999999
 20
9.178666216499999
 30
0.0
 11
0.7231399173000001
 21
9.177049935999999
 31
0.0
  0
LINE
  5
CE
330
2C
100
AcDbEntity
  8
0
  6
Continuous
 62
     7
100
AcDbLine
 10
0.7231399173000001
 20
9.177049935999999
 30
0.0
 11
0.8108494695
 21
9.177049935999999
 31
0.0
  0
LINE
  5
CF
330
2C
100
AcDbEntity
  8
0
  6
Continuous
 62
     7
100
AcDbLine
 10
0.8108494695
 20
9.177049935999999
 30
0.0
 11
0.8192448979000001
 21
9.208373271199999
 31
0.0
  0
LINE
  5
D0
330
2C
100
AcDbEntity
  8
0
  6
Continuous
 62
     7
100
AcDbLine
 10
0.8192448979000001
 20
9.208373271199999
 30
0.0
 11
0.7503357677000001
 21
9.208373271199999
 31
0.0
  0
LINE
  5
D1
330
2C
100
AcDbEntity
  8
0
  6
Continuous
 62
     7
100
AcDbLine
 10
0.7503357677000001
 20
9.208373271199999
 30
0.0
 11
0.7461962437000001
 21
9.210414941499999
 31
0.0
  0
LINE
  5
D2
330
2C
100
AcDbEntity
  8
0
  6
Continuous
 62
     7
100
AcDbLine
 10
0.7461962437000001
 20
9.210414941499999
 30
0.0
 11
0.7452953002
 21
9.2149407275
 31
0.0
  0
LINE
  5
D3
330
2C
100
AcDbEntity
  8
0
  6
Continuous
 62
     7
100
AcDbLine
 10
0.7539315152000001
 20
9.2471670126
 30
0.0
 11
0.797208905
 21
9.2471670126
 31
0.0
  0
LINE
  5
D4
330
2C
100
AcDbEntity
  8
0
  6
Continuous
 62
     7
100
AcDbLine
 10
0.797208905
 20
9.2471670126
 30
0.0
 11
0.7990328640000001
 21
9.253977262100001
 31
0.0
  0
LINE
  5
D5
330
2C
100
AcDbEntity
  8
0
  6
Continuous
 62
     7
100
AcDbLine
 10
0.7990328640000001
 20
9.253977262100001
 30
0.0
 11
0.7981339271
 21
9.258503048099999
 31
0.0
  0
LINE
  5
D6
330
2C
100
AcDbEntity
  8
0
  6
Continuous
 62
     7
100
AcDbLine
 10
0.7981339271
 20
9.258503048099999
 30
0.0
 11
0.7939944031000001
 21
9.2605437151
 31
0.0
  0
LINE
  5
D7
330
2C
100
AcDbEntity
  8
0
  6
Continuous
 62
     7
100
AcDbLine
 10
0.7939944031000001
 20
9.2605437151
 30
0.0
 11
0.7615183017
 21
9.2605437151
 31
0.0
  0
LINE
  5
D8
330
2C
100
AcDbEntity
  8
0
  6
Continuous
 62
     7
100
AcDbLine
 10
0.7615183017
 20
9.2605437151
 30
0.0
 11
0.7583419243
 21
9.259466194799999
 31
0.0
  0
LINE
  5
D9
330
2C
100
AcDbEntity
  8
0
  6
Continuous
 62
     7
100
AcDbLine
 10
0.7583419243
 20
9.259466194799999
 30
0.0
 11
0.7564788375
 21
9.256677082599999
 31
0.0
  0
LINE
  5
DA
330
2C
100
AcDbEntity
  8
0
  6
Continuous
 62
     7
100
AcDbLine
 10
0.7564788375
 20
9.256677082599999
 30
0.0
 11
0.7539315152000001
 21
9.2471670126
 31
0.0
  0
LINE
  5
DB
330
2C
100
AcDbEntity
  8
0
  6
Continuous
 62
     7
100
AcDbLine
 10
0.8616233508
 20
9.340695575999999
 30
0.0
 11
0.8177750959999999
 21
9.177049935999999
 31
0.0
  0
LINE
  5
DC
330
2C
100
AcDbEntity
  8
0
  6
Continuous
 62
     7
100
AcDbLine
 10
0.8177750959999999
 20
9.177049935999999
 30
0.0
 11
0.8538409251999999
 21
9.177049935999999
 31
0.0
  0
LINE
  5
DD
330
2C
100
AcDbEntity
  8
0
  6
Continuous
 62
     7
100
AcDbLine
 10
0.8538409251999999
 20
9.177049935999999
 30
0.0
 11
0.89768918
 21
9.340695575999999
 31
0.0
  0
LINE
  5
DE
330
2C
100
AcDbEntity
  8
0
  6
Continuous
 62
     7
100
AcDbLine
 10
0.89768918
 20
9.340695575999999
 30
0.0
 11
0.8616233508
 21
9.340695575999999
 31
0.0
  0
LINE
  5
DF
330
2C
100
AcDbEntity
  8
0
  6
Continuous
 62
     7
100
AcDbLine
 10
0.0571490861
 20
9.918361845599999
 30
0.0
 11
0.9421474276999999
 21
9.918357832499999
 31
0.0
  0
LINE
  5
E0
330
2C
100
AcDbEntity
  8
0
  6
Continuous
 62
     7
100
AcDbLine
 10
0.0428082337
 20
9.9083280647
 30
0.0
 11
0.9564822603999999
 21
9.9083250549
 31
0.0
  0
LINE
  5
E1
330
2C
100
AcDbEntity
  8
0
  6
Continuous
 62
     7
100
AcDbLine
 10
0.0353649159
 20
9.898295286999999
 30
0.0
 11
0.9639245748999998
 21
9.898291273899999
 31
0.0
  0
LINE
  5
E2
330
2C
100
AcDbEntity
  8
0
  6
Continuous
 62
     7
100
AcDbLine
 10
0.0312083361
 20
9.888262509299998
 30
0.0
 11
0.9680801514
 21
9.8882584962
 31
0.0
  0
LINE
  5
E3
330
2C
100
AcDbEntity
  8
0
  6
Continuous
 62
     7
100
AcDbLine
 10
0.0296071048
 20
9.878229731699999
 30
0.0
 11
0.9696803795000001
 21
9.878225718599999
 31
0.0
  0
LINE
  5
E4
330
2C
100
AcDbEntity
  8
0
  6
Continuous
 62
     7
100
AcDbLine
 10
0.0291355642
 20
9.8681959507
 30
0.0
 11
0.9701509166999999
 21
9.8681929409
 31
0.0
  0
LINE
  5
E5
330
2C
100
AcDbEntity
  8
0
  6
Continuous
 62
     7
100
AcDbLine
 10
0.0291355642
 20
9.858163172999999
 30
0.0
 11
0.9701509166999999
 21
9.858159159899999
 31
0.0
  0
LINE
  5
E6
330
2C
100
AcDbEntity
  8
0
  6
Continuous
 62
     7
100
AcDbLine
 10
0.0291365675
 20
9.8481303954
 30
0.0
 11
0.9701509166999999
 21
9.8481263823
 31
0.0
  0
LINE
  5
E7
330
2C
100
AcDbEntity
  8
0
  6
Continuous
 62
     7
100
AcDbLine
 10
0.0291365675
 20
9.838097617699999
 30
0.0
 11
0.9701489102
 21
9.8380936046
 31
0.0
  0
LINE
  5
E8
330
2C
100
AcDbEntity
  8
0
  6
Continuous
 62
     7
100
AcDbLine
 10
0.0291365675
 20
9.8280638367
 30
0.0
 11
0.9701489102
 21
9.828060826899999
 31
0.0
  0
LINE
  5
E9
330
2C
100
AcDbEntity
  8
0
  6
Continuous
 62
     7
100
AcDbLine
 10
0.0291365675
 20
9.818031059099999
 30
0.0
 11
0.9701489102
 21
9.818027046
 31
0.0
  0
LINE
  5
EA
330
2C
100
AcDbEntity
  8
0
  6
Continuous
 62
     7
100
AcDbLine
 10
0.0291365675
 20
9.807998281399999
 30
0.0
 11
0.9701489102
 21
9.807994268299999
 31
0.0
  0
LINE
  5
EB
330
2C
100
AcDbEntity
  8
0
  6
Continuous
 62
     7
100
AcDbLine
 10
0.0291365675
 20
9.7979655037
 30
0.0
 11
0.9701489102
 21
9.797961490599998
 31
0.0
  0
LINE
  5
EC
330
2C
100
AcDbEntity
  8
0
  6
Continuous
 62
     7
100
AcDbLine
 10
0.0291365675
 20
9.787932726000001
 30
0.0
 11
0.9701489102
 21
9.787928712899999
 31
0.0
  0
LINE
  5
ED
330
2C
100
AcDbEntity
  8
0
  6
Continuous
 62
     7
100
AcDbLine
 10
0.0291355642
 20
9.7778989451
 30
0.0
 11
0.9701489102
 21
9.7778959353
 31
0.0
  0
LINE
  5
EE
330
2C
100
AcDbEntity
  8
0
  6
Continuous
 62
     7
100
AcDbLine
 10
0.0291355642
 20
9.767866167399999
 30
0.0
 11
0.9701489102
 21
9.767862154299999
 31
0.0
  0
LINE
  5
EF
330
2C
100
AcDbEntity
  8
0
  6
Continuous
 62
     7
100
AcDbLine
 10
0.0291355642
 20
9.7578333897
 30
0.0
 11
0.9701489102
 21
9.7578293766
 31
0.0
  0
LINE
  5
F0
330
2C
100
AcDbEntity
  8
0
  6
Continuous
 62
     7
100
AcDbLine
 10
0.0291355642
 20
9.7478006121
 30
0.0
 11
0.9701489102
 21
9.747796598899999
 31
0.0
  0
LINE
  5
F1
330
2C
100
AcDbEntity
  8
0
  6
Continuous
 62
     7
100
AcDbLine
 10
0.0291355642
 20
9.7377668311
 30
0.0
 11
0.9701489102
 21
9.737763821299999
 31
0.0
  0
LINE
  5
F2
330
2C
100
AcDbEntity
  8
0
  6
Continuous
 62
     7
100
AcDbLine
 10
0.0291365675
 20
9.7277340534
 30
0.0
 11
0.9701509166999999
 21
9.727730040299999
 31
0.0
  0
LINE
  5
F3
330
2C
100
AcDbEntity
  8
0
  6
Continuous
 62
     7
100
AcDbLine
 10
0.0291365675
 20
9.717701275799999
 30
0.0
 11
0.9701509166999999
 21
9.717697262599999
 31
0.0
  0
LINE
  5
F4
330
2C
100
AcDbEntity
  8
0
  6
Continuous
 62
     7
100
AcDbLine
 10
0.0291365675
 20
9.707668498099998
 30
0.0
 11
0.9701509166999999
 21
9.707664485
 31
0.0
  0
LINE
  5
F5
330
2C
100
AcDbEntity
  8
0
  6
Continuous
 62
     7
100
AcDbLine
 10
0.0291365675
 20
9.697635720399999
 30
0.0
 11
0.9701509166999999
 21
9.697631707299999
 31
0.0
  0
LINE
  5
F6
330
2C
100
AcDbEntity
  8
0
  6
Continuous
 62
     7
100
AcDbLine
 10
0.0291365675
 20
9.6876019395
 30
0.0
 11
0.9701509166999999
 21
9.6875979263
 31
0.0
  0
LINE
  5
F7
330
2C
100
AcDbEntity
  8
0
  6
Continuous
 62
     7
100
AcDbLine
 10
0.0291365675
 20
9.677569161799999
 30
0.0
 11
0.9701509166999999
 21
9.677565148699999
 31
0.0
  0
LINE
  5
F8
330
2C
100
AcDbEntity
  8
0
  6
Continuous
 62
     7
100
AcDbLine
 10
0.0291365675
 20
9.667536384099999
 30
0.0
 11
0.9701509166999999
 21
9.667532371
 31
0.0
  0
LINE
  5
F9
330
2C
100
AcDbEntity
  8
0
  6
Continuous
 62
     7
100
AcDbLine
 10
0.0291365675
 20
9.6575036064
 30
0.0
 11
0.9701509166999999
 21
9.6574995933
 31
0.0
  0
LINE
  5
FA
330
2C
100
AcDbEntity
  8
0
  6
Continuous
 62
     7
100
AcDbLine
 10
0.0291355642
 20
9.647469825499999
 30
0.0
 11
0.9701509166999999
 21
9.647466815599999
 31
0.0
  0
LINE
  5
FB
330
2C
100
AcDbEntity
  8
0
  6
Continuous
 62
     7
100
AcDbLine
 10
0.0291355642
 20
9.637437047799998
 30
0.0
 11
0.9701509166999999
 21
9.6374330347
 31
0.0
  0
LINE
  5
FC
330
2C
100
AcDbEntity
  8
0
  6
Continuous
 62
     7
100
AcDbLine
 10
0.0291355642
 20
9.627404270099999
 30
0.0
 11
0.9701509166999999
 21
9.627400256999999
 31
0.0
  0
LINE
  5
FD
330
2C
100
AcDbEntity
  8
0
  6
Continuous
 62
     7
100
AcDbLine
 10
0.0291355642
 20
9.6173714925
 30
0.0
 11
0.9701509166999999
 21
9.6173674793
 31
0.0
  0
LINE
  5
FE
330
2C
100
AcDbEntity
  8
0
  6
Continuous
 62
     7
100
AcDbLine
 10
0.0291355642
 20
9.607337711499999
 30
0.0
 11
0.9701509166999999
 21
9.607334701699999
 31
0.0
  0
LINE
  5
FF
330
2C
100
AcDbEntity
  8
0
  6
Continuous
 62
     7
100
AcDbLine
 10
0.0291365675
 20
9.5973049338
 30
0.0
 11
0.9701509166999999
 21
9.5973009207
 31
0.0
  0
LINE
  5
100
330
2C
100
AcDbEntity
  8
0
  6
Continuous
 62
     7
100
AcDbLine
 10
0.0291365675
 20
9.587272156199999
 30
0.0
 11
0.9701509166999999
 21
9.587268142999999
 31
0.0
  0
LINE
  5
101
330
2C
100
AcDbEntity
  8
0
  6
Continuous
 62
     7
100
AcDbLine
 10
0.0291365675
 20
9.577239378499999
 30
0.0
 11
0.9701489102
 21
9.577235365399999
 31
0.0
  0
LINE
  5
102
330
2C
100
AcDbEntity
  8
0
  6
Continuous
 62
     7
100
AcDbLine
 10
0.0291365675
 20
9.5672066008
 30
0.0
 11
0.9701489102
 21
9.5672025877
 31
0.0
  0
LINE
  5
103
330
2C
100
AcDbEntity
  8
0
  6
Continuous
 62
     7
100
AcDbLine
 10
0.0291365675
 20
9.557172819899999
 30
0.0
 11
0.9701489102
 21
9.557169809999999
 31
0.0
  0
LINE
  5
104
330
2C
100
AcDbEntity
  8
0
  6
Continuous
 62
     7
100
AcDbLine
 10
0.0291365675
 20
9.5471400422
 30
0.0
 11
0.9701489102
 21
9.547136029099998
 31
0.0
  0
LINE
  5
105
330
2C
100
AcDbEntity
  8
0
  6
Continuous
 62
     7
100
AcDbLine
 10
0.0291365675
 20
9.537107264500001
 30
0.0
 11
0.9701489102
 21
9.537103251399999
 31
0.0
  0
LINE
  5
106
330
2C
100
AcDbEntity
  8
0
  6
Continuous
 62
     7
100
AcDbLine
 10
0.0291365675
 20
9.5270744868
 30
0.0
 11
0.9701489102
 21
9.5270704737
 31
0.0
  0
LINE
  5
107
330
2C
100
AcDbEntity
  8
0
  6
Continuous
 62
     7
100
AcDbLine
 10
0.0291355642
 20
9.517040705899999
 30
0.0
 11
0.9701489102
 21
9.517037696
 31
0.0
  0
LINE
  5
108
330
2C
100
AcDbEntity
  8
0
  6
Continuous
 62
     7
100
AcDbLine
 10
0.0291355642
 20
9.5070079282
 30
0.0
 11
0.9701489102
 21
9.5070039151
 31
0.0
  0
LINE
  5
109
330
2C
100
AcDbEntity
  8
0
  6
Continuous
 62
     7
100
AcDbLine
 10
0.0291355642
 20
9.496975150499999
 30
0.0
 11
0.9701489102
 21
9.496971137399999
 31
0.0
  0
LINE
  5
10A
330
2C
100
AcDbEntity
  8
0
  6
Continuous
 62
     7
100
AcDbLine
 10
0.0291355642
 20
9.486942372799999
 30
0.0
 11
0.9701489102
 21
9.486938359699999
 31
0.0
  0
LINE
  5
10B
330
2C
100
AcDbEntity
  8
0
  6
Continuous
 62
     7
100
AcDbLine
 10
0.0291365675
 20
9.4769085919
 30
0.0
 11
0.9701489102
 21
9.4769055821
 31
0.0
  0
LINE
  5
10C
330
2C
100
AcDbEntity
  8
0
  6
Continuous
 62
     7
100
AcDbLine
 10
0.0291365675
 20
9.466875814199999
 30
0.0
 11
0.9701489102
 21
9.466871801099999
 31
0.0
  0
LINE
  5
10D
330
2C
100
AcDbEntity
  8
0
  6
Continuous
 62
     7
100
AcDbLine
 10
0.0291365675
 20
9.4568430365
 30
0.0
 11
0.9701489102
 21
9.4568390234
 31
0.0
  0
LINE
  5
10E
330
2C
100
AcDbEntity
  8
0
  6
Continuous
 62
     7
100
AcDbLine
 10
0.0291365675
 20
9.446810258899999
 30
0.0
 11
0.9701489102
 21
9.446806245800001
 31
0.0
  0
LINE
  5
10F
330
2C
100
AcDbEntity
  8
0
  6
Continuous
 62
     7
100
AcDbLine
 10
0.0291365675
 20
9.4367774812
 30
0.0
 11
0.9701489102
 21
9.4367734681
 31
0.0
  0
LINE
  5
110
330
2C
100
AcDbEntity
  8
0
  6
Continuous
 62
     7
100
AcDbLine
 10
0.0291365675
 20
9.426743700199999
 30
0.0
 11
0.9701489102
 21
9.426740690399999
 31
0.0
  0
LINE
  5
111
330
2C
100
AcDbEntity
  8
0
  6
Continuous
 62
     7
100
AcDbLine
 10
0.0291365675
 20
9.4167109226
 30
0.0
 11
0.9701489102
 21
9.4167069095
 31
0.0
  0
LINE
  5
112
330
2C
100
AcDbEntity
  8
0
  6
Continuous
 62
     7
100
AcDbLine
 10
0.0291365675
 20
9.4066781449
 30
0.0
 11
0.9701489102
 21
9.406674131799999
 31
0.0
  0
LINE
  5
113
330
2C
100
AcDbEntity
  8
0
  6
Continuous
 62
     7
100
AcDbLine
 10
0.0291365675
 20
9.396645367199999
 30
0.0
 11
0.9701489102
 21
9.396641354099999
 31
0.0
  0
LINE
  5
114
330
2C
100
AcDbEntity
  8
0
  6
Continuous
 62
     7
100
AcDbLine
 10
0.0291355642
 20
9.3866115863
 30
0.0
 11
0.9701489102
 21
9.3866085764
 31
0.0
  0
LINE
  5
115
330
2C
100
AcDbEntity
  8
0
  6
Continuous
 62
     7
100
AcDbLine
 10
0.0291355642
 20
9.376578808599999
 30
0.0
 11
0.9701489102
 21
9.376574795499999
 31
0.0
  0
LINE
  5
116
330
2C
100
AcDbEntity
  8
0
  6
Continuous
 62
     7
100
AcDbLine
 10
0.0291355642
 20
9.3665460309
 30
0.0
 11
0.9701489102
 21
9.3665420178
 31
0.0
  0
LINE
  5
117
330
2C
100
AcDbEntity
  8
0
  6
Continuous
 62
     7
100
AcDbLine
 10
0.0291355642
 20
9.356513253200001
 30
0.0
 11
0.9701489102
 21
9.356509240099999
 31
0.0
  0
LINE
  5
118
330
2C
100
AcDbEntity
  8
0
  6
Continuous
 62
     7
100
AcDbLine
 10
0.0291365675
 20
9.346480475599999
 30
0.0
 11
0.9701509166999999
 21
9.3464764625
 31
0.0
  0
LINE
  5
119
330
2C
100
AcDbEntity
  8
0
  6
Continuous
 62
     7
100
AcDbLine
 10
0.0291365675
 20
9.336446694600001
 30
0.0
 11
0.1455719688
 21
9.336445691299999
 31
0.0
  0
LINE
  5
11A
330
2C
100
AcDbEntity
  8
0
  6
Continuous
 62
     7
100
AcDbLine
 10
0.2840273106
 20
9.336445691299999
 30
0.0
 11
0.385238975
 21
9.3364446881
 31
0.0
  0
LINE
  5
11B
330
2C
100
AcDbEntity
  8
0
  6
Continuous
 62
     7
100
AcDbLine
 10
0.4213038009
 20
9.3364446881
 30
0.0
 11
0.4930883252
 21
9.3364446881
 31
0.0
  0
LINE
  5
11C
330
2C
100
AcDbEntity
  8
0
  6
Continuous
 62
     7
100
AcDbLine
 10
0.5291541544000001
 20
9.3364446881
 30
0.0
 11
0.8604886436999999
 21
9.3364436848
 31
0.0
  0
LINE
  5
11D
330
2C
100
AcDbEntity
  8
0
  6
Continuous
 62
     7
100
AcDbLine
 10
0.8965534695999998
 20
9.336442681499999
 30
0.0
 11
0.9701509166999999
 21
9.336442681499999
 31
0.0
  0
LINE
  5
11E
330
2C
100
AcDbEntity
  8
0
  6
Continuous
 62
     7
100
AcDbLine
 10
0.0291365675
 20
9.326413916899999
 30
0.0
 11
0.1401081181
 21
9.3264129137
 31
0.0
  0
LINE
  5
11F
330
2C
100
AcDbEntity
  8
0
  6
Continuous
 62
     7
100
AcDbLine
 10
0.2813385261
 20
9.3264129137
 30
0.0
 11
0.3825511939
 21
9.326411910399999
 31
0.0
  0
LINE
  5
120
330
2C
100
AcDbEntity
  8
0
  6
Continuous
 62
     7
100
AcDbLine
 10
0.4186150165
 20
9.326411910399999
 30
0.0
 11
0.4903995408
 21
9.326411910399999
 31
0.0
  0
LINE
  5
121
330
2C
100
AcDbEntity
  8
0
  6
Continuous
 62
     7
100
AcDbLine
 10
0.5264633634
 20
9.326411910399999
 30
0.0
 11
0.8577978526999999
 21
9.326410907099999
 31
0.0
  0
LINE
  5
122
330
2C
100
AcDbEntity
  8
0
  6
Continuous
 62
     7
100
AcDbLine
 10
0.8938636818999999
 20
9.3264099038
 30
0.0
 11
0.9701489102
 21
9.3264099038
 31
0.0
  0
LINE
  5
123
330
2C
100
AcDbEntity
  8
0
  6
Continuous
 62
     7
100
AcDbLine
 10
0.0291365675
 20
9.316381139299998
 30
0.0
 11
0.1421497884
 21
9.316380135999999
 31
0.0
  0
LINE
  5
124
330
2C
100
AcDbEntity
  8
0
  6
Continuous
 62
     7
100
AcDbLine
 10
0.278650745
 20
9.316380135999999
 30
0.0
 11
0.3798624095
 21
9.316379132699999
 31
0.0
  0
LINE
  5
125
330
2C
100
AcDbEntity
  8
0
  6
Continuous
 62
     7
100
AcDbLine
 10
0.4159272354
 20
9.316379132699999
 30
0.0
 11
0.4877117596
 21
9.316379132699999
 31
0.0
  0
LINE
  5
126
330
2C
100
AcDbEntity
  8
0
  6
Continuous
 62
     7
100
AcDbLine
 10
0.523774579
 20
9.316379132699999
 30
0.0
 11
0.8551110748000001
 21
9.3163781294
 31
0.0
  0
LINE
  5
127
330
2C
100
AcDbEntity
  8
0
  6
Continuous
 62
     7
100
AcDbLine
 10
0.8911769040000001
 20
9.3163771262
 30
0.0
 11
0.9701489102
 21
9.3163771262
 31
0.0
  0
LINE
  5
128
330
2C
100
AcDbEntity
  8
0
  6
Continuous
 62
     7
100
AcDbLine
 10
0.0291365675
 20
9.306348361599999
 30
0.0
 11
0.146013411
 21
9.3063473583
 31
0.0
  0
LINE
  5
129
330
2C
100
AcDbEntity
  8
0
  6
Continuous
 62
     7
100
AcDbLine
 10
0.2759619606
 20
9.3063473583
 30
0.0
 11
0.3771736251
 21
9.306346355
 31
0.0
  0
LINE
  5
12A
330
2C
100
AcDbEntity
  8
0
  6
Continuous
 62
     7
100
AcDbLine
 10
0.4132394542000001
 20
9.306346355
 30
0.0
 11
0.4850229752000001
 21
9.306346355
 31
0.0
  0
LINE
  5
12B
330
2C
100
AcDbEntity
  8
0
  6
Continuous
 62
     7
100
AcDbLine
 10
0.5210867979
 20
9.306346355
 30
0.0
 11
0.8524222904
 21
9.306345351799999
 31
0.0
  0
LINE
  5
12C
330
2C
100
AcDbEntity
  8
0
  6
Continuous
 62
     7
100
AcDbLine
 10
0.8884881196
 20
9.306344348499999
 30
0.0
 11
0.9701489102
 21
9.306344348499999
 31
0.0
  0
LINE
  5
12D
330
2C
100
AcDbEntity
  8
0
  6
Continuous
 62
     7
100
AcDbLine
 10
0.0291365675
 20
9.296314580599998
 30
0.0
 11
0.1498770337
 21
9.296313577399999
 31
0.0
  0
LINE
  5
12E
330
2C
100
AcDbEntity
  8
0
  6
Continuous
 62
     7
100
AcDbLine
 10
0.1834687799
 20
9.296313577399999
 30
0.0
 11
0.3744858439
 21
9.296312574099999
 31
0.0
  0
LINE
  5
12F
330
2C
100
AcDbEntity
  8
0
  6
Continuous
 62
     7
100
AcDbLine
 10
0.4105506698000001
 20
9.296312574099999
 30
0.0
 11
0.4823341908
 21
9.296312574099999
 31
0.0
  0
LINE
  5
130
330
2C
100
AcDbEntity
  8
0
  6
Continuous
 62
     7
100
AcDbLine
 10
0.51840002
 20
9.296312574099999
 30
0.0
 11
0.8497335059999999
 21
9.296312574099999
 31
0.0
  0
LINE
  5
131
330
2C
100
AcDbEntity
  8
0
  6
Continuous
 62
     7
100
AcDbLine
 10
0.8857993351999999
 20
9.2963115708
 30
0.0
 11
0.9701489102
 21
9.2963115708
 31
0.0
  0
LINE
  5
132
330
2C
100
AcDbEntity
  8
0
  6
Continuous
 62
     7
100
AcDbLine
 10
0.0291365675
 20
9.286281802999999
 30
0.0
 11
0.1537406564
 21
9.2862807997
 31
0.0
  0
LINE
  5
133
330
2C
100
AcDbEntity
  8
0
  6
Continuous
 62
     7
100
AcDbLine
 10
0.1873324026
 20
9.2862807997
 30
0.0
 11
0.2688296589
 21
9.2862807997
 31
0.0
  0
LINE
  5
134
330
2C
100
AcDbEntity
  8
0
  6
Continuous
 62
     7
100
AcDbLine
 10
0.3648734396
 20
9.2862797964
 30
0.0
 11
0.3717970595
 21
9.2862797964
 31
0.0
  0
LINE
  5
135
330
2C
100
AcDbEntity
  8
0
  6
Continuous
 62
     7
100
AcDbLine
 10
0.4656155701
 20
9.2862797964
 30
0.0
 11
0.4796454064000001
 21
9.2862797964
 31
0.0
  0
LINE
  5
136
330
2C
100
AcDbEntity
  8
0
  6
Continuous
 62
     7
100
AcDbLine
 10
0.5157112356
 20
9.2862797964
 30
0.0
 11
0.5241688672000001
 21
9.2862797964
 31
0.0
  0
LINE
  5
137
330
2C
100
AcDbEntity
  8
0
  6
Continuous
 62
     7
100
AcDbLine
 10
0.6166881329999999
 20
9.286278793099999
 30
0.0
 11
0.6323051548
 21
9.286278793099999
 31
0.0
  0
LINE
  5
138
330
2C
100
AcDbEntity
  8
0
  6
Continuous
 62
     7
100
AcDbLine
 10
0.7250611942000001
 20
9.286278793099999
 30
0.0
 11
0.7335168192000001
 21
9.286278793099999
 31
0.0
  0
LINE
  5
139
330
2C
100
AcDbEntity
  8
0
  6
Continuous
 62
     7
100
AcDbLine
 10
0.8329627148
 20
9.286278793099999
 30
0.0
 11
0.8470457248
 21
9.286278793099999
 31
0.0
  0
LINE
  5
13A
330
2C
100
AcDbEntity
  8
0
  6
Continuous
 62
     7
100
AcDbLine
 10
0.8831105508
 20
9.286277789899999
 30
0.0
 11
0.9701489102
 21
9.286277789899999
 31
0.0
  0
LINE
  5
13B
330
2C
100
AcDbEntity
  8
0
  6
Continuous
 62
     7
100
AcDbLine
 10
0.0291365675
 20
9.2762490253
 30
0.0
 11
0.1576042791
 21
9.276248022
 31
0.0
  0
LINE
  5
13C
330
2C
100
AcDbEntity
  8
0
  6
Continuous
 62
     7
100
AcDbLine
 10
0.1911970286
 20
9.276248022
 30
0.0
 11
0.2609729907
 21
9.276248022
 31
0.0
  0
LINE
  5
13D
330
2C
100
AcDbEntity
  8
0
  6
Continuous
 62
     7
100
AcDbLine
 10
0.3621846552
 20
9.276247018699999
 30
0.0
 11
0.3691092784
 21
9.276247018699999
 31
0.0
  0
LINE
  5
13E
330
2C
100
AcDbEntity
  8
0
  6
Continuous
 62
     7
100
AcDbLine
 10
0.4691230292000001
 20
9.276247018699999
 30
0.0
 11
0.4769566220000001
 21
9.276247018699999
 31
0.0
  0
LINE
  5
13F
330
2C
100
AcDbEntity
  8
0
  6
Continuous
 62
     7
100
AcDbLine
 10
0.5130224512
 20
9.276247018699999
 30
0.0
 11
0.5199480776
 21
9.276247018699999
 31
0.0
  0
LINE
  5
140
330
2C
100
AcDbEntity
  8
0
  6
Continuous
 62
     7
100
AcDbLine
 10
0.6201915790000001
 20
9.276246015499999
 30
0.0
 11
0.6280833619
 21
9.276246015499999
 31
0.0
  0
LINE
  5
141
330
2C
100
AcDbEntity
  8
0
  6
Continuous
 62
     7
100
AcDbLine
 10
0.7223724098000001
 20
9.276246015499999
 30
0.0
 11
0.7292960297
 21
9.276246015499999
 31
0.0
  0
LINE
  5
142
330
2C
100
AcDbEntity
  8
0
  6
Continuous
 62
     7
100
AcDbLine
 10
0.8364671640999999
 20
9.276246015499999
 30
0.0
 11
0.8443569404000001
 21
9.276246015499999
 31
0.0
  0
LINE
  5
143
330
2C
100
AcDbEntity
  8
0
  6
Continuous
 62
     7
100
AcDbLine
 10
0.8804227695999999
 20
9.2762450122
 30
0.0
 11
0.9701489102
 21
9.2762450122
 31
0.0
  0
LINE
  5
144
330
2C
100
AcDbEntity
  8
0
  6
Continuous
 62
     7
100
AcDbLine
 10
0.0291365675
 20
9.266216247599999
 30
0.0
 11
0.161468905
 21
9.266215244299999
 31
0.0
  0
LINE
  5
145
330
2C
100
AcDbEntity
  8
0
  6
Continuous
 62
     7
100
AcDbLine
 10
0.1950606513
 20
9.266215244299999
 30
0.0
 11
0.2582842063
 21
9.266215244299999
 31
0.0
  0
LINE
  5
146
330
2C
100
AcDbEntity
  8
0
  6
Continuous
 62
     7
100
AcDbLine
 10
0.3594968741
 20
9.2662142411
 30
0.0
 11
0.3664214972
 21
9.2662142411
 31
0.0
  0
LINE
  5
147
330
2C
100
AcDbEntity
  8
0
  6
Continuous
 62
     7
100
AcDbLine
 10
0.4673452210000001
 20
9.2662142411
 30
0.0
 11
0.4742698441
 21
9.2662142411
 31
0.0
  0
LINE
  5
148
330
2C
100
AcDbEntity
  8
0
  6
Continuous
 62
     7
100
AcDbLine
 10
0.5103336667000001
 20
9.2662142411
 30
0.0
 11
0.5172592932
 21
9.2662142411
 31
0.0
  0
LINE
  5
149
330
2C
100
AcDbEntity
  8
0
  6
Continuous
 62
     7
100
AcDbLine
 10
0.6184709576
 20
9.266213237799998
 30
0.0
 11
0.6253945775
 21
9.266213237799998
 31
0.0
  0
LINE
  5
14A
330
2C
100
AcDbEntity
  8
0
  6
Continuous
 62
     7
100
AcDbLine
 10
0.7196836254000001
 20
9.266213237799998
 30
0.0
 11
0.7266072452
 21
9.266213237799998
 31
0.0
  0
LINE
  5
14B
330
2C
100
AcDbEntity
  8
0
  6
Continuous
 62
     7
100
AcDbLine
 10
0.8347445361
 20
9.266213237799998
 30
0.0
 11
0.8416681559999998
 21
9.266213237799998
 31
0.0
  0
LINE
  5
14C
330
2C
100
AcDbEntity
  8
0
  6
Continuous
 62
     7
100
AcDbLine
 10
0.8777339852
 20
9.266212234500001
 30
0.0
 11
0.9701489102
 21
9.266212234500001
 31
0.0
  0
LINE
  5
14D
330
2C
100
AcDbEntity
  8
0
  6
Continuous
 62
     7
100
AcDbLine
 10
0.0291355642
 20
9.2561824667
 30
0.0
 11
0.1653315245
 21
9.2561814634
 31
0.0
  0
LINE
  5
14E
330
2C
100
AcDbEntity
  8
0
  6
Continuous
 62
     7
100
AcDbLine
 10
0.1989232707
 20
9.2561814634
 30
0.0
 11
0.2555954219
 21
9.2561814634
 31
0.0
  0
LINE
  5
14F
330
2C
100
AcDbEntity
  8
0
  6
Continuous
 62
     7
100
AcDbLine
 10
0.2897550233
 20
9.2561814634
 30
0.0
 11
0.3637317095000001
 21
9.2561814634
 31
0.0
  0
LINE
  5
150
330
2C
100
AcDbEntity
  8
0
  6
Continuous
 62
     7
100
AcDbLine
 10
0.3997975386999999
 20
9.2561814634
 30
0.0
 11
0.4237879167000001
 21
9.2561814634
 31
0.0
  0
LINE
  5
151
330
2C
100
AcDbEntity
  8
0
  6
Continuous
 62
     7
100
AcDbLine
 10
0.4646564365
 20
9.2561814634
 30
0.0
 11
0.4715810597
 21
9.2561814634
 31
0.0
  0
LINE
  5
152
330
2C
100
AcDbEntity
  8
0
  6
Continuous
 62
     7
100
AcDbLine
 10
0.5076448823
 20
9.2561814634
 30
0.0
 11
0.5145705088
 21
9.2561814634
 31
0.0
  0
LINE
  5
153
330
2C
100
AcDbEntity
  8
0
  6
Continuous
 62
     7
100
AcDbLine
 10
0.5470004593
 20
9.2561814634
 30
0.0
 11
0.5823238629000001
 21
9.2561814634
 31
0.0
  0
LINE
  5
154
330
2C
100
AcDbEntity
  8
0
  6
Continuous
 62
     7
100
AcDbLine
 10
0.6157831765
 20
9.256180460099999
 30
0.0
 11
0.6227057931000001
 21
9.256180460099999
 31
0.0
  0
LINE
  5
155
330
2C
100
AcDbEntity
  8
0
  6
Continuous
 62
     7
100
AcDbLine
 10
0.6551357436
 20
9.256180460099999
 30
0.0
 11
0.6845648904
 21
9.256180460099999
 31
0.0
  0
LINE
  5
156
330
2C
100
AcDbEntity
  8
0
  6
Continuous
 62
     7
100
AcDbLine
 10
0.716994841
 20
9.256180460099999
 30
0.0
 11
0.7239204674
 21
9.256180460099999
 31
0.0
  0
LINE
  5
157
330
2C
100
AcDbEntity
  8
0
  6
Continuous
 62
     7
100
AcDbLine
 10
0.7563504179000001
 20
9.256180460099999
 30
0.0
 11
0.7985964381999999
 21
9.256180460099999
 31
0.0
  0
LINE
  5
158
330
2C
100
AcDbEntity
  8
0
  6
Continuous
 62
     7
100
AcDbLine
 10
0.8320557517000001
 20
9.256180460099999
 30
0.0
 11
0.8389813781
 21
9.256180460099999
 31
0.0
  0
LINE
  5
159
330
2C
100
AcDbEntity
  8
0
  6
Continuous
 62
     7
100
AcDbLine
 10
0.8750452007999999
 20
9.256179456799999
 30
0.0
 11
0.9701489102
 21
9.256179456799999
 31
0.0
  0
LINE
  5
15A
330
2C
100
AcDbEntity
  8
0
  6
Continuous
 62
     7
100
AcDbLine
 10
0.0291355642
 20
9.246149688999999
 30
0.0
 11
0.1691961504
 21
9.246148685699999
 31
0.0
  0
LINE
  5
15B
330
2C
100
AcDbEntity
  8
0
  6
Continuous
 62
     7
100
AcDbLine
 10
0.2027878966
 20
9.246148685699999
 30
0.0
 11
0.2529066375
 21
9.246148685699999
 31
0.0
  0
LINE
  5
15C
330
2C
100
AcDbEntity
  8
0
  6
Continuous
 62
     7
100
AcDbLine
 10
0.2853365881
 20
9.246148685699999
 30
0.0
 11
0.3610439284
 21
9.2461476824
 31
0.0
  0
LINE
  5
15D
330
2C
100
AcDbEntity
  8
0
  6
Continuous
 62
     7
100
AcDbLine
 10
0.3971087543
 20
9.2461476824
 30
0.0
 11
0.4259600131
 21
9.2461476824
 31
0.0
  0
LINE
  5
15E
330
2C
100
AcDbEntity
  8
0
  6
Continuous
 62
     7
100
AcDbLine
 10
0.4619676521000001
 20
9.2461476824
 30
0.0
 11
0.4688932786000001
 21
9.2461476824
 31
0.0
  0
LINE
  5
15F
330
2C
100
AcDbEntity
  8
0
  6
Continuous
 62
     7
100
AcDbLine
 10
0.5049571012
 20
9.2461476824
 30
0.0
 11
0.5118817243000001
 21
9.2461476824
 31
0.0
  0
LINE
  5
160
330
2C
100
AcDbEntity
  8
0
  6
Continuous
 62
     7
100
AcDbLine
 10
0.6130943921
 20
9.246146679199998
 30
0.0
 11
0.6200180120000001
 21
9.246146679199998
 31
0.0
  0
LINE
  5
161
330
2C
100
AcDbEntity
  8
0
  6
Continuous
 62
     7
100
AcDbLine
 10
0.6524469592000001
 20
9.246146679199998
 30
0.0
 11
0.6818771093000002
 21
9.246146679199998
 31
0.0
  0
LINE
  5
162
330
2C
100
AcDbEntity
  8
0
  6
Continuous
 62
     7
100
AcDbLine
 10
0.7143080631000001
 20
9.246146679199998
 30
0.0
 11
0.721231683
 21
9.246146679199998
 31
0.0
  0
LINE
  5
163
330
2C
100
AcDbEntity
  8
0
  6
Continuous
 62
     7
100
AcDbLine
 10
0.8293669673
 20
9.246146679199998
 30
0.0
 11
0.8362925936999999
 21
9.246146679199998
 31
0.0
  0
LINE
  5
164
330
2C
100
AcDbEntity
  8
0
  6
Continuous
 62
     7
100
AcDbLine
 10
0.8723584229
 20
9.246145675900001
 30
0.0
 11
0.9701489102
 21
9.246145675900001
 31
0.0
  0
LINE
  5
165
330
2C
100
AcDbEntity
  8
0
  6
Continuous
 62
     7
100
AcDbLine
 10
0.0291355642
 20
9.236116911299999
 30
0.0
 11
0.1730597731
 21
9.236115908
 31
0.0
  0
LINE
  5
166
330
2C
100
AcDbEntity
  8
0
  6
Continuous
 62
     7
100
AcDbLine
 10
0.2066515193
 20
9.236115908
 30
0.0
 11
0.2502178531
 21
9.236115908
 31
0.0
  0
LINE
  5
167
330
2C
100
AcDbEntity
  8
0
  6
Continuous
 62
     7
100
AcDbLine
 10
0.2826478036
 20
9.236115908
 30
0.0
 11
0.3583561471999999
 21
9.2361149048
 31
0.0
  0
LINE
  5
168
330
2C
100
AcDbEntity
  8
0
  6
Continuous
 62
     7
100
AcDbLine
 10
0.3944209732
 20
9.2361149048
 30
0.0
 11
0.4232722319
 21
9.2361149048
 31
0.0
  0
LINE
  5
169
330
2C
100
AcDbEntity
  8
0
  6
Continuous
 62
     7
100
AcDbLine
 10
0.4592788677000001
 20
9.2361149048
 30
0.0
 11
0.4662044941
 21
9.2361149048
 31
0.0
  0
LINE
  5
16A
330
2C
100
AcDbEntity
  8
0
  6
Continuous
 62
     7
100
AcDbLine
 10
0.5022683168
 20
9.2361149048
 30
0.0
 11
0.5091929399000001
 21
9.2361149048
 31
0.0
  0
LINE
  5
16B
330
2C
100
AcDbEntity
  8
0
  6
Continuous
 62
     7
100
AcDbLine
 10
0.6104056077000001
 20
9.236113901499999
 30
0.0
 11
0.6173312341
 21
9.236113901499999
 31
0.0
  0
LINE
  5
16C
330
2C
100
AcDbEntity
  8
0
  6
Continuous
 62
     7
100
AcDbLine
 10
0.6497591781000001
 20
9.236113901499999
 30
0.0
 11
0.6791903314
 21
9.236113901499999
 31
0.0
  0
LINE
  5
16D
330
2C
100
AcDbEntity
  8
0
  6
Continuous
 62
     7
100
AcDbLine
 10
0.7116192787000001
 20
9.236113901499999
 30
0.0
 11
0.7185428986
 21
9.236113901499999
 31
0.0
  0
LINE
  5
16E
330
2C
100
AcDbEntity
  8
0
  6
Continuous
 62
     7
100
AcDbLine
 10
0.8266811926999999
 20
9.236113901499999
 30
0.0
 11
0.8336038093
 21
9.236113901499999
 31
0.0
  0
LINE
  5
16F
330
2C
100
AcDbEntity
  8
0
  6
Continuous
 62
     7
100
AcDbLine
 10
0.8696696384999999
 20
9.2361128982
 30
0.0
 11
0.9701489102
 21
9.2361128982
 31
0.0
  0
LINE
  5
170
330
2C
100
AcDbEntity
  8
0
  6
Continuous
 62
     7
100
AcDbLine
 10
0.0291365675
 20
9.2260841336
 30
0.0
 11
0.1769233958
 21
9.226083130399999
 31
0.0
  0
LINE
  5
171
330
2C
100
AcDbEntity
  8
0
  6
Continuous
 62
     7
100
AcDbLine
 10
0.210515142
 20
9.226083130399999
 30
0.0
 11
0.2475300719
 21
9.226083130399999
 31
0.0
  0
LINE
  5
172
330
2C
100
AcDbEntity
  8
0
  6
Continuous
 62
     7
100
AcDbLine
 10
0.2799600225
 20
9.226083130399999
 30
0.0
 11
0.3556673628
 21
9.226082127099999
 31
0.0
  0
LINE
  5
173
330
2C
100
AcDbEntity
  8
0
  6
Continuous
 62
     7
100
AcDbLine
 10
0.391733192
 20
9.226082127099999
 30
0.0
 11
0.4205844508000001
 21
9.226082127099999
 31
0.0
  0
LINE
  5
174
330
2C
100
AcDbEntity
  8
0
  6
Continuous
 62
     7
100
AcDbLine
 10
0.4565900833
 20
9.226082127099999
 30
0.0
 11
0.4635157097000001
 21
9.226082127099999
 31
0.0
  0
LINE
  5
175
330
2C
100
AcDbEntity
  8
0
  6
Continuous
 62
     7
100
AcDbLine
 10
0.4995795324000001
 20
9.226082127099999
 30
0.0
 11
0.5065051588000001
 21
9.226082127099999
 31
0.0
  0
LINE
  5
176
330
2C
100
AcDbEntity
  8
0
  6
Continuous
 62
     7
100
AcDbLine
 10
0.6077168232
 20
9.2260811238
 30
0.0
 11
0.6146424497
 21
9.2260811238
 31
0.0
  0
LINE
  5
177
330
2C
100
AcDbEntity
  8
0
  6
Continuous
 62
     7
100
AcDbLine
 10
0.6470703937
 20
9.2260811238
 30
0.0
 11
0.676501547
 21
9.2260811238
 31
0.0
  0
LINE
  5
178
330
2C
100
AcDbEntity
  8
0
  6
Continuous
 62
     7
100
AcDbLine
 10
0.7089314975
 20
9.2260811238
 30
0.0
 11
0.7158541141
 21
9.2260811238
 31
0.0
  0
LINE
  5
179
330
2C
100
AcDbEntity
  8
0
  6
Continuous
 62
     7
100
AcDbLine
 10
0.8239924083
 20
9.2260811238
 30
0.0
 11
0.8309150248999998
 21
9.2260811238
 31
0.0
  0
LINE
  5
17A
330
2C
100
AcDbEntity
  8
0
  6
Continuous
 62
     7
100
AcDbLine
 10
0.8669808540999998
 20
9.226080120499998
 30
0.0
 11
0.9701489102
 21
9.226080120499998
 31
0.0
  0
LINE
  5
17B
330
2C
100
AcDbEntity
  8
0
  6
Continuous
 62
     7
100
AcDbLine
 10
0.0291365675
 20
9.216051355999999
 30
0.0
 11
0.1807870185
 21
9.216050352699999
 31
0.0
  0
LINE
  5
17C
330
2C
100
AcDbEntity
  8
0
  6
Continuous
 62
     7
100
AcDbLine
 10
0.2143787647
 20
9.216050352699999
 30
0.0
 11
0.2448432941
 21
9.216050352699999
 31
0.0
  0
LINE
  5
17D
330
2C
100
AcDbEntity
  8
0
  6
Continuous
 62
     7
100
AcDbLine
 10
0.2772722414
 20
9.216050352699999
 30
0.0
 11
0.3529785784
 21
9.2160493494
 31
0.0
  0
LINE
  5
17E
330
2C
100
AcDbEntity
  8
0
  6
Continuous
 62
     7
100
AcDbLine
 10
0.3890444075999999
 20
9.2160493494
 30
0.0
 11
0.4178956664000001
 21
9.2160493494
 31
0.0
  0
LINE
  5
17F
330
2C
100
AcDbEntity
  8
0
  6
Continuous
 62
     7
100
AcDbLine
 10
0.4539023022000001
 20
9.2160493494
 30
0.0
 11
0.4608269253000001
 21
9.2160493494
 31
0.0
  0
LINE
  5
180
330
2C
100
AcDbEntity
  8
0
  6
Continuous
 62
     7
100
AcDbLine
 10
0.4968927545000001
 20
9.2160493494
 30
0.0
 11
0.5038163744
 21
9.2160493494
 31
0.0
  0
LINE
  5
181
330
2C
100
AcDbEntity
  8
0
  6
Continuous
 62
     7
100
AcDbLine
 10
0.6050300454
 20
9.2160483461
 30
0.0
 11
0.6119536653000001
 21
9.2160483461
 31
0.0
  0
LINE
  5
182
330
2C
100
AcDbEntity
  8
0
  6
Continuous
 62
     7
100
AcDbLine
 10
0.6443836158
 20
9.2160483461
 30
0.0
 11
0.6738127626
 21
9.2160483461
 31
0.0
  0
LINE
  5
183
330
2C
100
AcDbEntity
  8
0
  6
Continuous
 62
     7
100
AcDbLine
 10
0.7062427131
 20
9.2160483461
 30
0.0
 11
0.7131663330000001
 21
9.2160483461
 31
0.0
  0
LINE
  5
184
330
2C
100
AcDbEntity
  8
0
  6
Continuous
 62
     7
100
AcDbLine
 10
0.8213036239
 20
9.2160483461
 30
0.0
 11
0.8282272437999999
 21
9.2160483461
 31
0.0
  0
LINE
  5
185
330
2C
100
AcDbEntity
  8
0
  6
Continuous
 62
     7
100
AcDbLine
 10
0.8642920696999999
 20
9.216047342899999
 30
0.0
 11
0.9701489102
 21
9.216047342899999
 31
0.0
  0
LINE
  5
186
330
2C
100
AcDbEntity
  8
0
  6
Continuous
 62
     7
100
AcDbLine
 10
0.0291365675
 20
9.206017575
 30
0.0
 11
0.1846506411
 21
9.206016571699999
 31
0.0
  0
LINE
  5
187
330
2C
100
AcDbEntity
  8
0
  6
Continuous
 62
     7
100
AcDbLine
 10
0.2182413841
 20
9.206016571699999
 30
0.0
 11
0.2421545097
 21
9.206016571699999
 31
0.0
  0
LINE
  5
188
330
2C
100
AcDbEntity
  8
0
  6
Continuous
 62
     7
100
AcDbLine
 10
0.3433651708
 20
9.206016571699999
 30
0.0
 11
0.3502907973
 21
9.206015568499999
 31
0.0
  0
LINE
  5
189
330
2C
100
AcDbEntity
  8
0
  6
Continuous
 62
     7
100
AcDbLine
 10
0.3863556232
 20
9.206015568499999
 30
0.0
 11
0.4152068819000001
 21
9.206015568499999
 31
0.0
  0
LINE
  5
18A
330
2C
100
AcDbEntity
  8
0
  6
Continuous
 62
     7
100
AcDbLine
 10
0.451214521
 20
9.206015568499999
 30
0.0
 11
0.4581391442000001
 21
9.206015568499999
 31
0.0
  0
LINE
  5
18B
330
2C
100
AcDbEntity
  8
0
  6
Continuous
 62
     7
100
AcDbLine
 10
0.4942039701
 20
9.206015568499999
 30
0.0
 11
0.5011295965000001
 21
9.206015568499999
 31
0.0
  0
LINE
  5
18C
330
2C
100
AcDbEntity
  8
0
  6
Continuous
 62
     7
100
AcDbLine
 10
0.6023402577
 20
9.206015568499999
 30
0.0
 11
0.6092648808
 21
9.2060145652
 31
0.0
  0
LINE
  5
18D
330
2C
100
AcDbEntity
  8
0
  6
Continuous
 62
     7
100
AcDbLine
 10
0.7035539287
 20
9.2060145652
 30
0.0
 11
0.7104775486000001
 21
9.2060145652
 31
0.0
  0
LINE
  5
18E
330
2C
100
AcDbEntity
  8
0
  6
Continuous
 62
     7
100
AcDbLine
 10
0.8186148395
 20
9.2060145652
 30
0.0
 11
0.8255384593
 21
9.2060145652
 31
0.0
  0
LINE
  5
18F
330
2C
100
AcDbEntity
  8
0
  6
Continuous
 62
     7
100
AcDbLine
 10
0.8616042884999998
 20
9.2060145652
 30
0.0
 11
0.9701489102
 21
9.2060135619
 31
0.0
  0
LINE
  5
190
330
2C
100
AcDbEntity
  8
0
  6
Continuous
 62
     7
100
AcDbLine
 10
0.0291365675
 20
9.195984797299999
 30
0.0
 11
0.1885142638
 21
9.195983794099999
 31
0.0
  0
LINE
  5
191
330
2C
100
AcDbEntity
  8
0
  6
Continuous
 62
     7
100
AcDbLine
 10
0.2221050068
 20
9.195983794099999
 30
0.0
 11
0.2396533382
 21
9.195983794099999
 31
0.0
  0
LINE
  5
192
330
2C
100
AcDbEntity
  8
0
  6
Continuous
 62
     7
100
AcDbLine
 10
0.3406773897
 20
9.195983794099999
 30
0.0
 11
0.3476020129
 21
9.1959827908
 31
0.0
  0
LINE
  5
193
330
2C
100
AcDbEntity
  8
0
  6
Continuous
 62
     7
100
AcDbLine
 10
0.3836668388
 20
9.1959827908
 30
0.0
 11
0.4125191008
 21
9.1959827908
 31
0.0
  0
LINE
  5
194
330
2C
100
AcDbEntity
  8
0
  6
Continuous
 62
     7
100
AcDbLine
 10
0.4485267399000001
 20
9.1959827908
 30
0.0
 11
0.455451363
 21
9.1959827908
 31
0.0
  0
LINE
  5
195
330
2C
100
AcDbEntity
  8
0
  6
Continuous
 62
     7
100
AcDbLine
 10
0.4915151857000001
 20
9.1959827908
 30
0.0
 11
0.4986264185
 21
9.1959827908
 31
0.0
  0
LINE
  5
196
330
2C
100
AcDbEntity
  8
0
  6
Continuous
 62
     7
100
AcDbLine
 10
0.5996534797999999
 20
9.1959827908
 30
0.0
 11
0.6067637094000001
 21
9.195981787499999
 31
0.0
  0
LINE
  5
197
330
2C
100
AcDbEntity
  8
0
  6
Continuous
 62
     7
100
AcDbLine
 10
0.7008651443
 20
9.195981787499999
 30
0.0
 11
0.7079763771
 21
9.195981787499999
 31
0.0
  0
LINE
  5
198
330
2C
100
AcDbEntity
  8
0
  6
Continuous
 62
     7
100
AcDbLine
 10
0.8159260551
 20
9.195981787499999
 30
0.0
 11
0.8228516815
 21
9.195981787499999
 31
0.0
  0
LINE
  5
199
330
2C
100
AcDbEntity
  8
0
  6
Continuous
 62
     7
100
AcDbLine
 10
0.8589155040999999
 20
9.195981787499999
 30
0.0
 11
0.9701489102
 21
9.195980784199999
 31
0.0
  0
LINE
  5
19A
330
2C
100
AcDbEntity
  8
0
  6
Continuous
 62
     7
100
AcDbLine
 10
0.0291365675
 20
9.1859520197
 30
0.0
 11
0.1923778865
 21
9.1859510164
 31
0.0
  0
LINE
  5
19B
330
2C
100
AcDbEntity
  8
0
  6
Continuous
 62
     7
100
AcDbLine
 10
0.2259686294
 20
9.1859510164
 30
0.0
 11
0.24112615
 21
9.1859510164
 31
0.0
  0
LINE
  5
19C
330
2C
100
AcDbEntity
  8
0
  6
Continuous
 62
     7
100
AcDbLine
 10
0.3379896086
 20
9.1859510164
 30
0.0
 11
0.3449142317
 21
9.185950013099999
 31
0.0
  0
LINE
  5
19D
330
2C
100
AcDbEntity
  8
0
  6
Continuous
 62
     7
100
AcDbLine
 10
0.3809780543
 20
9.185950013099999
 30
0.0
 11
0.4098313197
 21
9.185950013099999
 31
0.0
  0
LINE
  5
19E
330
2C
100
AcDbEntity
  8
0
  6
Continuous
 62
     7
100
AcDbLine
 10
0.4458379555
 20
9.185950013099999
 30
0.0
 11
0.4527635819000001
 21
9.185950013099999
 31
0.0
  0
LINE
  5
19F
330
2C
100
AcDbEntity
  8
0
  6
Continuous
 62
     7
100
AcDbLine
 10
0.4888264012
 20
9.185950013099999
 30
0.0
 11
0.5001022401
 21
9.185950013099999
 31
0.0
  0
LINE
  5
1A0
330
2C
100
AcDbEntity
  8
0
  6
Continuous
 62
     7
100
AcDbLine
 10
0.5969646954
 20
9.185950013099999
 30
0.0
 11
0.6082395310000001
 21
9.185949009799999
 31
0.0
  0
LINE
  5
1A1
330
2C
100
AcDbEntity
  8
0
  6
Continuous
 62
     7
100
AcDbLine
 10
0.6981763598999999
 20
9.185949009799999
 30
0.0
 11
0.7094532020000001
 21
9.185949009799999
 31
0.0
  0
LINE
  5
1A2
330
2C
100
AcDbEntity
  8
0
  6
Continuous
 62
     7
100
AcDbLine
 10
0.8132372705999999
 20
9.185949009799999
 30
0.0
 11
0.8201628970999998
 21
9.185949009799999
 31
0.0
  0
LINE
  5
1A3
330
2C
100
AcDbEntity
  8
0
  6
Continuous
 62
     7
100
AcDbLine
 10
0.8562287261999999
 20
9.185949009799999
 30
0.0
 11
0.9701489102
 21
9.1859480065
 31
0.0
  0
LINE
  5
1A4
330
2C
100
AcDbEntity
  8
0
  6
Continuous
 62
     7
100
AcDbLine
 10
0.0291365675
 20
9.175919242
 30
0.0
 11
0.1935567379
 21
9.175918238699999
 31
0.0
  0
LINE
  5
1A5
330
2C
100
AcDbEntity
  8
0
  6
Continuous
 62
     7
100
AcDbLine
 10
0.2298322521
 20
9.175918238699999
 30
0.0
 11
0.6624827467000002
 21
9.1759162322
 31
0.0
  0
LINE
  5
1A6
330
2C
100
AcDbEntity
  8
0
  6
Continuous
 62
     7
100
AcDbLine
 10
0.6954885787000001
 20
9.1759162322
 30
0.0
 11
0.9701489102
 21
9.175915228899999
 31
0.0
  0
LINE
  5
1A7
330
2C
100
AcDbEntity
  8
0
  6
Continuous
 62
     7
100
AcDbLine
 10
0.0291365675
 20
9.165885461
 30
0.0
 11
0.0967444464
 21
9.165884457799998
 31
0.0
  0
LINE
  5
1A8
330
2C
100
AcDbEntity
  8
0
  6
Continuous
 62
     7
100
AcDbLine
 10
0.2336958748
 20
9.165884457799998
 30
0.0
 11
0.598512753
 21
9.165883454500001
 31
0.0
  0
LINE
  5
1A9
330
2C
100
AcDbEntity
  8
0
  6
Continuous
 62
     7
100
AcDbLine
 10
0.6928018009
 20
9.165883454500001
 30
0.0
 11
0.9701489102
 21
9.165882451199999
 31
0.0
  0
LINE
  5
1AA
330
2C
100
AcDbEntity
  8
0
  6
Continuous
 62
     7
100
AcDbLine
 10
0.0291365675
 20
9.1558526834
 30
0.0
 11
0.0940566653
 21
9.155851680099999
 31
0.0
  0
LINE
  5
1AB
330
2C
100
AcDbEntity
  8
0
  6
Continuous
 62
     7
100
AcDbLine
 10
0.2354305421
 20
9.155851680099999
 30
0.0
 11
0.5958239686
 21
9.1558506768
 31
0.0
  0
LINE
  5
1AC
330
2C
100
AcDbEntity
  8
0
  6
Continuous
 62
     7
100
AcDbLine
 10
0.6901130165
 20
9.1558496735
 30
0.0
 11
0.9701489102
 21
9.155848670199999
 31
0.0
  0
LINE
  5
1AD
330
2C
100
AcDbEntity
  8
0
  6
Continuous
 62
     7
100
AcDbLine
 10
0.0291365675
 20
9.145819905699999
 30
0.0
 11
0.0913678809
 21
9.1458189024
 31
0.0
  0
LINE
  5
1AE
330
2C
100
AcDbEntity
  8
0
  6
Continuous
 62
     7
100
AcDbLine
 10
0.2292292822
 20
9.1458189024
 30
0.0
 11
0.5931351842
 21
9.145817899099998
 31
0.0
  0
LINE
  5
1AF
330
2C
100
AcDbEntity
  8
0
  6
Continuous
 62
     7
100
AcDbLine
 10
0.6837823337000001
 20
9.145816895800001
 30
0.0
 11
0.9701489102
 21
9.145815892599999
 31
0.0
  0
LINE
  5
1B0
330
2C
100
AcDbEntity
  8
0
  6
Continuous
 62
     7
100
AcDbLine
 10
0.0291365675
 20
9.135787127999998
 30
0.0
 11
0.9701489102
 21
9.1357831149
 31
0.0
  0
LINE
  5
1B1
330
2C
100
AcDbEntity
  8
0
  6
Continuous
 62
     7
100
AcDbLine
 10
0.0291355642
 20
9.125753347099999
 30
0.0
 11
0.9701489102
 21
9.125750337199999
 31
0.0
  0
LINE
  5
1B2
330
2C
100
AcDbEntity
  8
0
  6
Continuous
 62
     7
100
AcDbLine
 10
0.0299743045
 20
9.1157205694
 30
0.0
 11
0.9693111732999998
 21
9.1157165563
 31
0.0
  0
LINE
  5
1B3
330
2C
100
AcDbEntity
  8
0
  6
Continuous
 62
     7
100
AcDbLine
 10
0.0323681252
 20
9.105687791699999
 30
0.0
 11
0.9669173524999999
 21
9.105683778599999
 31
0.0
  0
LINE
  5
1B4
330
2C
100
AcDbEntity
  8
0
  6
Continuous
 62
     7
100
AcDbLine
 10
0.037258101
 20
9.095655014
 30
0.0
 11
0.9620253700999999
 21
9.0956510009
 31
0.0
  0
LINE
  5
1B5
330
2C
100
AcDbEntity
  8
0
  6
Continuous
 62
     7
100
AcDbLine
 10
0.0460397913
 20
9.085622236399998
 30
0.0
 11
0.9532426765
 21
9.0856182232
 31
0.0
  0
LINE
  5
1B6
330
2C
100
AcDbEntity
  8
0
  6
Continuous
 62
     7
100
AcDbLine
 10
0.0639081684
 20
9.0755884554
 30
0.0
 11
0.9353732962
 21
9.075585445599999
 31
0.0
  0
ENDBLK
  5
1B7
330
2C
100
AcDbEntity
  8
0
100
AcDbBlockEnd
  0
BLOCK
  5
1B9
330
1B8
100
AcDbEntity
  8
0
  6
Continuous
 62
     2
100
AcDbBlockBegin
  2
*D1
 70
     1
 10
0.0
 20
0.0
 30
0.0
  3
*D1
  1

  0
TEXT
  5
1BA
330
1B8
100
AcDbEntity
  8
0
  6
Continuous
 62
     2
100
AcDbText
 10
5.4358498021
 20
7.9427236338
 30
0.0
 40
0.1
  1
.250
 41
1.129411764705879
 72
     5
 11
5.7558498021
 21
7.9427236338
 31
0.0
100
AcDbText
  0
TEXT
  5
1BB
330
1B8
100
AcDbEntity
  8
0
  6
Continuous
 62
     2
100
AcDbText
 10
5.7558498021
 20
7.9427236338
 30
0.0
 40
0.1
  1
%%p.015
 41
1.247619047714285
 72
     5
 11
6.1925164688
 21
7.9427236338
 31
0.0
100
AcDbText
  0
LINE
  5
1BC
330
1B8
100
AcDbEntity
  8
0
  6
Continuous
 62
     2
100
AcDbLine
 10
4.3227725745
 20
6.040272576299999
 30
0.0
 11
4.3227725745
 21
8.1177236338
 31
0.0
  0
LINE
  5
1BD
330
1B8
100
AcDbEntity
  8
0
  6
Continuous
 62
     2
100
AcDbLine
 10
6.8227725745
 20
6.040272576299999
 30
0.0
 11
6.8227725745
 21
8.1177236338
 31
0.0
  0
LINE
  5
1BE
330
1B8
100
AcDbEntity
  8
0
  6
Continuous
 62
     2
100
AcDbLine
 10
4.3227725745
 20
7.992723633799999
 30
0.0
 11
5.3858498021
 21
7.992723633799999
 31
0.0
  0
LINE
  5
1BF
330
1B8
100
AcDbEntity
  8
0
  6
Continuous
 62
     2
100
AcDbLine
 10
6.8227725745
 20
7.992723633799999
 30
0.0
 11
6.242516468799999
 21
7.992723633799999
 31
0.0
  0
LWPOLYLINE
  5
1C0
330
1B8
100
AcDbEntity
  8
0
  6
Continuous
 62
     2
100
AcDbPolyline
 90
        4
 70
     0
 43
0.0
 10
4.5102725745
 20
8.0239736338
 10
4.3227725745
 20
7.992723633799999
 10
4.5102725745
 20
7.961473633799999
 10
4.5102725745
 20
8.0239736338
  0
LWPOLYLINE
  5
1C6
330
1B8
100
AcDbEntity
  8
0
  6
Continuous
 62
     2
100
AcDbPolyline
 90
        4
 70
     0
 43
0.0
 10
6.6352725745
 20
7.961473633799999
 10
6.8227725745
 20
7.992723633799999
 10
6.6352725745
 20
8.0239736338
 10
6.6352725745
 20
7.961473633799999
  0
ENDBLK
  5
1CC
330
1B8
100
AcDbEntity
  8
0
100
AcDbBlockEnd
  0
BLOCK
  5
1CE
330
1CD
100
AcDbEntity
  8
0
  6
Continuous
 62
     2
100
AcDbBlockBegin
  2
*D2
 70
     1
 10
0.0
 20
0.0
 30
0.0
  3
*D2
  1

  0
TEXT
  5
1CF
330
1CD
100
AcDbEntity
  8
0
  6
Continuous
 62
     2
100
AcDbText
 10
3.217171455299999
 20
5.900758718099999
 30
0.0
 40
0.1
  1
.225
 41
1.066666666666665
 72
     5
 11
3.537171455299999
 21
5.900758718099999
 31
0.0
100
AcDbText
  0
TEXT
  5
1D0
330
1CD
100
AcDbEntity
  8
0
  6
Continuous
 62
     2
100
AcDbText
 10
3.537171455299999
 20
5.900758718099999
 30
0.0
 40
0.1
  1
%%p.015
 41
1.247619047714286
 72
     5
 11
3.973838122
 21
5.900758718099999
 31
0.0
100
AcDbText
  0
LINE
  5
1D1
330
1CD
100
AcDbEntity
  8
0
  6
Continuous
 62
     2
100
AcDbLine
 10
4.4602725745
 20
4.977772576299999
 30
0.0
 11
3.4705047887
 21
4.977772576299999
 31
0.0
  0
LINE
  5
1D2
330
1CD
100
AcDbEntity
  8
0
  6
Continuous
 62
     2
100
AcDbLine
 10
5.5102725745
 20
7.227772576299999
 30
0.0
 11
3.4705047887
 21
7.227772576299999
 31
0.0
  0
LINE
  5
1D3
330
1CD
100
AcDbEntity
  8
0
  6
Continuous
 62
     2
100
AcDbLine
 10
3.5955047887
 20
4.977772576299999
 30
0.0
 11
3.5955047887
 21
5.850758718099999
 31
0.0
  0
LINE
  5
1D4
330
1CD
100
AcDbEntity
  8
0
  6
Continuous
 62
     2
100
AcDbLine
 10
3.5955047887
 20
7.227772576299999
 30
0.0
 11
3.5955047887
 21
6.050758718099999
 31
0.0
  0
LWPOLYLINE
  5
1D5
330
1CD
100
AcDbEntity
  8
0
  6
Continuous
 62
     2
100
AcDbPolyline
 90
        4
 70
     0
 43
0.0
 10
3.5642547887
 20
5.165272576299999
 10
3.5955047887
 20
4.977772576299999
 10
3.6267547887
 20
5.165272576299999
 10
3.5642547887
 20
5.165272576299999
  0
LWPOLYLINE
  5
1DB
330
1CD
100
AcDbEntity
  8
0
  6
Continuous
 62
     2
100
AcDbPolyline
 90
        4
 70
     0
 43
0.0
 10
3.6267547887
 20
7.040272576299999
 10
3.5955047887
 20
7.227772576299999
 10
3.5642547887
 20
7.040272576299999
 10
3.6267547887
 20
7.040272576299999
  0
ENDBLK
  5
1E1
330
1CD
100
AcDbEntity
  8
0
100
AcDbBlockEnd
  0
BLOCK
  5
1E3
330
1E2
100
AcDbEntity
  8
0
  6
Continuous
 62
     2
100
AcDbBlockBegin
  2
*D3
 70
     1
 10
0.0
 20
0.0
 30
0.0
  3
*D3
  1

  0
TEXT
  5
1E4
330
1E2
100
AcDbEntity
  8
0
  6
Continuous
 62
     2
100
AcDbText
 10
3.435504788699999
 20
3.9052299298
 30
0.0
 40
0.1
  1
.235
 41
1.066666666666667
 72
     5
 11
3.7555047887
 21
3.9052299298
 31
0.0
100
AcDbText
  0
LINE
  5
1E5
330
1E2
100
AcDbEntity
  8
0
  6
Continuous
 62
     2
100
AcDbLine
 10
4.4602725745
 20
4.977772576299999
 30
0.0
 11
3.4705047887
 21
4.977772576299999
 31
0.0
  0
LINE
  5
1E6
330
1E2
100
AcDbEntity
  8
0
  6
Continuous
 62
     2
100
AcDbLine
 10
6.2602725745
 20
2.627772576299999
 30
0.0
 11
3.4705047887
 21
2.627772576299999
 31
0.0
  0
LINE
  5
1E7
330
1E2
100
AcDbEntity
  8
0
  6
Continuous
 62
     2
100
AcDbLine
 10
3.5955047887
 20
4.977772576299999
 30
0.0
 11
3.5955047887
 21
4.0552299298
 31
0.0
  0
LINE
  5
1E8
330
1E2
100
AcDbEntity
  8
0
  6
Continuous
 62
     2
100
AcDbLine
 10
3.5955047887
 20
2.627772576299999
 30
0.0
 11
3.5955047887
 21
3.8552299298
 31
0.0
  0
LWPOLYLINE
  5
1E9
330
1E2
100
AcDbEntity
  8
0
  6
Continuous
 62
     2
100
AcDbPolyline
 90
        4
 70
     0
 43
0.0
 10
3.6267547887
 20
4.790272576299999
 10
3.5955047887
 20
4.977772576299999
 10
3.5642547887
 20
4.790272576299999
 10
3.6267547887
 20
4.790272576299999
  0
LWPOLYLINE
  5
1EF
330
1E2
100
AcDbEntity
  8
0
  6
Continuous
 62
     2
100
AcDbPolyline
 90
        4
 70
     0
 43
0.0
 10
3.5642547887
 20
2.815272576299999
 10
3.5955047887
 20
2.627772576299999
 10
3.6267547887
 20
2.815272576299999
 10
3.5642547887
 20
2.815272576299999
  0
ENDBLK
  5
1F5
330
1E2
100
AcDbEntity
  8
0
100
AcDbBlockEnd
  0
BLOCK
  5
1F7
330
1F6
100
AcDbEntity
  8
0
  6
Continuous
 62
     2
100
AcDbBlockBegin
  2
*D4
 70
     1
 10
0.0
 20
0.0
 30
0.0
  3
*D4
  1

  0
TEXT
  5
1F8
330
1F6
100
AcDbEntity
  8
0
  6
Continuous
 62
     2
100
AcDbText
 10
5.9305591811
 20
1.836642471699999
 30
0.0
 40
0.1
  1
.115
 41
1.371428571428568
 72
     5
 11
6.250559181099999
 21
1.836642471699999
 31
0.0
100
AcDbText
  0
TEXT
  5
1F9
330
1F6
100
AcDbEntity
  8
0
  6
Continuous
 62
     2
100
AcDbText
 10
6.250559181099999
 20
1.836642471699999
 30
0.0
 40
0.1
  1
%%p.010
 41
1.309999999799999
 72
     5
 11
6.687225847699999
 21
1.836642471699999
 31
0.0
100
AcDbText
  0
LINE
  5
1FA
330
1F6
100
AcDbEntity
  8
0
  6
Continuous
 62
     2
100
AcDbLine
 10
5.7477725745
 20
3.079928473
 30
0.0
 11
5.7477725745
 21
1.761642471699999
 31
0.0
  0
LINE
  5
1FB
330
1F6
100
AcDbEntity
  8
0
  6
Continuous
 62
     2
100
AcDbLine
 10
6.8977725745
 20
3.079928473
 30
0.0
 11
6.8977725745
 21
1.761642471699999
 31
0.0
  0
LINE
  5
1FC
330
1F6
100
AcDbEntity
  8
0
  6
Continuous
 62
     2
100
AcDbLine
 10
5.7477725745
 20
1.886642471699999
 30
0.0
 11
5.247772574499999
 21
1.886642471699999
 31
0.0
  0
LINE
  5
1FD
330
1F6
100
AcDbEntity
  8
0
  6
Continuous
 62
     2
100
AcDbLine
 10
6.8977725745
 20
1.886642471699999
 30
0.0
 11
7.3977725745
 21
1.886642471699999
 31
0.0
  0
LWPOLYLINE
  5
1FE
330
1F6
100
AcDbEntity
  8
0
  6
Continuous
 62
     2
100
AcDbPolyline
 90
        4
 70
     0
 43
0.0
 10
5.5602725745
 20
1.855392471699999
 10
5.7477725745
 20
1.886642471699999
 10
5.5602725745
 20
1.917892471699999
 10
5.5602725745
 20
1.855392471699999
  0
LWPOLYLINE
  5
204
330
1F6
100
AcDbEntity
  8
0
  6
Continuous
 62
     2
100
AcDbPolyline
 90
        4
 70
     0
 43
0.0
 10
7.0852725745
 20
1.917892471699999
 10
6.8977725745
 20
1.886642471699999
 10
7.0852725745
 20
1.855392471699999
 10
7.0852725745
 20
1.917892471699999
  0
ENDBLK
  5
20A
330
1F6
100
AcDbEntity
  8
0
100
AcDbBlockEnd
  0
ENDSEC
  0
SECTION
  2
ENTITIES
  0
TEXT
  5
26C
330
1E
100
AcDbEntity
  8
0
  6
Continuous
 62
     2
100
AcDbText
 10
7.799999999999999
 20
0.1
 30
0.0
 40
0.1
  1
  
 41
0.8000000000000007
 72
     5
 11
7.959999999999999
 21
0.1
 31
0.0
100
AcDbText
  0
LINE
  5
2C2
330
1E
100
AcDbEntity
  8
0
  6
Continuous
 62
     7
100
AcDbLine
 10
5.337208222129095
 20
5.067966068526977
 30
0.0
 11
5.375208222129095
 21
5.046026758296977
 31
0.0
  0
LINE
  5
2C3
330
1E
100
AcDbEntity
  8
0
  6
Continuous
 62
     7
100
AcDbLine
 10
5.189208222129095
 20
5.361026758296977
 30
0.0
 11
5.189208222129095
 21
5.281026758296977
 31
0.0
  0
LINE
  5
2C4
330
1E
100
AcDbEntity
  8
0
  6
Continuous
 62
     7
100
AcDbLine
 10
5.194208222129095
 20
5.361026758296977
 30
0.0
 11
5.194208222129095
 21
5.281026758296977
 31
0.0
  0
LINE
  5
2C5
330
1E
100
AcDbEntity
  8
0
  6
Continuous
 62
     7
100
AcDbLine
 10
5.375208222129095
 20
5.071430170136977
 30
0.0
 11
5.348208222129095
 21
5.087018627406977
 31
0.0
  0
LINE
  5
2C6
330
1E
100
AcDbEntity
  8
0
  6
Continuous
 62
     7
100
AcDbLine
 10
5.370208222129095
 20
5.150026758296977
 30
0.0
 11
5.375208222129095
 21
5.150026758296977
 31
0.0
  0
LINE
  5
2C7
330
1E
100
AcDbEntity
  8
0
  6
Continuous
 62
     7
100
AcDbLine
 10
5.403208222129095
 20
5.150026758296977
 30
0.0
 11
5.408208222129095
 21
5.150026758296977
 31
0.0
  0
LINE
  5
2C8
330
1E
100
AcDbEntity
  8
0
  6
Continuous
 62
     7
100
AcDbLine
 10
5.337208222129095
 20
5.127966068526977
 30
0.0
 11
5.375208222129095
 21
5.106026758296977
 31
0.0
  0
LINE
  5
2C9
330
1E
100
AcDbEntity
  8
0
  6
Continuous
 62
     7
100
AcDbLine
 10
5.375208222129095
 20
5.131430170136977
 30
0.0
 11
5.348208222129095
 21
5.147018627406977
 31
0.0
  0
LINE
  5
2CA
330
1E
100
AcDbEntity
  8
0
  6
Continuous
 62
     7
100
AcDbLine
 10
5.209208222129095
 20
5.261026758296977
 30
0.0
 11
5.370208222129095
 21
5.261026758296977
 31
0.0
  0
LINE
  5
2CB
330
1E
100
AcDbEntity
  8
0
  6
Continuous
 62
     7
100
AcDbLine
 10
5.375208222129095
 20
5.266026758296977
 30
0.0
 11
5.209208222129095
 21
5.266026758296977
 31
0.0
  0
LINE
  5
2CC
330
1E
100
AcDbEntity
  8
0
  6
Continuous
 62
     7
100
AcDbLine
 10
5.375208222129095
 20
5.267916335886977
 30
0.0
 11
5.220882325219095
 21
5.278707853856977
 31
0.0
  0
LINE
  5
2CD
330
1E
100
AcDbEntity
  8
0
  6
Continuous
 62
     7
100
AcDbLine
 10
5.370208222129095
 20
5.261026758296977
 30
0.0
 11
5.370208222129095
 21
5.150026758296977
 31
0.0
  0
LINE
  5
2CE
330
1E
100
AcDbEntity
  8
0
  6
Continuous
 62
     7
100
AcDbLine
 10
5.403208222129095
 20
5.294026758296977
 30
0.0
 11
5.222835506479095
 21
5.306639647266977
 31
0.0
  0
LINE
  5
2CF
330
1E
100
AcDbEntity
  8
0
  6
Continuous
 62
     7
100
AcDbLine
 10
5.375208222129095
 20
5.267916335886977
 30
0.0
 11
5.375208222129095
 21
5.040026758296977
 31
0.0
  0
LINE
  5
2D1
330
1E
100
AcDbEntity
  8
0
  6
Continuous
 62
     7
100
AcDbLine
 10
5.403208222129095
 20
5.040026758296977
 30
0.0
 11
5.403208222129095
 21
5.294026758296977
 31
0.0
  0
LINE
  5
2D2
330
1E
100
AcDbEntity
  8
0
  6
Continuous
 62
     7
100
AcDbLine
 10
5.408208222129095
 20
5.150026758296977
 30
0.0
 11
5.408208222129095
 21
5.200026758296977
 31
0.0
  0
LINE
  5
2D3
330
1E
100
AcDbEntity
  8
0
  6
Continuous
 62
     7
100
AcDbLine
 10
5.434208222129095
 20
5.236375066436977
 30
0.0
 11
5.403208222129095
 21
5.201946078476977
 31
0.0
  0
LINE
  5
2D4
330
1E
100
AcDbEntity
  8
0
  6
Continuous
 62
     7
100
AcDbLine
 10
5.408208222129095
 20
5.200026758296977
 30
0.0
 11
5.439208222129095
 21
5.234455746256977
 31
0.0
  0
LINE
  5
2D5
330
1E
100
AcDbEntity
  8
0
  6
Continuous
 62
     7
100
AcDbLine
 10
5.434208222129095
 20
5.361026758296977
 30
0.0
 11
5.434208222129095
 21
5.236375066436977
 31
0.0
  0
LINE
  5
2D6
330
1E
100
AcDbEntity
  8
0
  6
Continuous
 62
     7
100
AcDbLine
 10
5.439208222129095
 20
5.234455746256977
 30
0.0
 11
5.439208222129095
 21
5.361026758296977
 31
0.0
  0
LINE
  5
2D8
330
1E
100
AcDbEntity
  8
0
  6
Continuous
 62
     7
100
AcDbLine
 10
5.430208222129095
 20
5.147018627406977
 30
0.0
 11
5.403208222129095
 21
5.131430170136977
 31
0.0
  0
LINE
  5
2D9
330
1E
100
AcDbEntity
  8
0
  6
Continuous
 62
     7
100
AcDbLine
 10
5.403208222129095
 20
5.106026758296977
 30
0.0
 11
5.441208222129095
 21
5.127966068526977
 31
0.0
  0
LINE
  5
2DB
330
1E
100
AcDbEntity
  8
0
  6
Continuous
 62
     7
100
AcDbLine
 10
5.430208222129095
 20
5.087018627406977
 30
0.0
 11
5.403208222129095
 21
5.071430170136977
 31
0.0
  0
LINE
  5
2DC
330
1E
100
AcDbEntity
  8
0
  6
Continuous
 62
     7
100
AcDbLine
 10
5.403208222129095
 20
5.046026758296977
 30
0.0
 11
5.441208222129095
 21
5.067966068526977
 31
0.0
  0
ARC
  5
2F6
330
1E
100
AcDbEntity
  8
0
  6
Continuous
 62
     7
100
AcDbCircle
 10
5.389208222129095
 20
5.040026758296977
 30
0.0
 40
0.014
100
AcDbArc
 50
180.0
 51
0.0
  0
ARC
  5
2F7
330
1E
100
AcDbEntity
  8
0
  6
Continuous
 62
     7
100
AcDbCircle
 10
5.435708222129095
 20
5.077492347966977
 30
0.0
 40
0.011
100
AcDbArc
 50
300.0
 51
119.9999999999999
  0
ARC
  5
2F8
330
1E
100
AcDbEntity
  8
0
  6
Continuous
 62
     7
100
AcDbCircle
 10
5.342708222129095
 20
5.077492347966977
 30
0.0
 40
0.011
100
AcDbArc
 50
60.0
 51
239.9999999999999
  0
ARC
  5
2F9
330
1E
100
AcDbEntity
  8
0
  6
Continuous
 62
     7
100
AcDbCircle
 10
5.435708222129095
 20
5.137492347966977
 30
0.0
 40
0.011
100
AcDbArc
 50
300.0
 51
119.9999999999999
  0
ARC
  5
2FA
330
1E
100
AcDbEntity
  8
0
  6
Continuous
 62
     7
100
AcDbCircle
 10
5.342708222129095
 20
5.137492347966977
 30
0.0
 40
0.011
100
AcDbArc
 50
60.0
 51
239.9999999999999
  0
ARC
  5
2FB
330
1E
100
AcDbEntity
  8
0
  6
Continuous
 62
     7
100
AcDbCircle
 10
5.209208222129095
 20
5.281026758296977
 30
0.0
 40
0.02
100
AcDbArc
 50
180.0
 51
270.0
  0
ARC
  5
2FC
330
1E
100
AcDbEntity
  8
0
  6
Continuous
 62
     7
100
AcDbCircle
 10
5.314208222129095
 20
5.361026758296977
 30
0.0
 40
0.125
100
AcDbArc
 50
0.0
 51
180.0
  0
ARC
  5
2FD
330
1E
100
AcDbEntity
  8
0
  6
Continuous
 62
     7
100
AcDbCircle
 10
5.221858915849095
 20
5.292673750556977
 30
0.0
 40
0.014
100
AcDbArc
 50
86.0
 51
266.0
  0
ARC
  5
2FE
330
1E
100
AcDbEntity
  8
0
  6
Continuous
 62
     7
100
AcDbCircle
 10
5.209208222129095
 20
5.281026758296977
 30
0.0
 40
0.015
100
AcDbArc
 50
180.0
 51
270.0
  0
ARC
  5
2FF
330
1E
100
AcDbEntity
  8
0
  6
Continuous
 62
     7
100
AcDbCircle
 10
5.314208222129095
 20
5.361026758296977
 30
0.0
 40
0.12
100
AcDbArc
 50
0.0
 51
180.0
  0
CIRCLE
  5
300
330
1E
100
AcDbEntity
  8
0
  6
Continuous
 62
     4
100
AcDbCircle
 10
5.310250600329095
 20
5.457689616736977
 30
0.0
 40
0.00975357795
  0
CIRCLE
  5
301
330
1E
100
AcDbEntity
  8
0
  6
Continuous
 62
     4
100
AcDbCircle
 10
5.273007766339095
 20
5.436999153406977
 30
0.0
 40
0.00525246247
  0
CIRCLE
  5
302
330
1E
100
AcDbEntity
  8
0
  6
Continuous
 62
     4
100
AcDbCircle
 10
5.254386349349095
 20
5.412860279526977
 30
0.0
 40
0.00827618533
  0
CIRCLE
  5
303
330
1E
100
AcDbEntity
  8
0
  6
Continuous
 62
     4
100
AcDbCircle
 10
5.236454614459095
 20
5.388031723536977
 30
0.0
 40
0.01090483166
  0
CIRCLE
  5
304
330
1E
100
AcDbEntity
  8
0
  6
Continuous
 62
     4
100
AcDbCircle
 10
5.338527566879095
 20
5.405273776306977
 30
0.0
 40
0.01112078988
  0
CIRCLE
  5
305
330
1E
100
AcDbEntity
  8
0
  6
Continuous
 62
     4
100
AcDbCircle
 10
5.390253725189095
 20
5.395618226756977
 30
0.0
 40
0.0092530565
  0
CIRCLE
  5
306
330
1E
100
AcDbEntity
  8
0
  6
Continuous
 62
     4
100
AcDbCircle
 10
5.408875142189095
 20
5.360444439096977
 30
0.0
 40
0.00896586744
  0
CIRCLE
  5
307
330
1E
100
AcDbEntity
  8
0
  6
Continuous
 62
     4
100
AcDbCircle
 10
5.395081499969095
 20
5.338374611546977
 30
0.0
 40
0.00771088041
  0
CIRCLE
  5
308
330
1E
100
AcDbEntity
  8
0
  6
Continuous
 62
     4
100
AcDbCircle
 10
5.419220373849095
 20
5.296993684896977
 30
0.0
 40
0.00758650322
  0
CIRCLE
  5
309
330
1E
100
AcDbEntity
  8
0
  6
Continuous
 62
     4
100
AcDbCircle
 10
5.419910055959095
 20
5.268716718346977
 30
0.0
 40
0.00624533714
  0
CIRCLE
  5
30A
330
1E
100
AcDbEntity
  8
0
  6
Continuous
 62
     4
100
AcDbCircle
 10
5.417841009629095
 20
5.248026255026977
 30
0.0
 40
0.00556039494
  0
CIRCLE
  5
30B
330
1E
100
AcDbEntity
  8
0
  6
Continuous
 62
     4
100
AcDbCircle
 10
5.315768057219095
 20
5.342512704216977
 30
0.0
 40
0.01114215549
  0
CIRCLE
  5
30C
330
1E
100
AcDbEntity
  8
0
  6
Continuous
 62
     4
100
AcDbCircle
 10
5.259214124119095
 20
5.336305565216977
 30
0.0
 40
0.00710071193
  0
CIRCLE
  5
30D
330
1E
100
AcDbEntity
  8
0
  6
Continuous
 62
     4
100
AcDbCircle
 10
5.215074469029095
 20
5.339064293656977
 30
0.0
 40
0.006542899
  0
CIRCLE
  5
30E
330
1E
100
AcDbEntity
  8
0
  6
Continuous
 62
     4
100
AcDbCircle
 10
5.273007766339095
 20
5.376307127646977
 30
0.0
 40
0.01114215549
  0
CIRCLE
  5
30F
330
1E
100
AcDbEntity
  8
0
  6
Continuous
 62
     4
100
AcDbCircle
 10
5.286801408559095
 20
5.339064293656977
 30
0.0
 40
0.00771088041
  0
CIRCLE
  5
310
330
1E
100
AcDbEntity
  8
0
  6
Continuous
 62
     4
100
AcDbCircle
 10
5.359218030199095
 20
5.356306346436977
 30
0.0
 40
0.00568726438
  0
CIRCLE
  5
311
330
1E
100
AcDbEntity
  8
0
  6
Continuous
 62
     4
100
AcDbCircle
 10
5.350941844869095
 20
5.332167472556977
 30
0.0
 40
0.01105644533
  0
CIRCLE
  5
312
330
1E
100
AcDbEntity
  8
0
  6
Continuous
 62
     4
100
AcDbCircle
 10
5.361287076529095
 20
5.423205511186977
 30
0.0
 40
0.00703340508
  0
CIRCLE
  5
313
330
1E
100
AcDbEntity
  8
0
  6
Continuous
 62
     4
100
AcDbCircle
 10
5.290939501219095
 20
5.416308690076977
 30
0.0
 40
0.00830487237
  0
CIRCLE
  5
314
330
1E
100
AcDbEntity
  8
0
  6
Continuous
 62
     4
100
AcDbCircle
 10
5.309560918219095
 20
5.378376173976977
 30
0.0
 40
0.01034523166
  0
CIRCLE
  5
315
330
1E
100
AcDbEntity
  8
0
  6
Continuous
 62
     4
100
AcDbCircle
 10
5.321285514099095
 20
5.432861060736977
 30
0.0
 40
0.01131162766
  0
CIRCLE
  5
316
330
1E
100
AcDbEntity
  8
0
  6
Continuous
 62
     4
100
AcDbCircle
 10
5.388874360969095
 20
5.425964239636977
 30
0.0
 40
0.00771088041
  0
CIRCLE
  5
317
330
1E
100
AcDbEntity
  8
0
  6
Continuous
 62
     4
100
AcDbCircle
 10
5.361287076529095
 20
5.390100769866977
 30
0.0
 40
0.00804300642
  0
CIRCLE
  5
318
330
1E
100
AcDbEntity
  8
0
  6
Continuous
 62
     4
100
AcDbCircle
 10
5.382667221969095
 20
5.367341260206977
 30
0.0
 40
0.00689682111
  0
CIRCLE
  5
319
330
1E
100
AcDbEntity
  8
0
  6
Continuous
 62
     4
100
AcDbCircle
 10
5.374391036639095
 20
5.316994466116977
 30
0.0
 40
0.0076177879
  0
TEXT
  5
343
330
1E
100
AcDbEntity
  8
0
  6
Continuous
 62
     7
100
AcDbText
 10
5.100481443549095
 20
5.153772493646977
 30
0.0
 40
0.01
  1
.235
 41
1.066666666666667
 72
     5
 11
5.132481443549095
 21
5.153772493646977
 31
0.0
100
AcDbText
  0
LINE
  5
344
330
1E
100
AcDbEntity
  8
0
  6
Continuous
 62
     7
100
AcDbLine
 10
5.202958222129095
 20
5.261026758296977
 30
0.0
 11
5.103981443549095
 21
5.261026758296977
 31
0.0
  0
LINE
  5
345
330
1E
100
AcDbEntity
  8
0
  6
Continuous
 62
     7
100
AcDbLine
 10
5.382958222129095
 20
5.026026758296977
 30
0.0
 11
5.103981443549095
 21
5.026026758296977
 31
0.0
  0
LINE
  5
346
330
1E
100
AcDbEntity
  8
0
  6
Continuous
 62
     7
100
AcDbLine
 10
5.116481443549095
 20
5.261026758296977
 30
0.0
 11
5.116481443549095
 21
5.168772493646977
 31
0.0
  0
LINE
  5
347
330
1E
100
AcDbEntity
  8
0
  6
Continuous
 62
     7
100
AcDbLine
 10
5.116481443549095
 20
5.026026758296977
 30
0.0
 11
5.116481443549095
 21
5.148772493646977
 31
0.0
  0
LWPOLYLINE
  5
348
330
1E
100
AcDbEntity
  8
0
  6
Continuous
 62
     7
100
AcDbPolyline
 90
        4
 70
     0
 43
0.0
 10
5.119606443549095
 20
5.242276758296977
 10
5.116481443549095
 20
5.261026758296977
 10
5.113356443549095
 20
5.242276758296977
 10
5.119606443549095
 20
5.242276758296977
  0
LWPOLYLINE
  5
349
330
1E
100
AcDbEntity
  8
0
  6
Continuous
 62
     7
100
AcDbPolyline
 90
        4
 70
     0
 43
0.0
 10
5.113356443549095
 20
5.044776758296976
 10
5.116481443549095
 20
5.026026758296977
 10
5.119606443549095
 20
5.044776758296976
 10
5.113356443549095
 20
5.044776758296976
  0
TEXT
  5
34A
330
1E
100
AcDbEntity
  8
0
  6
Continuous
 62
     7
100
AcDbText
 10
5.078648110209095
 20
5.353325372476977
 30
0.0
 40
0.01
  1
.225
 41
1.066666666666667
 72
     5
 11
5.110648110209095
 21
5.353325372476977
 31
0.0
100
AcDbText
  0
TEXT
  5
34B
330
1E
100
AcDbEntity
  8
0
  6
Continuous
 62
     7
100
AcDbText
 10
5.110648110209095
 20
5.353325372476977
 30
0.0
 40
0.01
  1
%%p.015
 41
1.247619047714287
 72
     5
 11
5.154314776879095
 21
5.353325372476977
 31
0.0
100
AcDbText
  0
LINE
  5
34C
330
1E
100
AcDbEntity
  8
0
  6
Continuous
 62
     7
100
AcDbLine
 10
5.202958222129095
 20
5.261026758296977
 30
0.0
 11
5.103981443549095
 21
5.261026758296977
 31
0.0
  0
LINE
  5
34D
330
1E
100
AcDbEntity
  8
0
  6
Continuous
 62
     7
100
AcDbLine
 10
5.307958222129095
 20
5.486026758296977
 30
0.0
 11
5.103981443549095
 21
5.486026758296977
 31
0.0
  0
LINE
  5
34E
330
1E
100
AcDbEntity
  8
0
  6
Continuous
 62
     7
100
AcDbLine
 10
5.116481443549095
 20
5.261026758296977
 30
0.0
 11
5.116481443549095
 21
5.348325372476977
 31
0.0
  0
LINE
  5
34F
330
1E
100
AcDbEntity
  8
0
  6
Continuous
 62
     7
100
AcDbLine
 10
5.116481443549095
 20
5.486026758296977
 30
0.0
 11
5.116481443549095
 21
5.368325372476977
 31
0.0
  0
LWPOLYLINE
  5
350
330
1E
100
AcDbEntity
  8
0
  6
Continuous
 62
     7
100
AcDbPolyline
 90
        4
 70
     0
 43
0.0
 10
5.113356443549095
 20
5.279776758296977
 10
5.116481443549095
 20
5.261026758296977
 10
5.119606443549095
 20
5.279776758296977
 10
5.113356443549095
 20
5.279776758296977
  0
LWPOLYLINE
  5
351
330
1E
100
AcDbEntity
  8
0
  6
Continuous
 62
     7
100
AcDbPolyline
 90
        4
 70
     0
 43
0.0
 10
5.119606443549095
 20
5.467276758296977
 10
5.116481443549095
 20
5.486026758296977
 10
5.113356443549095
 20
5.467276758296977
 10
5.119606443549095
 20
5.467276758296977
  0
TEXT
  5
352
330
1E
100
AcDbEntity
  8
0
  6
Continuous
 62
     7
100
AcDbText
 10
5.349986882789095
 20
4.946913747836977
 30
0.0
 40
0.01
  1
.115
 41
1.371428571428572
 72
     5
 11
5.381986882789095
 21
4.946913747836977
 31
0.0
100
AcDbText
  0
TEXT
  5
353
330
1E
100
AcDbEntity
  8
0
  6
Continuous
 62
     7
100
AcDbText
 10
5.381986882789095
 20
4.946913747836977
 30
0.0
 40
0.01
  1
%%p.010
 41
1.309999999800002
 72
     5
 11
5.425653549449095
 21
4.946913747836977
 31
0.0
100
AcDbText
  0
LINE
  5
354
330
1E
100
AcDbEntity
  8
0
  6
Continuous
 62
     7
100
AcDbLine
 10
5.331708222129095
 20
5.071242347966977
 30
0.0
 11
5.331708222129095
 21
4.939413747836977
 31
0.0
  0
LINE
  5
355
330
1E
100
AcDbEntity
  8
0
  6
Continuous
 62
     7
100
AcDbLine
 10
5.446708222129095
 20
5.071242347966977
 30
0.0
 11
5.446708222129095
 21
4.939413747836977
 31
0.0
  0
LINE
  5
356
330
1E
100
AcDbEntity
  8
0
  6
Continuous
 62
     7
100
AcDbLine
 10
5.331708222129095
 20
4.951913747836977
 30
0.0
 11
5.281708222129095
 21
4.951913747836977
 31
0.0
  0
LINE
  5
357
330
1E
100
AcDbEntity
  8
0
  6
Continuous
 62
     7
100
AcDbLine
 10
5.446708222129095
 20
4.951913747836977
 30
0.0
 11
5.496708222129095
 21
4.951913747836977
 31
0.0
  0
LWPOLYLINE
  5
358
330
1E
100
AcDbEntity
  8
0
  6
Continuous
 62
     7
100
AcDbPolyline
 90
        4
 70
     0
 43
0.0
 10
5.312958222129095
 20
4.948788747836977
 10
5.331708222129095
 20
4.951913747836977
 10
5.312958222129095
 20
4.955038747836977
 10
5.312958222129095
 20
4.948788747836977
  0
LWPOLYLINE
  5
359
330
1E
100
AcDbEntity
  8
0
  6
Continuous
 62
     7
100
AcDbPolyline
 90
        4
 70
     0
 43
0.0
 10
5.465458222129095
 20
4.955038747836977
 10
5.446708222129095
 20
4.951913747836977
 10
5.465458222129095
 20
4.948788747836977
 10
5.465458222129095
 20
4.955038747836977
  0
TEXT
  5
35A
330
1E
100
AcDbEntity
  8
0
  6
Continuous
 62
     7
100
AcDbText
 10
5.300515944889095
 20
5.557521864046977
 30
0.0
 40
0.01
  1
.250
 41
1.129411764705883
 72
     5
 11
5.332515944889095
 21
5.557521864046977
 31
0.0
100
AcDbText
  0
TEXT
  5
35B
330
1E
100
AcDbEntity
  8
0
  6
Continuous
 62
     7
100
AcDbText
 10
5.332515944889095
 20
5.557521864046977
 30
0.0
 40
0.01
  1
%%p.015
 41
1.247619047714287
 72
     5
 11
5.376182611559095
 21
5.557521864046977
 31
0.0
100
AcDbText
  0
LINE
  5
35C
330
1E
100
AcDbEntity
  8
0
  6
Continuous
 62
     7
100
AcDbLine
 10
5.189208222129095
 20
5.367276758296977
 30
0.0
 11
5.189208222129095
 21
5.575021864046977
 31
0.0
  0
LINE
  5
35D
330
1E
100
AcDbEntity
  8
0
  6
Continuous
 62
     7
100
AcDbLine
 10
5.439208222129095
 20
5.367276758296977
 30
0.0
 11
5.439208222129095
 21
5.575021864046977
 31
0.0
  0
LINE
  5
35E
330
1E
100
AcDbEntity
  8
0
  6
Continuous
 62
     7
100
AcDbLine
 10
5.189208222129095
 20
5.562521864046977
 30
0.0
 11
5.295515944889095
 21
5.562521864046977
 31
0.0
  0
LINE
  5
35F
330
1E
100
AcDbEntity
  8
0
  6
Continuous
 62
     7
100
AcDbLine
 10
5.439208222129095
 20
5.562521864046977
 30
0.0
 11
5.381182611559095
 21
5.562521864046977
 31
0.0
  0
LWPOLYLINE
  5
360
330
1E
100
AcDbEntity
  8
0
  6
Continuous
 62
     7
100
AcDbPolyline
 90
        4
 70
     0
 43
0.0
 10
5.207958222129095
 20
5.565646864046977
 10
5.189208222129095
 20
5.562521864046977
 10
5.207958222129095
 20
5.559396864046977
 10
5.207958222129095
 20
5.565646864046977
  0
LWPOLYLINE
  5
361
330
1E
100
AcDbEntity
  8
0
  6
Continuous
 62
     7
100
AcDbPolyline
 90
        4
 70
     0
 43
0.0
 10
5.420458222129095
 20
5.559396864046977
 10
5.439208222129095
 20
5.562521864046977
 10
5.420458222129095
 20
5.565646864046977
 10
5.420458222129095
 20
5.559396864046977
  0
ENDSEC
  0
SECTION
  2
OBJECTS
  0
DICTIONARY
  5
C
330
0
100
AcDbDictionary
281
     1
  3
ACAD_GROUP
350
D
  3
ACAD_LAYOUT
350
19
  3
ACAD_MLINESTYLE
350
16
  3
ACAD_PLOTSETTINGS
350
18
  3
ACAD_PLOTSTYLENAME
350
E
  3
AcDbVariableDictionary
350
367
  3
ASE_INDEX_DICTIONARY
350
363
  0
DICTIONARY
  5
D
102
{ACAD_REACTORS
330
C
102
}
330
C
100
AcDbDictionary
281
     1
  0
DICTIONARY
  5
19
102
{ACAD_REACTORS
330
C
102
}
330
C
100
AcDbDictionary
281
     1
  3
Layout1
350
1D
  3
Model
350
21
  0
DICTIONARY
  5
16
102
{ACAD_REACTORS
330
C
102
}
330
C
100
AcDbDictionary
281
     1
  3
Standard
350
17
  0
DICTIONARY
  5
18
102
{ACAD_REACTORS
330
C
102
}
330
C
100
AcDbDictionary
281
     1
  0
ACDBDICTIONARYWDFLT
  5
E
102
{ACAD_REACTORS
330
C
102
}
330
C
100
AcDbDictionary
281
     1
  3
Normal
350
F
100
AcDbDictionaryWithDefault
340
F
  0
DICTIONARY
  5
367
102
{ACAD_REACTORS
330
C
102
}
330
C
100
AcDbDictionary
281
     1
  3
DIMASSOC
350
368
  0
DICTIONARY
  5
363
102
{ACAD_REACTORS
330
C
102
}
330
C
100
AcDbDictionary
281
     1
  3
ASEBlockHierarchyIndexRecord
350
365
1001
DCO15
1040
1526964931.578
  0
LAYOUT
  5
1D
102
{ACAD_REACTORS
330
19
102
}
330
19
100
AcDbPlotSettings
  1

  2
\\SSI\Engineering - Xerox DC220.SSI
  4

  6

 40
0.0
 41
0.0
 42
0.0
 43
0.0
 44
0.0
 45
0.0
 46
0.0
 47
0.0
 48
0.0
 49
0.0
140
0.0
141
0.0
142
1.0
143
1.0
 70
   688
 72
     0
 73
     0
 74
     5
  7

 75
    16
147
1.0
148
0.0
149
0.0
100
AcDbLayout
  1
Layout1
 70
     1
 71
     1
 10
0.0
 20
0.0
 11
12.0
 21
9.0
 12
0.0
 22
0.0
 32
0.0
 14
1.000000000000000E+20
 24
1.000000000000000E+20
 34
1.000000000000000E+20
 15
-1.000000000000000E+20
 25
-1.000000000000000E+20
 35
-1.000000000000000E+20
146
0.0
 13
0.0
 23
0.0
 33
0.0
 16
1.0
 26
0.0
 36
0.0
 17
0.0
 27
1.0
 37
0.0
 76
     0
330
1A
  0
LAYOUT
  5
21
102
{ACAD_REACTORS
330
19
102
}
330
19
100
AcDbPlotSettings
  1

  2
\\SSI\Engineering - Xerox DC220.SSI
  4

  6

 40
0.0
 41
0.0
 42
0.0
 43
0.0
 44
0.0
 45
0.0
 46
0.0
 47
0.0
 48
0.0
 49
0.0
140
0.0
141
0.0
142
1.0
143
1.0
 70
  1712
 72
     0
 73
     0
 74
     0
  7

 75
     0
147
1.0
148
0.0
149
0.0
100
AcDbLayout
  1
Model
 70
     1
 71
     0
 10
0.0
 20
0.0
 11
12.0
 21
9.0
 12
0.0
 22
0.0
 32
0.0
 14
0.0
 24
0.0
 34
0.0
 15
0.0
 25
0.0
 35
0.0
146
0.0
 13
0.0
 23
0.0
 33
0.0
 16
1.0
 26
0.0
 36
0.0
 17
0.0
 27
1.0
 37
0.0
 76
     0
330
1E
  0
MLINESTYLE
  5
17
102
{ACAD_REACTORS
330
16
102
}
330
16
100
AcDbMlineStyle
  2
STANDARD
 70
     0
  3

 62
   256
 51
90.0
 52
90.0
 71
     2
 49
0.5
 62
   256
  6
BYLAYER
 49
-0.5
 62
   256
  6
BYLAYER
  0
ACDBPLACEHOLDER
  5
F
102
{ACAD_REACTORS
330
E
102
}
330
E
  0
DICTIONARYVAR
  5
368
102
{ACAD_REACTORS
330
367
102
}
330
367
100
DictionaryVariables
280
     0
  1
1
  0
XRECORD
  5
365
102
{ACAD_REACTORS
330
363
102
}
330
363
100
AcDbXrecord
280
     1
  0
ENDSEC
  0
EOF
