  0
SECTION
  2
HEADER
  9
$ACADVER
  1
AC1009
  9
$INSBASE
 10
0.0
 20
0.0
 30
0.0
  9
$EXTMIN
 10
1.4738511875627309
 20
1.4574151192092319
 30
0.0
  9
$EXTMAX
 10
1.8560929348642601
 20
1.904415119209232
 30
0.0
  9
$LIMMIN
 10
0.0
 20
0.0
  9
$LIMMAX
 10
7.7000000000000002
 20
10.0
  9
$ORTHOMODE
 70
     0
  9
$REGENMODE
 70
     1
  9
$FILLMODE
 70
     1
  9
$QTEXTMODE
 70
     0
  9
$MIRRTEXT
 70
     1
  9
$DRAGMODE
 70
     2
  9
$LTSCALE
 40
0.6518518519
  9
$OSMODE
 70
    39
  9
$ATTMODE
 70
     1
  9
$TEXTSIZE
 40
0.2
  9
$TRACEWID
 40
0.05
  9
$TEXTSTYLE
  7
STANDARD
  9
$CLAYER
  8
0
  9
$CELTYPE
  6
BYLAYER
  9
$CECOLOR
 62
   256
  9
$DIMSCALE
 40
1.0
  9
$DIMASZ
 40
0.1875
  9
$DIMEXO
 40
0.0740740741
  9
$DIMDLI
 40
0.4503703704000001
  9
$DIMRND
 40
0.0
  9
$DIMDLE
 40
0.0
  9
$DIMEXE
 40
0.2133333333
  9
$DIMTP
 40
0.0
  9
$DIMTM
 40
0.0
  9
$DIMTXT
 40
0.1339285714
  9
$DIMCEN
 40
0.1066666667
  9
$DIMTSZ
 40
0.0
  9
$DIMTOL
 70
     0
  9
$DIMLIM
 70
     0
  9
$DIMTIH
 70
     1
  9
$DIMTOH
 70
     1
  9
$DIMSE1
 70
     0
  9
$DIMSE2
 70
     0
  9
$DIMTAD
 70
     0
  9
$DIMZIN
 70
     0
  9
$DIMBLK
  1

  9
$DIMASO
 70
     1
  9
$DIMSHO
 70
     1
  9
$DIMPOST
  1

  9
$DIMAPOST
  1

  9
$DIMALT
 70
     0
  9
$DIMALTD
 70
     2
  9
$DIMALTF
 40
25.399999999999999
  9
$DIMLFAC
 40
1.0
  9
$DIMTOFL
 70
     0
  9
$DIMTVP
 40
0.0
  9
$DIMTIX
 70
     0
  9
$DIMSOXD
 70
     0
  9
$DIMSAH
 70
     0
  9
$DIMBLK1
  1

  9
$DIMBLK2
  1

  9
$DIMSTYLE
  2
STANDARD
  9
$DIMCLRD
 70
     0
  9
$DIMCLRE
 70
     0
  9
$DIMCLRT
 70
     0
  9
$DIMTFAC
 40
1.0
  9
$DIMGAP
 40
0.09
  9
$LUNITS
 70
     2
  9
$LUPREC
 70
     4
  9
$SKETCHINC
 40
0.1
  9
$FILLETRAD
 40
0.0
  9
$AUNITS
 70
     0
  9
$AUPREC
 70
     0
  9
$MENU
  1
.
  9
$ELEVATION
 40
0.0
  9
$PELEVATION
 40
0.0
  9
$THICKNESS
 40
0.0
  9
$LIMCHECK
 70
     0
  9
$BLIPMODE
 70
     0
  9
$CHAMFERA
 40
0.0
  9
$CHAMFERB
 40
0.0
  9
$SKPOLY
 70
     0
  9
$TDCREATE
 40
2451948.5639168979
  9
$TDUPDATE
 40
2451982.5821199068
  9
$TDINDWG
 40
0.0225836806
  9
$TDUSRTIMER
 40
0.0225836806
  9
$USRTIMER
 70
     1
  9
$ANGBASE
 50
0.0
  9
$ANGDIR
 70
     0
  9
$PDMODE
 70
     0
  9
$PDSIZE
 40
0.0
  9
$PLINEWID
 40
0.0
  9
$COORDS
 70
     0
  9
$SPLFRAME
 70
     0
  9
$SPLINETYPE
 70
     6
  9
$SPLINESEGS
 70
     8
  9
$ATTDIA
 70
     0
  9
$ATTREQ
 70
     1
  9
$HANDLING
 70
  4097
  9
$HANDSEED
  5
A2
  9
$SURFTAB1
 70
     6
  9
$SURFTAB2
 70
     6
  9
$SURFTYPE
 70
     6
  9
$SURFU
 70
     6
  9
$SURFV
 70
     6
  9
$UCSNAME
  2

  9
$UCSORG
 10
0.0
 20
0.0
 30
0.0
  9
$UCSXDIR
 10
1.0
 20
0.0
 30
0.0
  9
$UCSYDIR
 10
0.0
 20
1.0
 30
0.0
  9
$PUCSNAME
  2

  9
$PUCSORG
 10
0.0
 20
0.0
 30
0.0
  9
$PUCSXDIR
 10
1.0
 20
0.0
 30
0.0
  9
$PUCSYDIR
 10
0.0
 20
1.0
 30
0.0
  9
$USERI1
 70
     0
  9
$USERI2
 70
     0
  9
$USERI3
 70
     0
  9
$USERI4
 70
     0
  9
$USERI5
 70
     0
  9
$USERR1
 40
0.0
  9
$USERR2
 40
0.0
  9
$USERR3
 40
0.0
  9
$USERR4
 40
0.0
  9
$USERR5
 40
0.0
  9
$WORLDVIEW
 70
     1
  9
$SHADEDGE
 70
     3
  9
$SHADEDIF
 70
    70
  9
$TILEMODE
 70
     1
  9
$MAXACTVP
 70
    48
  9
$PLIMCHECK
 70
     0
  9
$PEXTMIN
 10
1.0000000000000000E+020
 20
1.0000000000000000E+020
 30
1.0000000000000000E+020
  9
$PEXTMAX
 10
-1.0000000000000000E+020
 20
-1.0000000000000000E+020
 30
-1.0000000000000000E+020
  9
$PLIMMIN
 10
0.0
 20
0.0
  9
$PLIMMAX
 10
12.0
 20
9.0
  9
$UNITMODE
 70
     0
  9
$VISRETAIN
 70
     1
  9
$PLINEGEN
 70
     0
  9
$PSLTSCALE
 70
     1
  0
ENDSEC
  0
SECTION
  2
TABLES
  0
TABLE
  2
VPORT
 70
     2
  0
VPORT
  2
*ACTIVE
 70
     0
 10
0.0
 20
0.0
 11
1.0
 21
1.0
 12
1.799216729153184
 22
1.897062680977265
 13
0.0
 23
0.0
 14
1.0
 24
1.0
 15
0.0
 25
0.0
 16
0.0
 26
0.0
 36
1.0
 17
0.0
 27
0.0
 37
0.0
 40
2.022529234977565
 41
1.9220489977728279
 42
50.0
 43
0.0
 44
0.0
 50
0.0
 51
0.0
 71
     0
 72
   100
 73
     1
 74
     0
 75
     0
 76
     0
 77
     0
 78
     0
  0
ENDTAB
  0
TABLE
  2
LTYPE
 70
     1
  0
LTYPE
  2
CONTINUOUS
 70
     0
  3
Solid line
 72
    65
 73
     0
 40
0.0
  0
ENDTAB
  0
TABLE
  2
LAYER
 70
     1
  0
LAYER
  2
0
 70
     0
 62
     1
  6
CONTINUOUS
  0
ENDTAB
  0
TABLE
  2
STYLE
 70
     1
  0
STYLE
  2
STANDARD
 70
     0
 40
0.0
 41
1.0
 50
0.0
 71
     0
 42
0.2
  3
txt
  4

  0
ENDTAB
  0
TABLE
  2
VIEW
 70
     0
  0
ENDTAB
  0
TABLE
  2
UCS
 70
     0
  0
ENDTAB
  0
TABLE
  2
APPID
 70
     1
  0
APPID
  2
ACAD
 70
     0
  0
ENDTAB
  0
TABLE
  2
DIMSTYLE
 70
     1
  0
DIMSTYLE
  2
STANDARD
 70
     0
  3

  4

  5

  6

  7

 40
1.0
 41
0.18
 42
0.0625
 43
0.38
 44
0.18
 45
0.0
 46
0.0
 47
0.0
 48
0.0
140
0.18
141
0.09
142
0.0
143
25.399999999999999
144
1.0
145
0.0
146
1.0
147
0.09
 71
     0
 72
     0
 73
     1
 74
     1
 75
     0
 76
     0
 77
     0
 78
     0
170
     0
171
     2
172
     0
173
     0
174
     0
175
     0
176
     0
177
     0
178
     0
  0
ENDTAB
  0
ENDSEC
  0
SECTION
  2
BLOCKS
  0
BLOCK
  8
0
  2
$MODEL_SPACE
 70
     0
 10
0.0
 20
0.0
 30
0.0
  3
$MODEL_SPACE
  1

  0
ENDBLK
  5
9
  8
0
  0
BLOCK
 67
     1
  8
0
  2
$PAPER_SPACE
 70
     0
 10
0.0
 20
0.0
 30
0.0
  3
$PAPER_SPACE
  1

  0
ENDBLK
  5
E
 67
     1
  8
0
  0
ENDSEC
  0
SECTION
  2
ENTITIES
  0
ARC
  5
24
  8
0
 10
1.5508441975227309
 20
1.8694151192092321
 30
0.0
 40
0.035
 50
51.79999999999999
 51
236.6999999999999
  0
ARC
  5
25
  8
0
 10
1.5508441975227309
 20
1.8694151192092321
 30
0.0
 40
0.03
 50
51.79999999999999
 51
236.6999999999999
  0
LINE
  5
26
  8
0
 10
1.569396449382731
 20
1.8929908260092321
 30
0.0
 11
1.8323964493827309
 21
1.6860302338292319
 31
0.0
  0
LINE
  5
27
  8
0
 10
1.835488491362731
 20
1.6899595182892311
 30
0.0
 11
1.5724884913627311
 21
1.8969201104692319
 31
0.0
  0
ARC
  5
29
  8
0
 10
1.7338511875627309
 20
1.6294151192092321
 30
0.0
 40
0.025
 50
270.0
 51
0.0
  0
ARC
  5
2A
  8
0
 10
1.7338511875627309
 20
1.6294151192092321
 30
0.0
 40
0.03
 50
270.0
 51
0.0
  0
LINE
  5
2B
  8
0
 10
1.649058446982731
 20
1.5524151192092319
 30
0.0
 11
1.8138441975227311
 21
1.5524151192092319
 31
0.0
  0
LINE
  5
2C
  8
0
 10
1.8138441975227311
 20
1.557415119209232
 30
0.0
 11
1.646171695642731
 21
1.557415119209232
 31
0.0
  0
LINE
  5
2D
  8
0
 10
1.5316283988927311
 20
1.840161861559233
 30
0.0
 11
1.747576758012731
 21
1.6983103032492319
 31
0.0
  0
LINE
  5
2E
  8
0
 10
1.7503218721027309
 20
1.702489340049232
 30
0.0
 11
1.5343735129827309
 21
1.844340898369232
 31
0.0
  0
ARC
  5
2F
  8
0
 10
1.728851187562731
 20
1.4724151192092321
 30
0.0
 40
0.015
 50
270.0
 51
90.0
  0
ARC
  5
30
  8
0
 10
1.488851187562731
 20
1.4724151192092321
 30
0.0
 40
0.015
 50
90.0
 51
270.0
  0
LINE
  5
31
  8
0
 10
1.488851187562731
 20
1.4574151192092319
 30
0.0
 11
1.728851187562731
 21
1.4574151192092319
 31
0.0
  0
ARC
  5
32
  8
0
 10
1.6298511875627311
 20
1.5584151192092319
 30
0.0
 40
0.036
 50
90.0
 51
180.0
  0
ARC
  5
33
  8
0
 10
1.583851187562731
 20
1.497415119209232
 30
0.0
 40
0.01
 50
270.0
 51
0.0
  0
LINE
  5
34
  8
0
 10
1.5808511875627309
 20
1.5994151192092321
 30
0.0
 11
1.7338511875627309
 21
1.5994151192092321
 31
0.0
  0
LINE
  5
35
  8
0
 10
1.7338511875627309
 20
1.604415119209232
 30
0.0
 11
1.5808511875627309
 21
1.604415119209232
 31
0.0
  0
LINE
  5
36
  8
0
 10
1.583851187562731
 20
1.487415119209232
 30
0.0
 11
1.488851187562731
 21
1.487415119209232
 31
0.0
  0
LINE
  5
37
  8
0
 10
1.583851187562731
 20
1.4924151192092321
 30
0.0
 11
1.488851187562731
 21
1.4924151192092321
 31
0.0
  0
LINE
  5
38
  8
0
 10
1.488851187562731
 20
1.4924151192092321
 30
0.0
 11
1.488851187562731
 21
1.487415119209232
 31
0.0
  0
ARC
  5
39
  8
0
 10
1.5808511875627309
 20
1.594415119209232
 30
0.0
 40
0.005
 50
90.0
 51
180.0
  0
ARC
  5
3A
  8
0
 10
1.5808511875627309
 20
1.594415119209232
 30
0.0
 40
0.01
 50
90.0
 51
180.0
  0
LINE
  5
3B
  8
0
 10
1.5888511875627309
 20
1.5204151192092319
 30
0.0
 11
1.5888511875627309
 21
1.497415119209232
 31
0.0
  0
LINE
  5
3C
  8
0
 10
1.593851187562731
 20
1.5217548651692321
 30
0.0
 11
1.575851187562731
 21
1.5529317797092319
 31
0.0
  0
LINE
  5
3D
  8
0
 10
1.593851187562731
 20
1.5584151192092319
 30
0.0
 11
1.593851187562731
 21
1.497415119209232
 31
0.0
  0
LINE
  5
3E
  8
0
 10
1.5708511875627309
 20
1.5515920337492319
 30
0.0
 11
1.5888511875627309
 21
1.5204151192092319
 31
0.0
  0
LINE
  5
3F
  8
0
 10
1.5708511875627309
 20
1.594415119209232
 30
0.0
 11
1.5708511875627309
 21
1.5515920337492319
 31
0.0
  0
LINE
  5
40
  8
0
 10
1.575851187562731
 20
1.5529317797092319
 30
0.0
 11
1.575851187562731
 21
1.594415119209232
 31
0.0
  0
ARC
  5
41
  8
0
 10
1.583851187562731
 20
1.497415119209232
 30
0.0
 40
0.005
 50
270.0
 51
0.0
  0
LINE
  5
42
  8
0
 10
1.728851187562731
 20
1.487415119209232
 30
0.0
 11
1.6338511875627311
 21
1.487415119209232
 31
0.0
  0
LINE
  5
43
  8
0
 10
1.6298511875627311
 20
1.5644151192092319
 30
0.0
 11
1.728851187562731
 21
1.5644151192092319
 31
0.0
  0
LINE
  5
44
  8
0
 10
1.728851187562731
 20
1.594415119209232
 30
0.0
 11
1.6298511875627311
 21
1.594415119209232
 31
0.0
  0
ARC
  5
45
  8
0
 10
1.6298511875627311
 20
1.5584151192092319
 30
0.0
 40
0.006
 50
90.0
 51
180.0
  0
LINE
  5
46
  8
0
 10
1.628851187562731
 20
1.497415119209232
 30
0.0
 11
1.6238511875627311
 21
1.497415119209232
 31
0.0
  0
LINE
  5
47
  8
0
 10
1.628851187562731
 20
1.497415119209232
 30
0.0
 11
1.628851187562731
 21
1.517415119209232
 31
0.0
  0
LINE
  5
48
  8
0
 10
1.6238511875627311
 20
1.497415119209232
 30
0.0
 11
1.6238511875627311
 21
1.5584151192092319
 31
0.0
  0
LINE
  5
49
  8
0
 10
1.646171695642731
 20
1.557415119209232
 30
0.0
 11
1.6238511875627311
 21
1.518754865169232
 31
0.0
  0
LINE
  5
4A
  8
0
 10
1.628851187562731
 20
1.517415119209232
 30
0.0
 11
1.649058446982731
 21
1.5524151192092319
 31
0.0
  0
ARC
  5
4B
  8
0
 10
1.6338511875627311
 20
1.497415119209232
 30
0.0
 40
0.01
 50
180.0
 51
270.0
  0
ARC
  5
4C
  8
0
 10
1.728851187562731
 20
1.5794151192092321
 30
0.0
 40
0.015
 50
270.0
 51
90.0
  0
ARC
  5
4D
  8
0
 10
1.8138441975227311
 20
1.6624545270292319
 30
0.0
 40
0.035
 50
0.0
 51
51.79999999999999
  0
ARC
  5
4E
  8
0
 10
1.8138441975227311
 20
1.6624545270292319
 30
0.0
 40
0.03
 50
0.0
 51
51.79999999999999
  0
ARC
  5
4F
  8
0
 10
1.7338511875627309
 20
1.6774151192092319
 30
0.0
 40
0.025
 50
0.0
 51
56.699999999999989
  0
ARC
  5
50
  8
0
 10
1.7338511875627309
 20
1.6774151192092319
 30
0.0
 40
0.03
 50
0.0
 51
56.699999999999989
  0
ARC
  5
51
  8
0
 10
1.8138441975227311
 20
1.5874151192092321
 30
0.0
 40
0.035
 50
270.0
 51
0.0
  0
ARC
  5
52
  8
0
 10
1.8138441975227311
 20
1.5874151192092321
 30
0.0
 40
0.03
 50
270.0
 51
0.0
  0
LINE
  5
53
  8
0
 10
1.7588511875627311
 20
1.6774151192092319
 30
0.0
 11
1.7588511875627311
 21
1.6294151192092321
 31
0.0
  0
LINE
  5
54
  8
0
 10
1.763851187562731
 20
1.6294151192092321
 30
0.0
 11
1.763851187562731
 21
1.6774151192092319
 31
0.0
  0
LINE
  5
55
  8
0
 10
1.8438441975227311
 20
1.6624545270292319
 30
0.0
 11
1.8438441975227311
 21
1.5874151192092321
 31
0.0
  0
LINE
  5
56
  8
0
 10
1.848844197522731
 20
1.5874151192092321
 30
0.0
 11
1.848844197522731
 21
1.6624545270292319
 31
0.0
  0
ENDSEC
  0
EOF
