  0
SECTION
  2
HEADER
  9
$ACADVER
  1
AC1009
  9
$INSBASE
 10
0.0
 20
0.0
 30
0.0
  9
$EXTMIN
 10
3.8697458977217072
 20
1.0155304068556721
 30
0.0
  9
$EXTMAX
 10
4.2174946350632361
 20
1.3705304068556721
 30
0.0
  9
$LIMMIN
 10
0.0
 20
0.0
  9
$LIMMAX
 10
8.5
 20
11.0
  9
$ORTHOMODE
 70
     1
  9
$REGENMODE
 70
     1
  9
$FILLMODE
 70
     1
  9
$QTEXTMODE
 70
     0
  9
$MIRRTEXT
 70
     1
  9
$DRAGMODE
 70
     2
  9
$LTSCALE
 40
0.7170370000000002
  9
$OSMODE
 70
    39
  9
$ATTMODE
 70
     1
  9
$TEXTSIZE
 40
0.2
  9
$TRACEWID
 40
0.05
  9
$TEXTSTYLE
  7
STANDARD
  9
$CLAYER
  8
0
  9
$CELTYPE
  6
BYLAYER
  9
$CECOLOR
 62
   256
  9
$DIMSCALE
 40
1.0
  9
$DIMASZ
 40
0.188
  9
$DIMEXO
 40
0.2
  9
$DIMDLI
 40
0.4950000000000001
  9
$DIMRND
 40
0.0
  9
$DIMDLE
 40
0.0
  9
$DIMEXE
 40
0.235
  9
$DIMTP
 40
0.0
  9
$DIMTM
 40
0.0
  9
$DIMTXT
 40
0.1
  9
$DIMCEN
 40
0.117
  9
$DIMTSZ
 40
0.0
  9
$DIMTOL
 70
     0
  9
$DIMLIM
 70
     0
  9
$DIMTIH
 70
     1
  9
$DIMTOH
 70
     1
  9
$DIMSE1
 70
     0
  9
$DIMSE2
 70
     0
  9
$DIMTAD
 70
     0
  9
$DIMZIN
 70
     0
  9
$DIMBLK
  1

  9
$DIMASO
 70
     1
  9
$DIMSHO
 70
     1
  9
$DIMPOST
  1

  9
$DIMAPOST
  1

  9
$DIMALT
 70
     1
  9
$DIMALTD
 70
     1
  9
$DIMALTF
 40
25.399999999999999
  9
$DIMLFAC
 40
0.1
  9
$DIMTOFL
 70
     0
  9
$DIMTVP
 40
0.0
  9
$DIMTIX
 70
     0
  9
$DIMSOXD
 70
     0
  9
$DIMSAH
 70
     0
  9
$DIMBLK1
  1

  9
$DIMBLK2
  1

  9
$DIMSTYLE
  2
STANDARD
  9
$DIMCLRD
 70
     0
  9
$DIMCLRE
 70
     0
  9
$DIMCLRT
 70
     0
  9
$DIMTFAC
 40
1.4699999999999991
  9
$DIMGAP
 40
0.09
  9
$LUNITS
 70
     2
  9
$LUPREC
 70
     3
  9
$SKETCHINC
 40
0.1
  9
$FILLETRAD
 40
0.0
  9
$AUNITS
 70
     0
  9
$AUPREC
 70
     0
  9
$MENU
  1
acad
  9
$ELEVATION
 40
0.0
  9
$PELEVATION
 40
0.0
  9
$THICKNESS
 40
0.0
  9
$LIMCHECK
 70
     0
  9
$BLIPMODE
 70
     0
  9
$CHAMFERA
 40
0.0
  9
$CHAMFERB
 40
0.0
  9
$SKPOLY
 70
     0
  9
$TDCREATE
 40
2450129.366611111
  9
$TDUPDATE
 40
2451982.5824085642
  9
$TDINDWG
 40
0.0108001157
  9
$TDUSRTIMER
 40
0.0108001157
  9
$USRTIMER
 70
     1
  9
$ANGBASE
 50
0.0
  9
$ANGDIR
 70
     0
  9
$PDMODE
 70
     0
  9
$PDSIZE
 40
0.0
  9
$PLINEWID
 40
0.0
  9
$COORDS
 70
     0
  9
$SPLFRAME
 70
     0
  9
$SPLINETYPE
 70
     6
  9
$SPLINESEGS
 70
     8
  9
$ATTDIA
 70
     0
  9
$ATTREQ
 70
     1
  9
$HANDLING
 70
  4097
  9
$HANDSEED
  5
AB
  9
$SURFTAB1
 70
     6
  9
$SURFTAB2
 70
     6
  9
$SURFTYPE
 70
     6
  9
$SURFU
 70
     6
  9
$SURFV
 70
     6
  9
$UCSNAME
  2

  9
$UCSORG
 10
0.0
 20
0.0
 30
0.0
  9
$UCSXDIR
 10
1.0
 20
0.0
 30
0.0
  9
$UCSYDIR
 10
0.0
 20
1.0
 30
0.0
  9
$PUCSNAME
  2

  9
$PUCSORG
 10
0.0
 20
0.0
 30
0.0
  9
$PUCSXDIR
 10
1.0
 20
0.0
 30
0.0
  9
$PUCSYDIR
 10
0.0
 20
1.0
 30
0.0
  9
$USERI1
 70
     0
  9
$USERI2
 70
     0
  9
$USERI3
 70
     0
  9
$USERI4
 70
     0
  9
$USERI5
 70
     0
  9
$USERR1
 40
0.0
  9
$USERR2
 40
0.0
  9
$USERR3
 40
0.0
  9
$USERR4
 40
0.0
  9
$USERR5
 40
0.0
  9
$WORLDVIEW
 70
     1
  9
$SHADEDGE
 70
     3
  9
$SHADEDIF
 70
    70
  9
$TILEMODE
 70
     1
  9
$MAXACTVP
 70
    16
  9
$PLIMCHECK
 70
     0
  9
$PEXTMIN
 10
1.0000000000000000E+020
 20
1.0000000000000000E+020
 30
1.0000000000000000E+020
  9
$PEXTMAX
 10
-1.0000000000000000E+020
 20
-1.0000000000000000E+020
 30
-1.0000000000000000E+020
  9
$PLIMMIN
 10
0.0
 20
0.0
  9
$PLIMMAX
 10
12.0
 20
9.0
  9
$UNITMODE
 70
     0
  9
$VISRETAIN
 70
     0
  9
$PLINEGEN
 70
     0
  9
$PSLTSCALE
 70
     1
  0
ENDSEC
  0
SECTION
  2
TABLES
  0
TABLE
  2
VPORT
 70
     2
  0
VPORT
  2
*ACTIVE
 70
     0
 10
0.0
 20
0.0
 11
1.0
 21
1.0
 12
4.2034344031681838
 22
1.191621463031824
 13
0.0
 23
0.0
 14
1.0
 24
1.0
 15
0.0
 25
0.0
 16
0.0
 26
0.0
 36
1.0
 17
0.0
 27
0.0
 37
0.0
 40
1.9472214724222741
 41
1.8397565922920891
 42
50.0
 43
0.0
 44
0.0
 50
0.0
 51
0.0
 71
     0
 72
   100
 73
     1
 74
     0
 75
     0
 76
     0
 77
     0
 78
     0
  0
ENDTAB
  0
TABLE
  2
LTYPE
 70
     2
  0
LTYPE
  2
CONTINUOUS
 70
     0
  3
Solid line
 72
    65
 73
     0
 40
0.0
  0
LTYPE
  2
HIDDEN2
 70
     0
  3
_ _ _ _ _ _ _ _ _ _ _ _ _ _ _ _ _ _ _ _ _ _ _ _
 72
    65
 73
     2
 40
0.1875
 49
0.125
 49
-0.0625
  0
ENDTAB
  0
TABLE
  2
LAYER
 70
     1
  0
LAYER
  2
0
 70
     0
 62
     1
  6
CONTINUOUS
  0
ENDTAB
  0
TABLE
  2
STYLE
 70
     1
  0
STYLE
  2
STANDARD
 70
     0
 40
0.0
 41
1.0
 50
0.0
 71
     0
 42
0.2
  3
txt
  4

  0
ENDTAB
  0
TABLE
  2
VIEW
 70
     0
  0
ENDTAB
  0
TABLE
  2
UCS
 70
     0
  0
ENDTAB
  0
TABLE
  2
APPID
 70
     1
  0
APPID
  2
ACAD
 70
     0
  0
ENDTAB
  0
TABLE
  2
DIMSTYLE
 70
     1
  0
DIMSTYLE
  2
STANDARD
 70
     0
  3

  4

  5

  6

  7

 40
1.0
 41
0.18
 42
0.0625
 43
0.38
 44
0.18
 45
0.0
 46
0.0
 47
0.0
 48
0.0
140
0.18
141
0.09
142
0.0
143
25.399999999999999
144
1.0
145
0.0
146
1.0
147
0.09
 71
     0
 72
     0
 73
     1
 74
     1
 75
     0
 76
     0
 77
     0
 78
     0
170
     0
171
     2
172
     0
173
     0
174
     0
175
     0
176
     0
177
     0
178
     0
  0
ENDTAB
  0
ENDSEC
  0
SECTION
  2
BLOCKS
  0
BLOCK
  8
0
  2
$MODEL_SPACE
 70
     0
 10
0.0
 20
0.0
 30
0.0
  3
$MODEL_SPACE
  1

  0
ENDBLK
  5
9
  8
0
  0
BLOCK
 67
     1
  8
0
  2
$PAPER_SPACE
 70
     0
 10
0.0
 20
0.0
 30
0.0
  3
$PAPER_SPACE
  1

  0
ENDBLK
  5
E
 67
     1
  8
0
  0
ENDSEC
  0
SECTION
  2
ENTITIES
  0
LINE
  5
28
  8
0
 10
3.8984738977217068
 20
1.303353406855672
 30
0.0
 11
4.1481148977217073
 21
1.196502406855672
 31
0.0
  0
LINE
  5
2A
  8
0
 10
3.9004408977217069
 20
1.307950406855672
 30
0.0
 11
4.150082897721707
 21
1.201098406855672
 31
0.0
  0
ARC
  5
2B
  8
0
 10
4.1752458977217071
 20
1.2005304068556719
 30
0.0
 40
0.035
 50
0.0
 51
62.828207999999989
  0
ARC
  5
2C
  8
0
 10
4.1752458977217071
 20
1.2005304068556719
 30
0.0
 40
0.03
 50
0.0
 51
62.828207999999989
  0
ARC
  5
2D
  8
0
 10
4.1402458977217069
 20
1.1781154068556721
 30
0.0
 40
0.025
 50
0.0
 51
66.828208000000004
  0
LINE
  5
2E
  8
0
 10
3.8822458977217069
 20
1.0155304068556721
 30
0.0
 11
4.047245897721707
 21
1.0155304068556721
 31
0.0
  0
LINE
  5
2F
  8
0
 10
3.9472458977217069
 20
1.040530406855672
 30
0.0
 11
3.8822458977217069
 21
1.040530406855672
 31
0.0
  0
LINE
  5
30
  8
0
 10
3.9472458977217069
 20
1.0455304068556719
 30
0.0
 11
3.8934958977217069
 21
1.0455304068556719
 31
0.0
  0
LINE
  5
31
  8
0
 10
3.8934958977217069
 20
1.040530406855672
 30
0.0
 11
3.8934958977217069
 21
1.0455304068556719
 31
0.0
  0
ARC
  5
32
  8
0
 10
3.8822458977217069
 20
1.028030406855672
 30
0.0
 40
0.0125
 50
90.0
 51
270.0
  0
LINE
  5
33
  8
0
 10
3.9978338977217072
 20
1.100530406855672
 30
0.0
 11
4.1752458977217071
 21
1.100530406855672
 31
0.0
  0
LINE
  5
34
  8
0
 10
3.9978338977217072
 20
1.1055304068556719
 30
0.0
 11
4.1752458977217071
 21
1.1055304068556719
 31
0.0
  0
LINE
  5
35
  8
0
 10
4.1402458977217069
 20
1.1485304068556721
 30
0.0
 11
3.9522458977217072
 21
1.1485304068556721
 31
0.0
  0
LINE
  5
36
  8
0
 10
4.1402458977217069
 20
1.153530406855672
 30
0.0
 11
3.9522458977217072
 21
1.153530406855672
 31
0.0
  0
LINE
  5
37
  8
0
 10
4.047245897721707
 20
1.040530406855672
 30
0.0
 11
3.982245897721707
 21
1.040530406855672
 31
0.0
  0
LINE
  5
38
  8
0
 10
4.0359958977217074
 20
1.0455304068556719
 30
0.0
 11
3.982245897721707
 21
1.0455304068556719
 31
0.0
  0
LINE
  5
39
  8
0
 10
4.0522458977217068
 20
1.117030406855672
 30
0.0
 11
3.9857458977217068
 21
1.117030406855672
 31
0.0
  0
LINE
  5
3A
  8
0
 10
4.0522458977217068
 20
1.1320304068556719
 30
0.0
 11
3.9857458977217068
 21
1.1320304068556719
 31
0.0
  0
LINE
  5
3B
  8
0
 10
3.9392548977217068
 20
1.092369406855672
 30
0.0
 11
3.9515758977217068
 21
1.071030406855672
 31
0.0
  0
LINE
  5
3C
  8
0
 10
3.9435848977217072
 20
1.0948694068556719
 30
0.0
 11
3.9559058977217072
 21
1.0735304068556719
 31
0.0
  0
LINE
  5
3D
  8
0
 10
3.9372458977217071
 20
1.1385304068556721
 30
0.0
 11
3.9372458977217071
 21
1.099869406855672
 31
0.0
  0
LINE
  5
3E
  8
0
 10
3.942245897721707
 20
1.1385304068556721
 30
0.0
 11
3.942245897721707
 21
1.099869406855672
 31
0.0
  0
LINE
  5
3F
  8
0
 10
3.9522458977217072
 20
1.068530406855672
 30
0.0
 11
3.9522458977217072
 21
1.050530406855672
 31
0.0
  0
LINE
  5
40
  8
0
 10
3.9572458977217071
 20
1.1035304068556719
 30
0.0
 11
3.9572458977217071
 21
1.050530406855672
 31
0.0
  0
LINE
  5
41
  8
0
 10
3.9722458977217072
 20
1.050530406855672
 30
0.0
 11
3.9722458977217072
 21
1.1035304068556719
 31
0.0
  0
LINE
  5
42
  8
0
 10
3.9772458977217071
 20
1.050530406855672
 30
0.0
 11
3.9772458977217071
 21
1.068530406855672
 31
0.0
  0
LINE
  5
43
  8
0
 10
3.973584897721707
 20
1.0735304068556719
 30
0.0
 11
3.9891738977217068
 21
1.100530406855672
 31
0.0
  0
LINE
  5
44
  8
0
 10
3.9779158977217071
 20
1.071030406855672
 30
0.0
 11
3.9935038977217072
 21
1.0980304068556721
 31
0.0
  0
ARC
  5
45
  8
0
 10
3.9857458977217068
 20
1.1035304068556719
 30
0.0
 40
0.0135
 50
90.0
 51
180.0
  0
ARC
  5
46
  8
0
 10
3.9857458977217068
 20
1.1035304068556719
 30
0.0
 40
0.0285
 50
90.0
 51
180.0
  0
ARC
  5
47
  8
0
 10
3.9472458977217069
 20
1.050530406855672
 30
0.0
 40
0.005
 50
270.0
 51
0.0
  0
ARC
  5
48
  8
0
 10
3.9472458977217069
 20
1.068530406855672
 30
0.0
 40
0.005
 50
0.0
 51
30.00000000000005
  0
ARC
  5
49
  8
0
 10
3.9522458977217072
 20
1.099869406855672
 30
0.0
 40
0.015
 50
180.0
 51
209.99999999999989
  0
ARC
  5
4A
  8
0
 10
3.9522458977217072
 20
1.1385304068556721
 30
0.0
 40
0.015
 50
90.0
 51
180.0
  0
ARC
  5
4B
  8
0
 10
3.9978338977217072
 20
1.0955304068556719
 30
0.0
 40
0.005
 50
90.0
 51
150.0
  0
ARC
  5
4C
  8
0
 10
3.982245897721707
 20
1.068530406855672
 30
0.0
 40
0.005
 50
150.0
 51
180.0
  0
ARC
  5
4D
  8
0
 10
3.982245897721707
 20
1.050530406855672
 30
0.0
 40
0.005
 50
180.0
 51
270.0
  0
ARC
  5
4E
  8
0
 10
3.9472458977217069
 20
1.050530406855672
 30
0.0
 40
0.01
 50
270.0
 51
0.0
  0
ARC
  5
4F
  8
0
 10
3.9472458977217069
 20
1.068530406855672
 30
0.0
 40
0.01
 50
0.0
 51
30.00000000000005
  0
ARC
  5
50
  8
0
 10
3.982245897721707
 20
1.050530406855672
 30
0.0
 40
0.01
 50
180.0
 51
270.0
  0
ARC
  5
51
  8
0
 10
3.982245897721707
 20
1.068530406855672
 30
0.0
 40
0.01
 50
150.0
 51
180.0
  0
ARC
  5
52
  8
0
 10
3.9978338977217072
 20
1.0955304068556719
 30
0.0
 40
0.01
 50
90.0
 51
150.0
  0
ARC
  5
53
  8
0
 10
3.9522458977217072
 20
1.1385304068556721
 30
0.0
 40
0.01
 50
90.0
 51
180.0
  0
ARC
  5
54
  8
0
 10
3.9522458977217072
 20
1.099869406855672
 30
0.0
 40
0.01
 50
180.0
 51
209.99999999999989
  0
LINE
  5
55
  8
0
 10
4.0359958977217074
 20
1.040530406855672
 30
0.0
 11
4.0359958977217074
 21
1.0455304068556719
 31
0.0
  0
ARC
  5
56
  8
0
 10
4.047245897721707
 20
1.028030406855672
 30
0.0
 40
0.0125
 50
270.0
 51
90.0
  0
ARC
  5
57
  8
0
 10
4.0522458977217068
 20
1.1245304068556721
 30
0.0
 40
0.0075
 50
270.0
 51
90.0
  0
ARC
  5
58
  8
0
 10
4.1402458977217069
 20
1.173530406855672
 30
0.0
 40
0.025
 50
270.0
 51
0.0
  0
LINE
  5
59
  8
0
 10
4.1602458977217074
 20
1.1781154068556721
 30
0.0
 11
4.1602458977217074
 21
1.173530406855672
 31
0.0
  0
LINE
  5
5A
  8
0
 10
4.1652458977217073
 20
1.1781154068556721
 30
0.0
 11
4.1652458977217073
 21
1.173530406855672
 31
0.0
  0
ARC
  5
5B
  8
0
 10
4.1402458977217069
 20
1.173530406855672
 30
0.0
 40
0.02
 50
270.0
 51
0.0
  0
ARC
  5
5C
  8
0
 10
4.1402458977217069
 20
1.1781154068556721
 30
0.0
 40
0.02
 50
0.0
 51
66.828207999999989
  0
LINE
  5
5D
  8
0
 10
4.2052458977217082
 20
1.135530406855672
 30
0.0
 11
4.2052458977217082
 21
1.2005304068556719
 31
0.0
  0
LINE
  5
5E
  8
0
 10
4.2102458977217072
 20
1.135530406855672
 30
0.0
 11
4.2102458977217072
 21
1.2005304068556719
 31
0.0
  0
ARC
  5
5F
  8
0
 10
4.1752458977217071
 20
1.135530406855672
 30
0.0
 40
0.035
 50
270.0
 51
0.0
  0
ARC
  5
60
  8
0
 10
4.1752458977217071
 20
1.135530406855672
 30
0.0
 40
0.03
 50
270.0
 51
0.0
  0
ARC
  5
61
  8
0
 10
3.9122458977217072
 20
1.3355304068556719
 30
0.0
 40
0.035
 50
62.828207999999989
 51
246.8282079999999
  0
ARC
  5
62
  8
0
 10
3.9122458977217072
 20
1.3355304068556719
 30
0.0
 40
0.03
 50
62.828207999999989
 51
246.8282079999999
  0
LINE
  5
63
  8
0
 10
4.188944897721707
 20
1.2272194068556721
 30
0.0
 11
3.9259448977217071
 21
1.3622194068556721
 31
0.0
  0
LINE
  5
64
  8
0
 10
4.1912288977217074
 20
1.2316674068556721
 30
0.0
 11
3.928228897721707
 21
1.3666674068556719
 31
0.0
  0
ENDSEC
  0
EOF
