  0
SECTION
  2
HEADER
  9
$ACADVER
  1
AC1009
  9
$INSBASE
 10
0.0
 20
0.0
 30
0.0
  9
$EXTMIN
 10
7.995788758266829
 20
4.9641295076577707
 30
0.0
  9
$EXTMAX
 10
8.6258663614977937
 20
6.1592163615807722
 30
0.0
  9
$LIMMIN
 10
0.0
 20
0.0
  9
$LIMMAX
 10
12.0
 20
9.0
  9
$ORTHOMODE
 70
     0
  9
$REGENMODE
 70
     1
  9
$FILLMODE
 70
     1
  9
$QTEXTMODE
 70
     0
  9
$MIRRTEXT
 70
     1
  9
$DRAGMODE
 70
     2
  9
$LTSCALE
 40
1.0
  9
$OSMODE
 70
    39
  9
$ATTMODE
 70
     1
  9
$TEXTSIZE
 40
0.2
  9
$TRACEWID
 40
0.05
  9
$TEXTSTYLE
  7
STANDARD
  9
$CLAYER
  8
0
  9
$CELTYPE
  6
BYLAYER
  9
$CECOLOR
 62
   256
  9
$DIMSCALE
 40
1.0
  9
$DIMASZ
 40
0.18
  9
$DIMEXO
 40
0.0625
  9
$DIMDLI
 40
0.38
  9
$DIMRND
 40
0.0
  9
$DIMDLE
 40
0.0
  9
$DIMEXE
 40
0.18
  9
$DIMTP
 40
0.0
  9
$DIMTM
 40
0.0
  9
$DIMTXT
 40
0.18
  9
$DIMCEN
 40
0.09
  9
$DIMTSZ
 40
0.0
  9
$DIMTOL
 70
     0
  9
$DIMLIM
 70
     0
  9
$DIMTIH
 70
     1
  9
$DIMTOH
 70
     1
  9
$DIMSE1
 70
     0
  9
$DIMSE2
 70
     0
  9
$DIMTAD
 70
     0
  9
$DIMZIN
 70
     0
  9
$DIMBLK
  1

  9
$DIMASO
 70
     1
  9
$DIMSHO
 70
     1
  9
$DIMPOST
  1

  9
$DIMAPOST
  1

  9
$DIMALT
 70
     0
  9
$DIMALTD
 70
     2
  9
$DIMALTF
 40
25.399999999999999
  9
$DIMLFAC
 40
1.0
  9
$DIMTOFL
 70
     0
  9
$DIMTVP
 40
0.0
  9
$DIMTIX
 70
     0
  9
$DIMSOXD
 70
     0
  9
$DIMSAH
 70
     0
  9
$DIMBLK1
  1

  9
$DIMBLK2
  1

  9
$DIMSTYLE
  2
STANDARD
  9
$DIMCLRD
 70
     0
  9
$DIMCLRE
 70
     0
  9
$DIMCLRT
 70
     0
  9
$DIMTFAC
 40
1.0
  9
$DIMGAP
 40
0.09
  9
$LUNITS
 70
     2
  9
$LUPREC
 70
     4
  9
$SKETCHINC
 40
0.1
  9
$FILLETRAD
 40
0.5
  9
$AUNITS
 70
     0
  9
$AUPREC
 70
     0
  9
$MENU
  1
.
  9
$ELEVATION
 40
0.0
  9
$PELEVATION
 40
0.0
  9
$THICKNESS
 40
0.0
  9
$LIMCHECK
 70
     0
  9
$BLIPMODE
 70
     0
  9
$CHAMFERA
 40
0.5
  9
$CHAMFERB
 40
0.5
  9
$SKPOLY
 70
     0
  9
$TDCREATE
 40
2451969.4014964122
  9
$TDUPDATE
 40
2451982.5741951391
  9
$TDINDWG
 40
0.0556498843
  9
$TDUSRTIMER
 40
0.0556498843
  9
$USRTIMER
 70
     1
  9
$ANGBASE
 50
0.0
  9
$ANGDIR
 70
     0
  9
$PDMODE
 70
     0
  9
$PDSIZE
 40
0.0
  9
$PLINEWID
 40
0.0
  9
$COORDS
 70
     0
  9
$SPLFRAME
 70
     0
  9
$SPLINETYPE
 70
     6
  9
$SPLINESEGS
 70
     8
  9
$ATTDIA
 70
     0
  9
$ATTREQ
 70
     1
  9
$HANDLING
 70
  4097
  9
$HANDSEED
  5
C77
  9
$SURFTAB1
 70
     6
  9
$SURFTAB2
 70
     6
  9
$SURFTYPE
 70
     6
  9
$SURFU
 70
     6
  9
$SURFV
 70
     6
  9
$UCSNAME
  2

  9
$UCSORG
 10
0.0
 20
0.0
 30
0.0
  9
$UCSXDIR
 10
1.0
 20
0.0
 30
0.0
  9
$UCSYDIR
 10
0.0
 20
1.0
 30
0.0
  9
$PUCSNAME
  2

  9
$PUCSORG
 10
0.0
 20
0.0
 30
0.0
  9
$PUCSXDIR
 10
1.0
 20
0.0
 30
0.0
  9
$PUCSYDIR
 10
0.0
 20
1.0
 30
0.0
  9
$USERI1
 70
     0
  9
$USERI2
 70
     0
  9
$USERI3
 70
     0
  9
$USERI4
 70
     0
  9
$USERI5
 70
     0
  9
$USERR1
 40
0.0
  9
$USERR2
 40
0.0
  9
$USERR3
 40
0.0
  9
$USERR4
 40
0.0
  9
$USERR5
 40
0.0
  9
$WORLDVIEW
 70
     1
  9
$SHADEDGE
 70
     3
  9
$SHADEDIF
 70
    70
  9
$TILEMODE
 70
     1
  9
$MAXACTVP
 70
    48
  9
$PLIMCHECK
 70
     0
  9
$PEXTMIN
 10
1.0000000000000000E+020
 20
1.0000000000000000E+020
 30
1.0000000000000000E+020
  9
$PEXTMAX
 10
-1.0000000000000000E+020
 20
-1.0000000000000000E+020
 30
-1.0000000000000000E+020
  9
$PLIMMIN
 10
0.0
 20
0.0
  9
$PLIMMAX
 10
12.0
 20
9.0
  9
$UNITMODE
 70
     0
  9
$VISRETAIN
 70
     1
  9
$PLINEGEN
 70
     0
  9
$PSLTSCALE
 70
     1
  0
ENDSEC
  0
SECTION
  2
TABLES
  0
TABLE
  2
VPORT
 70
     2
  0
VPORT
  2
*ACTIVE
 70
     0
 10
0.0
 20
0.0
 11
1.0
 21
1.0
 12
8.7079986846279418
 22
5.73544905129084
 13
0.0
 23
0.0
 14
0.5
 24
0.5
 15
0.5
 25
0.5
 16
0.0
 26
0.0
 36
1.0
 17
0.0
 27
0.0
 37
0.0
 40
1.8202762911366299
 41
2.1468144044321331
 42
50.0
 43
0.0
 44
0.0
 50
0.0
 51
0.0
 71
     0
 72
   100
 73
     1
 74
     2
 75
     0
 76
     0
 77
     0
 78
     0
  0
ENDTAB
  0
TABLE
  2
LTYPE
 70
     1
  0
LTYPE
  2
CONTINUOUS
 70
     0
  3
Solid line
 72
    65
 73
     0
 40
0.0
  0
ENDTAB
  0
TABLE
  2
LAYER
 70
     1
  0
LAYER
  2
0
 70
     0
 62
     1
  6
CONTINUOUS
  0
ENDTAB
  0
TABLE
  2
STYLE
 70
     1
  0
STYLE
  2
STANDARD
 70
     0
 40
0.0
 41
1.0
 50
0.0
 71
     0
 42
0.2
  3
txt
  4

  0
ENDTAB
  0
TABLE
  2
VIEW
 70
     0
  0
ENDTAB
  0
TABLE
  2
UCS
 70
     0
  0
ENDTAB
  0
TABLE
  2
APPID
 70
     1
  0
APPID
  2
ACAD
 70
     0
  0
ENDTAB
  0
TABLE
  2
DIMSTYLE
 70
     1
  0
DIMSTYLE
  2
STANDARD
 70
     0
  3

  4

  5

  6

  7

 40
1.0
 41
0.18
 42
0.0625
 43
0.38
 44
0.18
 45
0.0
 46
0.0
 47
0.0
 48
0.0
140
0.18
141
0.09
142
0.0
143
25.399999999999999
144
1.0
145
0.0
146
1.0
147
0.09
 71
     0
 72
     0
 73
     1
 74
     1
 75
     0
 76
     0
 77
     0
 78
     0
170
     0
171
     2
172
     0
173
     0
174
     0
175
     0
176
     0
177
     0
178
     0
  0
ENDTAB
  0
ENDSEC
  0
SECTION
  2
BLOCKS
  0
BLOCK
  8
0
  2
$MODEL_SPACE
 70
     0
 10
0.0
 20
0.0
 30
0.0
  3
$MODEL_SPACE
  1

  0
ENDBLK
  5
9
  8
0
  0
BLOCK
 67
     1
  8
0
  2
$PAPER_SPACE
 70
     0
 10
0.0
 20
0.0
 30
0.0
  3
$PAPER_SPACE
  1

  0
ENDBLK
  5
E
 67
     1
  8
0
  0
ENDSEC
  0
SECTION
  2
ENTITIES
  0
ARC
  5
25
  8
0
 10
8.2288344909925648
 20
5.4987949287577713
 30
0.0
 40
0.195
 50
186.99999999999989
 51
273.0
1001
ACAD
1000
ASC_BOUNDS
1002
{
1070
    19
1005
24
1002
}
  0
ARC
  5
26
  8
0
 10
8.2288344909925648
 20
5.4987949287577713
 30
0.0
 40
0.2
 50
186.99999999999989
 51
273.0
  0
LINE
  5
27
  8
0
 10
8.0850282805925673
 20
5.7776154291577688
 30
0.0
 11
8.3260418851925664
 21
6.0874742397577712
 31
0.0
1001
ACAD
1000
ASC_BOUNDS
1002
{
1070
    19
1005
24
1002
}
  0
LINE
  5
28
  8
0
 10
8.3220952000925656
 20
6.0905440405577691
 30
0.0
 11
8.0810815953925665
 21
5.7806852298577702
 31
0.0
  0
ARC
  5
29
  8
0
 10
8.2597675210925665
 20
5.5641295076577713
 30
0.0
 40
0.105
 50
142.12359839920001
 51
270.0
1001
ACAD
1000
ASC_BOUNDS
1002
{
1070
    19
1005
24
1002
}
  0
ARC
  5
2A
  8
0
 10
8.2597675210925665
 20
5.5641295076577713
 30
0.0
 40
0.1
 50
142.12359839920001
 51
270.0
  0
LINE
  5
2B
  8
0
 10
8.5727675210925671
 20
5.0191295076577713
 30
0.0
 11
8.5727675210925671
 21
5.2762838485577701
 31
0.0
  0
LINE
  5
2C
  8
0
 10
8.5427901927109957
 20
5.264442863571964
 30
0.0
 11
8.5427901927109957
 21
4.9905130735973531
 31
0.0
  0
LINE
  5
2D
  8
0
 10
8.5777675210925661
 20
5.1141295076577711
 30
0.0
 11
8.5777675210925661
 21
5.2751295076577707
 31
0.0
  0
LINE
  5
2E
  8
0
 10
8.5377675210925652
 20
5.2641295076577697
 30
0.0
 11
8.5377675210925652
 21
5.1141295076577711
 31
0.0
  0
LINE
  5
2F
  8
0
 10
8.4550052994925657
 20
5.0310723439577698
 30
0.0
 11
8.5427675210925678
 21
4.9991295076577691
 31
0.0
  0
LINE
  5
30
  8
0
 10
8.5427675210925678
 20
5.0225414186577702
 30
0.0
 11
8.4625297426925652
 21
5.0517455816577712
 31
0.0
  0
LINE
  5
31
  8
0
 10
8.4550052994925657
 20
5.1160723439577707
 30
0.0
 11
8.5427675210925678
 21
5.0841295076577699
 31
0.0
  0
LINE
  5
32
  8
0
 10
8.5427675210925678
 20
5.107541418657771
 30
0.0
 11
8.4625297426925652
 21
5.1367455816577703
 31
0.0
  0
LINE
  5
33
  8
0
 10
8.5877675210925641
 20
5.0091295076577707
 30
0.0
 11
8.5827675210925651
 21
5.0091295076577707
 31
0.0
  0
LINE
  5
34
  8
0
 10
8.5977675210925675
 20
4.9916295076577706
 30
0.0
 11
8.5977675210925675
 21
4.9991295076577691
 31
0.0
  0
ARC
  5
35
  8
0
 10
8.5877675210925641
 20
4.9991295076577691
 30
0.0
 40
0.01
 50
0.0
 51
90.0
  0
ARC
  5
36
  8
0
 10
8.5827675210925651
 20
5.0191295076577713
 30
0.0
 40
0.01
 50
180.0
 51
270.0
  0
ARC
  5
37
  8
0
 10
8.5702675210925658
 20
4.9916295076577706
 30
0.0
 40
0.0275
 50
180.0
 51
0.0
  0
LINE
  5
38
  8
0
 10
8.5727675210925653
 20
5.0841295076577699
 30
0.0
 11
8.6155297426925657
 21
5.0996936834577724
 31
0.0
  0
LINE
  5
39
  8
0
 10
8.6080052994925662
 20
5.1203669210577711
 30
0.0
 11
8.5727675210925653
 21
5.107541418657771
 31
0.0
  0
LINE
  5
3A
  8
0
 10
8.5377675210925652
 20
5.1141295076577711
 30
0.0
 11
8.5427675210925678
 21
5.1141295076577711
 31
0.0
  0
LINE
  5
3B
  8
0
 10
8.5727675210925653
 20
5.1141295076577711
 30
0.0
 11
8.5777675210925661
 21
5.1141295076577711
 31
0.0
  0
ARC
  5
3C
  8
0
 10
8.6117675210925668
 20
5.1100303022577718
 30
0.0
 40
0.011
 50
290.0
 51
109.9999999999999
  0
ARC
  5
3D
  8
0
 10
8.4587675210925664
 20
5.0414089627577701
 30
0.0
 40
0.011
 50
70.0
 51
249.99999999999989
  0
ARC
  5
3E
  8
0
 10
8.4587675210925664
 20
5.1264089627577709
 30
0.0
 40
0.011
 50
70.0
 51
249.99999999999989
  0
LINE
  5
3F
  8
0
 10
8.2597675210925665
 20
5.4591295076577699
 30
0.0
 11
8.5497675210925657
 21
5.4591295076577699
 31
0.0
1001
ACAD
1000
ASC_BOUNDS
1002
{
1070
    19
1005
24
1002
}
  0
LINE
  5
40
  8
0
 10
8.5497675210925657
 20
5.4641295076577707
 30
0.0
 11
8.2597675210925665
 21
5.4641295076577707
 31
0.0
  0
LINE
  5
41
  8
0
 10
8.3460090417925663
 20
5.3888537087577708
 30
0.0
 11
8.5336390784925662
 21
5.3724382076577699
 31
0.0
1001
ACAD
1000
ASC_BOUNDS
1002
{
1070
    19
1005
24
1002
}
  0
LINE
  5
42
  8
0
 10
8.3486237139925663
 20
5.4187395497577704
 30
0.0
 11
8.5727675210925653
 21
5.3991295076577721
 31
0.0
1001
ACAD
1000
ASC_BOUNDS
1002
{
1070
    19
1005
24
1002
}
  0
LINE
  5
43
  8
0
 10
8.2393016821925666
 20
5.299069021857771
 30
0.0
 11
8.4872553951925642
 21
5.3120637252577723
 31
0.0
  0
LINE
  5
44
  8
0
 10
8.4869937153925665
 20
5.3170568729577701
 30
0.0
 11
8.2390400023925672
 21
5.3040621694577723
 31
0.0
1001
ACAD
1000
ASC_BOUNDS
1002
{
1070
    19
1005
24
1002
}
  0
LINE
  5
45
  8
0
 10
8.5977675210925675
 20
5.316135584457772
 30
0.0
 11
8.5977675210925675
 21
5.4161295076577707
 31
0.0
  0
LINE
  5
46
  8
0
 10
8.5927675210925667
 20
5.4161295076577707
 30
0.0
 11
8.5927675210925667
 21
5.3172899254577706
 31
0.0
1001
ACAD
1000
ASC_BOUNDS
1002
{
1070
    19
1005
24
1002
}
  0
LINE
  5
47
  8
0
 10
8.5727675210925653
 20
5.2762838485577719
 30
0.0
 11
8.5727675210925653
 21
5.3991295076577721
 31
0.0
1001
ACAD
1000
ASC_BOUNDS
1002
{
1070
    19
1005
24
1002
}
  0
ARC
  5
48
  8
0
 10
8.5327675210925662
 20
5.3624762606577709
 30
0.0
 40
0.01
 50
0.0
 51
85.000000000000014
1001
ACAD
1000
ASC_BOUNDS
1002
{
1070
    19
1005
24
1002
}
  0
LINE
  5
49
  8
0
 10
8.5777675210925661
 20
5.2751295076577707
 30
0.0
 11
8.5977675210925675
 21
5.316135584457772
 31
0.0
  0
LINE
  5
4A
  8
0
 10
8.5927675210925667
 20
5.3172899254577706
 30
0.0
 11
8.5727675210925653
 21
5.2762838485577701
 31
0.0
1001
ACAD
1000
ASC_BOUNDS
1002
{
1070
    19
1005
24
1002
}
  0
ARC
  5
4B
  8
0
 10
8.4897675210925652
 20
5.2641295076577697
 30
0.0
 40
0.053
 50
0.0
 51
92.999999999999986
1001
ACAD
1000
ASC_BOUNDS
1002
{
1070
    19
1005
24
1002
}
  0
ARC
  5
4C
  8
0
 10
8.4897675210925652
 20
5.2641295076577697
 30
0.0
 40
0.048
 50
0.0
 51
92.999999999999986
  0
LINE
  5
4D
  8
0
 10
8.5427675210925678
 20
5.2641295076577697
 30
0.0
 11
8.5427675210925678
 21
5.3624762606577709
 31
0.0
1001
ACAD
1000
ASC_BOUNDS
1002
{
1070
    19
1005
24
1002
}
  0
ARC
  5
4E
  8
0
 10
8.5497675210925657
 20
5.4161295076577707
 30
0.0
 40
0.043
 50
0.0
 51
90.0
1001
ACAD
1000
ASC_BOUNDS
1002
{
1070
    19
1005
24
1002
}
  0
ARC
  5
4F
  8
0
 10
8.5497675210925657
 20
5.4161295076577707
 30
0.0
 40
0.048
 50
0.0
 51
90.0
  0
ARC
  5
50
  8
0
 10
8.3473163778925663
 20
5.403796629257771
 30
0.0
 40
0.015
 50
85.000000000000014
 51
265.0
1001
ACAD
1000
ASC_BOUNDS
1002
{
1070
    19
1005
24
1002
}
  0
ARC
  5
51
  8
0
 10
8.3907675210925667
 20
6.0371295076577702
 30
0.0
 40
0.082
 50
322.12359839919992
 51
142.12359839920001
1001
ACAD
1000
ASC_BOUNDS
1002
{
1070
    19
1005
24
1002
}
  0
ARC
  5
52
  8
0
 10
8.3907675210925667
 20
6.0371295076577702
 30
0.0
 40
0.087
 50
322.12359839919992
 51
142.12359839920001
  0
LINE
  5
53
  8
0
 10
8.1808338187925678
 20
5.62552552245777
 30
0.0
 11
8.4594398420925678
 21
5.9837149747577696
 31
0.0
  0
LINE
  5
54
  8
0
 10
8.4554931569925671
 20
5.9867847754577701
 30
0.0
 11
8.176887133692567
 21
5.6285953231577706
 31
0.0
1001
ACAD
1000
ASC_BOUNDS
1002
{
1070
    19
1005
24
1002
}
  0
ARC
  5
55
  8
0
 10
8.3186720394925651
 20
5.5958832252577722
 30
0.0
 40
0.296
 50
142.12359839920001
 51
186.99999999999989
1001
ACAD
1000
ASC_BOUNDS
1002
{
1070
    19
1005
24
1002
}
  0
ARC
  5
56
  8
0
 10
8.3186720394925651
 20
5.5958832252577722
 30
0.0
 40
0.301
 50
142.12359839920001
 51
186.99999999999989
  0
LINE
  5
57
  8
0
 10
8.0352879913925666
 20
5.47503040685777
 30
0.0
 11
8.0248783785925681
 21
5.5598098996577709
 31
0.0
1001
ACAD
1000
ASC_BOUNDS
1002
{
1070
    19
1005
24
1002
}
  0
LINE
  5
58
  8
0
 10
8.0199156477925655
 20
5.5592005529577699
 30
0.0
 11
8.0303252605925657
 21
5.4744210600577707
 31
0.0
  0
ENDSEC
  0
EOF
