  0
SECTION
  2
HEADER
  9
$ACADVER
  1
AC1009
  9
$INSBASE
 10
0.0
 20
0.0
 30
0.0
  9
$EXTMIN
 10
7.5794279828825628
 20
5.1019825115690489
 30
0.0
  9
$EXTMAX
 10
8.2307268892180812
 20
6.1799825115690501
 30
0.0
  9
$LIMMIN
 10
0.0
 20
0.0
  9
$LIMMAX
 10
12.0
 20
9.0
  9
$ORTHOMODE
 70
     0
  9
$REGENMODE
 70
     1
  9
$FILLMODE
 70
     1
  9
$QTEXTMODE
 70
     0
  9
$MIRRTEXT
 70
     1
  9
$DRAGMODE
 70
     2
  9
$LTSCALE
 40
1.0
  9
$OSMODE
 70
    39
  9
$ATTMODE
 70
     1
  9
$TEXTSIZE
 40
0.2
  9
$TRACEWID
 40
0.05
  9
$TEXTSTYLE
  7
STANDARD
  9
$CLAYER
  8
0
  9
$CELTYPE
  6
BYLAYER
  9
$CECOLOR
 62
   256
  9
$DIMSCALE
 40
1.0
  9
$DIMASZ
 40
0.18
  9
$DIMEXO
 40
0.0625
  9
$DIMDLI
 40
0.38
  9
$DIMRND
 40
0.0
  9
$DIMDLE
 40
0.0
  9
$DIMEXE
 40
0.18
  9
$DIMTP
 40
0.0
  9
$DIMTM
 40
0.0
  9
$DIMTXT
 40
0.18
  9
$DIMCEN
 40
0.09
  9
$DIMTSZ
 40
0.0
  9
$DIMTOL
 70
     0
  9
$DIMLIM
 70
     0
  9
$DIMTIH
 70
     1
  9
$DIMTOH
 70
     1
  9
$DIMSE1
 70
     0
  9
$DIMSE2
 70
     0
  9
$DIMTAD
 70
     0
  9
$DIMZIN
 70
     0
  9
$DIMBLK
  1

  9
$DIMASO
 70
     1
  9
$DIMSHO
 70
     1
  9
$DIMPOST
  1

  9
$DIMAPOST
  1

  9
$DIMALT
 70
     0
  9
$DIMALTD
 70
     2
  9
$DIMALTF
 40
25.399999999999999
  9
$DIMLFAC
 40
1.0
  9
$DIMTOFL
 70
     0
  9
$DIMTVP
 40
0.0
  9
$DIMTIX
 70
     0
  9
$DIMSOXD
 70
     0
  9
$DIMSAH
 70
     0
  9
$DIMBLK1
  1

  9
$DIMBLK2
  1

  9
$DIMSTYLE
  2
STANDARD
  9
$DIMCLRD
 70
     0
  9
$DIMCLRE
 70
     0
  9
$DIMCLRT
 70
     0
  9
$DIMTFAC
 40
1.0
  9
$DIMGAP
 40
0.09
  9
$LUNITS
 70
     2
  9
$LUPREC
 70
     4
  9
$SKETCHINC
 40
0.1
  9
$FILLETRAD
 40
0.5
  9
$AUNITS
 70
     0
  9
$AUPREC
 70
     0
  9
$MENU
  1
.
  9
$ELEVATION
 40
0.0
  9
$PELEVATION
 40
0.0
  9
$THICKNESS
 40
0.0
  9
$LIMCHECK
 70
     0
  9
$BLIPMODE
 70
     0
  9
$CHAMFERA
 40
0.5
  9
$CHAMFERB
 40
0.5
  9
$SKPOLY
 70
     0
  9
$TDCREATE
 40
2451969.4014964122
  9
$TDUPDATE
 40
2451982.574445602
  9
$TDINDWG
 40
0.0561028935
  9
$TDUSRTIMER
 40
0.0561028935
  9
$USRTIMER
 70
     1
  9
$ANGBASE
 50
0.0
  9
$ANGDIR
 70
     0
  9
$PDMODE
 70
     0
  9
$PDSIZE
 40
0.0
  9
$PLINEWID
 40
0.0
  9
$COORDS
 70
     0
  9
$SPLFRAME
 70
     0
  9
$SPLINETYPE
 70
     6
  9
$SPLINESEGS
 70
     8
  9
$ATTDIA
 70
     0
  9
$ATTREQ
 70
     1
  9
$HANDLING
 70
  4097
  9
$HANDSEED
  5
B78
  9
$SURFTAB1
 70
     6
  9
$SURFTAB2
 70
     6
  9
$SURFTYPE
 70
     6
  9
$SURFU
 70
     6
  9
$SURFV
 70
     6
  9
$UCSNAME
  2

  9
$UCSORG
 10
0.0
 20
0.0
 30
0.0
  9
$UCSXDIR
 10
1.0
 20
0.0
 30
0.0
  9
$UCSYDIR
 10
0.0
 20
1.0
 30
0.0
  9
$PUCSNAME
  2

  9
$PUCSORG
 10
0.0
 20
0.0
 30
0.0
  9
$PUCSXDIR
 10
1.0
 20
0.0
 30
0.0
  9
$PUCSYDIR
 10
0.0
 20
1.0
 30
0.0
  9
$USERI1
 70
     0
  9
$USERI2
 70
     0
  9
$USERI3
 70
     0
  9
$USERI4
 70
     0
  9
$USERI5
 70
     0
  9
$USERR1
 40
0.0
  9
$USERR2
 40
0.0
  9
$USERR3
 40
0.0
  9
$USERR4
 40
0.0
  9
$USERR5
 40
0.0
  9
$WORLDVIEW
 70
     1
  9
$SHADEDGE
 70
     3
  9
$SHADEDIF
 70
    70
  9
$TILEMODE
 70
     1
  9
$MAXACTVP
 70
    48
  9
$PLIMCHECK
 70
     0
  9
$PEXTMIN
 10
1.0000000000000000E+020
 20
1.0000000000000000E+020
 30
1.0000000000000000E+020
  9
$PEXTMAX
 10
-1.0000000000000000E+020
 20
-1.0000000000000000E+020
 30
-1.0000000000000000E+020
  9
$PLIMMIN
 10
0.0
 20
0.0
  9
$PLIMMAX
 10
12.0
 20
9.0
  9
$UNITMODE
 70
     0
  9
$VISRETAIN
 70
     1
  9
$PLINEGEN
 70
     0
  9
$PSLTSCALE
 70
     1
  0
ENDSEC
  0
SECTION
  2
TABLES
  0
TABLE
  2
VPORT
 70
     2
  0
VPORT
  2
*ACTIVE
 70
     0
 10
0.0
 20
0.0
 11
1.0
 21
1.0
 12
8.1647613221913282
 22
5.7273281758910706
 13
0.0
 23
0.0
 14
0.5
 24
0.5
 15
0.5
 25
0.5
 16
0.0
 26
0.0
 36
1.0
 17
0.0
 27
0.0
 37
0.0
 40
1.7644215738464
 41
2.0809399477806778
 42
50.0
 43
0.0
 44
0.0
 50
0.0
 51
0.0
 71
     0
 72
   100
 73
     1
 74
     2
 75
     0
 76
     0
 77
     0
 78
     0
  0
ENDTAB
  0
TABLE
  2
LTYPE
 70
     1
  0
LTYPE
  2
CONTINUOUS
 70
     0
  3
Solid line
 72
    65
 73
     0
 40
0.0
  0
ENDTAB
  0
TABLE
  2
LAYER
 70
     1
  0
LAYER
  2
0
 70
     0
 62
     1
  6
CONTINUOUS
  0
ENDTAB
  0
TABLE
  2
STYLE
 70
     1
  0
STYLE
  2
STANDARD
 70
     0
 40
0.0
 41
1.0
 50
0.0
 71
     0
 42
0.2
  3
txt
  4

  0
ENDTAB
  0
TABLE
  2
VIEW
 70
     0
  0
ENDTAB
  0
TABLE
  2
UCS
 70
     0
  0
ENDTAB
  0
TABLE
  2
APPID
 70
     1
  0
APPID
  2
ACAD
 70
     0
  0
ENDTAB
  0
TABLE
  2
DIMSTYLE
 70
     1
  0
DIMSTYLE
  2
STANDARD
 70
     0
  3

  4

  5

  6

  7

 40
1.0
 41
0.18
 42
0.0625
 43
0.38
 44
0.18
 45
0.0
 46
0.0
 47
0.0
 48
0.0
140
0.18
141
0.09
142
0.0
143
25.399999999999999
144
1.0
145
0.0
146
1.0
147
0.09
 71
     0
 72
     0
 73
     1
 74
     1
 75
     0
 76
     0
 77
     0
 78
     0
170
     0
171
     2
172
     0
173
     0
174
     0
175
     0
176
     0
177
     0
178
     0
  0
ENDTAB
  0
ENDSEC
  0
SECTION
  2
BLOCKS
  0
BLOCK
  8
0
  2
$MODEL_SPACE
 70
     0
 10
0.0
 20
0.0
 30
0.0
  3
$MODEL_SPACE
  1

  0
ENDBLK
  5
9
  8
0
  0
BLOCK
 67
     1
  8
0
  2
$PAPER_SPACE
 70
     0
 10
0.0
 20
0.0
 30
0.0
  3
$PAPER_SPACE
  1

  0
ENDBLK
  5
E
 67
     1
  8
0
  0
ENDSEC
  0
SECTION
  2
ENTITIES
  0
LINE
  5
25
  8
0
 10
7.6168774508128561
 20
5.7371491282690492
 30
0.0
 11
7.8439685855128563
 21
6.1304825115690491
 31
0.0
1001
ACAD
1000
ASC_BOUNDS
1002
{
1070
    19
1005
24
1002
}
  0
LINE
  5
26
  8
0
 10
7.839638458412856
 20
6.1329825115690504
 30
0.0
 11
7.6125473237128549
 21
5.7396491282690496
 31
0.0
  0
LINE
  5
27
  8
0
 10
7.663350754012856
 20
5.4401292616690489
 30
0.0
 11
8.0689645319128562
 21
5.4613865789690488
 31
0.0
  0
LINE
  5
28
  8
0
 10
8.0687028521128568
 20
5.4663797266690501
 30
0.0
 11
7.6630890743128557
 21
5.4451224093690476
 31
0.0
1001
ACAD
1000
ASC_BOUNDS
1002
{
1070
    19
1005
24
1002
}
  0
ARC
  5
29
  8
0
 10
7.8586280488128546
 20
5.7069825115690476
 30
0.0
 40
0.1
 50
140.31202055310001
 51
270.0
  0
ARC
  5
2A
  8
0
 10
7.8586280488128546
 20
5.7069825115690476
 30
0.0
 40
0.105
 50
140.31202055310001
 51
270.0
1001
ACAD
1000
ASC_BOUNDS
1002
{
1070
    19
1005
24
1002
}
  0
LINE
  5
2B
  8
0
 10
8.1776280488128563
 20
5.1569825115690486
 30
0.0
 11
8.1776280488128563
 21
5.5369825115690503
 31
0.0
1001
ACAD
1000
ASC_BOUNDS
1002
{
1070
    19
1005
24
1002
}
  0
LINE
  5
2C
  8
0
 10
8.1476280488128552
 20
5.50032926456905
 30
0.0
 11
8.1476280488128552
 21
5.1294825115690488
 31
0.0
1001
ACAD
1000
ASC_BOUNDS
1002
{
1070
    19
1005
24
1002
}
  0
LINE
  5
2D
  8
0
 10
8.1476280488128552
 20
5.1603944225690501
 30
0.0
 11
8.0673902704128562
 21
5.1895985855690494
 31
0.0
  0
ARC
  5
2E
  8
0
 10
8.0636280488128556
 20
5.1792619667690492
 30
0.0
 40
0.011
 50
70.0
 51
249.99999999999989
  0
LINE
  5
2F
  8
0
 10
8.1926280488128551
 20
5.1469825115690488
 30
0.0
 11
8.1876280488128561
 21
5.1469825115690488
 31
0.0
  0
LINE
  5
30
  8
0
 10
8.2026280488128531
 20
5.1294825115690488
 30
0.0
 11
8.2026280488128531
 21
5.1369825115690491
 31
0.0
  0
ARC
  5
31
  8
0
 10
8.1926280488128551
 20
5.1369825115690491
 30
0.0
 40
0.01
 50
0.0
 51
90.0
  0
ARC
  5
32
  8
0
 10
8.1876280488128543
 20
5.1569825115690486
 30
0.0
 40
0.01
 50
180.0
 51
270.0
  0
ARC
  5
33
  8
0
 10
8.175128048812855
 20
5.1294825115690488
 30
0.0
 40
0.0275
 50
180.0
 51
0.0
  0
LINE
  5
34
  8
0
 10
8.0598658273128532
 20
5.168925347869048
 30
0.0
 11
8.1476280488128552
 21
5.1369825115690491
 31
0.0
  0
LINE
  5
35
  8
0
 10
7.9508695695128564
 20
5.526706712769049
 30
0.0
 11
8.1384996063128554
 21
5.5102912115690499
 31
0.0
1001
ACAD
1000
ASC_BOUNDS
1002
{
1070
    19
1005
24
1002
}
  0
LINE
  5
36
  8
0
 10
8.1776280488128563
 20
5.5369825115690503
 30
0.0
 11
7.9534842418128564
 21
5.5565925536690504
 31
0.0
1001
ACAD
1000
ASC_BOUNDS
1002
{
1070
    19
1005
24
1002
}
  0
LINE
  5
37
  8
0
 10
7.8586280488128564
 20
5.6019825115690489
 30
0.0
 11
8.1526280488128542
 21
5.6019825115690489
 31
0.0
1001
ACAD
1000
ASC_BOUNDS
1002
{
1070
    19
1005
24
1002
}
  0
LINE
  5
38
  8
0
 10
8.1526280488128542
 20
5.6069825115690497
 30
0.0
 11
7.8586280488128564
 21
5.6069825115690497
 31
0.0
  0
LINE
  5
39
  8
0
 10
8.2026280488128531
 20
5.41212352776905
 30
0.0
 11
8.2026280488128531
 21
5.556982511569049
 31
0.0
  0
LINE
  5
3A
  8
0
 10
8.1976280488128541
 20
5.556982511569049
 30
0.0
 11
8.1976280488128541
 21
5.4134632736690502
 31
0.0
1001
ACAD
1000
ASC_BOUNDS
1002
{
1070
    19
1005
24
1002
}
  0
ARC
  5
3B
  8
0
 10
8.0726280488128541
 20
5.3914825115690501
 30
0.0
 40
0.07
 50
0.0
 51
92.999999999999986
  0
ARC
  5
3C
  8
0
 10
8.0726280488128541
 20
5.3914825115690501
 30
0.0
 40
0.075
 50
0.0
 51
92.999999999999986
1001
ACAD
1000
ASC_BOUNDS
1002
{
1070
    19
1005
24
1002
}
  0
LINE
  5
3D
  8
0
 10
8.2128658273128572
 20
5.2582199250690493
 30
0.0
 11
8.1776280488128563
 21
5.2453944225690492
 31
0.0
  0
LINE
  5
3E
  8
0
 10
8.1776280488128563
 20
5.221982511569049
 30
0.0
 11
8.2203902704128566
 21
5.2375466873690497
 31
0.0
  0
ARC
  5
3F
  8
0
 10
8.2166280488128542
 20
5.24788330616905
 30
0.0
 40
0.011
 50
290.0
 51
109.9999999999999
  0
LINE
  5
40
  8
0
 10
8.1826280488128553
 20
5.2474825115690491
 30
0.0
 11
8.1826280488128553
 21
5.3774825115690481
 31
0.0
  0
LINE
  5
41
  8
0
 10
8.1426280488128562
 20
5.3914825115690501
 30
0.0
 11
8.1426280488128562
 21
5.2474825115690491
 31
0.0
  0
LINE
  5
42
  8
0
 10
8.1426280488128562
 20
5.2474825115690491
 30
0.0
 11
8.1476280488128552
 21
5.2474825115690491
 31
0.0
  0
LINE
  5
43
  8
0
 10
8.1776280488128563
 20
5.2474825115690491
 30
0.0
 11
8.1826280488128553
 21
5.2474825115690491
 31
0.0
  0
LINE
  5
44
  8
0
 10
8.1476280488128552
 20
5.2453944225690492
 30
0.0
 11
8.0673902704128562
 21
5.2745985855690476
 31
0.0
  0
ARC
  5
45
  8
0
 10
8.0636280488128556
 20
5.2642619667690482
 30
0.0
 40
0.011
 50
70.0
 51
249.99999999999989
  0
LINE
  5
46
  8
0
 10
8.0598658273128532
 20
5.2539253478690489
 30
0.0
 11
8.1476280488128552
 21
5.221982511569049
 31
0.0
  0
LINE
  5
47
  8
0
 10
8.1826280488128553
 20
5.3774825115690481
 30
0.0
 11
8.2026280488128531
 21
5.41212352776905
 31
0.0
  0
LINE
  5
48
  8
0
 10
8.1976280488128541
 20
5.4134632736690502
 30
0.0
 11
8.1776280488128563
 21
5.3788222575690501
 31
0.0
1001
ACAD
1000
ASC_BOUNDS
1002
{
1070
    19
1005
24
1002
}
  0
ARC
  5
49
  8
0
 10
8.1526280488128542
 20
5.556982511569049
 30
0.0
 40
0.05
 50
0.0
 51
90.0
  0
ARC
  5
4A
  8
0
 10
8.1376280488128554
 20
5.50032926456905
 30
0.0
 40
0.01
 50
0.0
 51
85.000000000000014
1001
ACAD
1000
ASC_BOUNDS
1002
{
1070
    19
1005
24
1002
}
  0
ARC
  5
4B
  8
0
 10
8.1526280488128542
 20
5.556982511569049
 30
0.0
 40
0.045
 50
0.0
 51
90.0
1001
ACAD
1000
ASC_BOUNDS
1002
{
1070
    19
1005
24
1002
}
  0
ARC
  5
4C
  8
0
 10
7.9521769056128546
 20
5.5416496331690492
 30
0.0
 40
0.015
 50
85.000000000000014
 51
265.0
1001
ACAD
1000
ASC_BOUNDS
1002
{
1070
    19
1005
24
1002
}
  0
ARC
  5
4D
  8
0
 10
7.9210448464128547
 20
6.0859825115690489
 30
0.0
 40
0.094
 50
320.31202055310001
 51
149.99999999999989
  0
ARC
  5
4E
  8
0
 10
7.9210448464128547
 20
6.0859825115690489
 30
0.0
 40
0.089
 50
320.31202055310001
 51
149.99999999999989
1001
ACAD
1000
ASC_BOUNDS
1002
{
1070
    19
1005
24
1002
}
  0
LINE
  5
4F
  8
0
 10
7.7816746938128549
 20
5.7708431500690489
 30
0.0
 11
7.9933810001128549
 21
6.0259535113690488
 31
0.0
  0
LINE
  5
50
  8
0
 10
7.9895333324128561
 20
6.0291465433690483
 30
0.0
 11
7.777827026012857
 21
5.7740361819690484
 31
0.0
1001
ACAD
1000
ASC_BOUNDS
1002
{
1070
    19
1005
24
1002
}
  0
ARC
  5
51
  8
0
 10
7.7736280488128537
 20
5.6466491282690496
 30
0.0
 40
0.186
 50
149.99999999999989
 51
189.0
  0
ARC
  5
52
  8
0
 10
7.7736280488128537
 20
5.6466491282690496
 30
0.0
 40
0.181
 50
149.99999999999989
 51
189.0
1001
ACAD
1000
ASC_BOUNDS
1002
{
1070
    19
1005
24
1002
}
  0
ARC
  5
53
  8
0
 10
7.6607339562128551
 20
5.4900607383690492
 30
0.0
 40
0.05
 50
189.0
 51
273.0
  0
LINE
  5
54
  8
0
 10
7.6162879809128547
 20
5.4830211874690491
 30
0.0
 11
7.5948564592128562
 21
5.6183344901690511
 31
0.0
1001
ACAD
1000
ASC_BOUNDS
1002
{
1070
    19
1005
24
1002
}
  0
LINE
  5
55
  8
0
 10
7.5899180175128551
 20
5.6175523177690501
 30
0.0
 11
7.6113495392128563
 21
5.482239015169049
 31
0.0
  0
ARC
  5
56
  8
0
 10
7.6607339562128551
 20
5.4900607383690492
 30
0.0
 40
0.045
 50
189.0
 51
273.0
1001
ACAD
1000
ASC_BOUNDS
1002
{
1070
    19
1005
24
1002
}
  0
ENDSEC
  0
EOF
