  0
SECTION
  2
HEADER
  9
$ACADVER
  1
AC1009
  9
$INSBASE
 10
0.0
 20
0.0
 30
0.0
  9
$EXTMIN
 10
7.6220348958754203
 20
5.3531846183732323
 30
0.0
  9
$EXTMAX
 10
8.2517508161638933
 20
6.1803682298198499
 30
0.0
  9
$LIMMIN
 10
0.0
 20
0.0
  9
$LIMMAX
 10
12.0
 20
9.0
  9
$ORTHOMODE
 70
     0
  9
$REGENMODE
 70
     1
  9
$FILLMODE
 70
     1
  9
$QTEXTMODE
 70
     0
  9
$MIRRTEXT
 70
     1
  9
$DRAGMODE
 70
     2
  9
$LTSCALE
 40
1.0
  9
$OSMODE
 70
    39
  9
$ATTMODE
 70
     1
  9
$TEXTSIZE
 40
0.2
  9
$TRACEWID
 40
0.05
  9
$TEXTSTYLE
  7
STANDARD
  9
$CLAYER
  8
0
  9
$CELTYPE
  6
BYLAYER
  9
$CECOLOR
 62
   256
  9
$DIMSCALE
 40
1.0
  9
$DIMASZ
 40
0.18
  9
$DIMEXO
 40
0.0625
  9
$DIMDLI
 40
0.38
  9
$DIMRND
 40
0.0
  9
$DIMDLE
 40
0.0
  9
$DIMEXE
 40
0.18
  9
$DIMTP
 40
0.0
  9
$DIMTM
 40
0.0
  9
$DIMTXT
 40
0.18
  9
$DIMCEN
 40
0.09
  9
$DIMTSZ
 40
0.0
  9
$DIMTOL
 70
     0
  9
$DIMLIM
 70
     0
  9
$DIMTIH
 70
     1
  9
$DIMTOH
 70
     1
  9
$DIMSE1
 70
     0
  9
$DIMSE2
 70
     0
  9
$DIMTAD
 70
     0
  9
$DIMZIN
 70
     0
  9
$DIMBLK
  1

  9
$DIMASO
 70
     1
  9
$DIMSHO
 70
     1
  9
$DIMPOST
  1

  9
$DIMAPOST
  1

  9
$DIMALT
 70
     0
  9
$DIMALTD
 70
     2
  9
$DIMALTF
 40
25.399999999999999
  9
$DIMLFAC
 40
1.0
  9
$DIMTOFL
 70
     0
  9
$DIMTVP
 40
0.0
  9
$DIMTIX
 70
     0
  9
$DIMSOXD
 70
     0
  9
$DIMSAH
 70
     0
  9
$DIMBLK1
  1

  9
$DIMBLK2
  1

  9
$DIMSTYLE
  2
STANDARD
  9
$DIMCLRD
 70
     0
  9
$DIMCLRE
 70
     0
  9
$DIMCLRT
 70
     0
  9
$DIMTFAC
 40
1.0
  9
$DIMGAP
 40
0.09
  9
$LUNITS
 70
     2
  9
$LUPREC
 70
     4
  9
$SKETCHINC
 40
0.1
  9
$FILLETRAD
 40
0.5
  9
$AUNITS
 70
     0
  9
$AUPREC
 70
     0
  9
$MENU
  1
.
  9
$ELEVATION
 40
0.0
  9
$PELEVATION
 40
0.0
  9
$THICKNESS
 40
0.0
  9
$LIMCHECK
 70
     0
  9
$BLIPMODE
 70
     0
  9
$CHAMFERA
 40
0.5
  9
$CHAMFERB
 40
0.5
  9
$SKPOLY
 70
     0
  9
$TDCREATE
 40
2451969.4014964122
  9
$TDUPDATE
 40
2451982.57474375
  9
$TDINDWG
 40
0.0259040509
  9
$TDUSRTIMER
 40
0.0259040509
  9
$USRTIMER
 70
     1
  9
$ANGBASE
 50
0.0
  9
$ANGDIR
 70
     0
  9
$PDMODE
 70
     0
  9
$PDSIZE
 40
0.0
  9
$PLINEWID
 40
0.0
  9
$COORDS
 70
     0
  9
$SPLFRAME
 70
     0
  9
$SPLINETYPE
 70
     6
  9
$SPLINESEGS
 70
     8
  9
$ATTDIA
 70
     0
  9
$ATTREQ
 70
     1
  9
$HANDLING
 70
  4097
  9
$HANDSEED
  5
82E
  9
$SURFTAB1
 70
     6
  9
$SURFTAB2
 70
     6
  9
$SURFTYPE
 70
     6
  9
$SURFU
 70
     6
  9
$SURFV
 70
     6
  9
$UCSNAME
  2

  9
$UCSORG
 10
0.0
 20
0.0
 30
0.0
  9
$UCSXDIR
 10
1.0
 20
0.0
 30
0.0
  9
$UCSYDIR
 10
0.0
 20
1.0
 30
0.0
  9
$PUCSNAME
  2

  9
$PUCSORG
 10
0.0
 20
0.0
 30
0.0
  9
$PUCSXDIR
 10
1.0
 20
0.0
 30
0.0
  9
$PUCSYDIR
 10
0.0
 20
1.0
 30
0.0
  9
$USERI1
 70
     0
  9
$USERI2
 70
     0
  9
$USERI3
 70
     0
  9
$USERI4
 70
     0
  9
$USERI5
 70
     0
  9
$USERR1
 40
0.0
  9
$USERR2
 40
0.0
  9
$USERR3
 40
0.0
  9
$USERR4
 40
0.0
  9
$USERR5
 40
0.0
  9
$WORLDVIEW
 70
     1
  9
$SHADEDGE
 70
     3
  9
$SHADEDIF
 70
    70
  9
$TILEMODE
 70
     1
  9
$MAXACTVP
 70
    48
  9
$PLIMCHECK
 70
     0
  9
$PEXTMIN
 10
1.0000000000000000E+020
 20
1.0000000000000000E+020
 30
1.0000000000000000E+020
  9
$PEXTMAX
 10
-1.0000000000000000E+020
 20
-1.0000000000000000E+020
 30
-1.0000000000000000E+020
  9
$PLIMMIN
 10
0.0
 20
0.0
  9
$PLIMMAX
 10
12.0
 20
9.0
  9
$UNITMODE
 70
     0
  9
$VISRETAIN
 70
     1
  9
$PLINEGEN
 70
     0
  9
$PSLTSCALE
 70
     1
  0
ENDSEC
  0
SECTION
  2
TABLES
  0
TABLE
  2
VPORT
 70
     2
  0
VPORT
  2
*ACTIVE
 70
     0
 10
0.0
 20
0.0
 11
1.0
 21
1.0
 12
8.2722357448452808
 22
5.7718265853391042
 13
0.0
 23
0.0
 14
0.5
 24
0.5
 15
0.5
 25
0.5
 16
0.0
 26
0.0
 36
1.0
 17
0.0
 27
0.0
 37
0.0
 40
1.669978702924747
 41
1.9220489977728279
 42
50.0
 43
0.0
 44
0.0
 50
0.0
 51
0.0
 71
     0
 72
   100
 73
     1
 74
     2
 75
     0
 76
     0
 77
     0
 78
     0
  0
ENDTAB
  0
TABLE
  2
LTYPE
 70
     1
  0
LTYPE
  2
CONTINUOUS
 70
     0
  3
Solid line
 72
    65
 73
     0
 40
0.0
  0
ENDTAB
  0
TABLE
  2
LAYER
 70
     1
  0
LAYER
  2
0
 70
     0
 62
     1
  6
CONTINUOUS
  0
ENDTAB
  0
TABLE
  2
STYLE
 70
     1
  0
STYLE
  2
STANDARD
 70
     0
 40
0.0
 41
1.0
 50
0.0
 71
     0
 42
0.2
  3
txt
  4

  0
ENDTAB
  0
TABLE
  2
VIEW
 70
     0
  0
ENDTAB
  0
TABLE
  2
UCS
 70
     0
  0
ENDTAB
  0
TABLE
  2
APPID
 70
     1
  0
APPID
  2
ACAD
 70
     0
  0
ENDTAB
  0
TABLE
  2
DIMSTYLE
 70
     1
  0
DIMSTYLE
  2
STANDARD
 70
     0
  3

  4

  5

  6

  7

 40
1.0
 41
0.18
 42
0.0625
 43
0.38
 44
0.18
 45
0.0
 46
0.0
 47
0.0
 48
0.0
140
0.18
141
0.09
142
0.0
143
25.399999999999999
144
1.0
145
0.0
146
1.0
147
0.09
 71
     0
 72
     0
 73
     1
 74
     1
 75
     0
 76
     0
 77
     0
 78
     0
170
     0
171
     2
172
     0
173
     0
174
     0
175
     0
176
     0
177
     0
178
     0
  0
ENDTAB
  0
ENDSEC
  0
SECTION
  2
BLOCKS
  0
BLOCK
  8
0
  2
$MODEL_SPACE
 70
     0
 10
0.0
 20
0.0
 30
0.0
  3
$MODEL_SPACE
  1

  0
ENDBLK
  5
9
  8
0
  0
BLOCK
 67
     1
  8
0
  2
$PAPER_SPACE
 70
     0
 10
0.0
 20
0.0
 30
0.0
  3
$PAPER_SPACE
  1

  0
ENDBLK
  5
E
 67
     1
  8
0
  0
ENDSEC
  0
SECTION
  2
ENTITIES
  0
LINE
  5
25
  8
0
 10
7.6402604388586663
 20
5.843389210273231
 30
0.0
 11
8.0271303386586652
 21
6.1456451022732308
 31
0.0
1001
ACAD
1000
ASC_BOUNDS
1002
{
1070
    19
1005
24
1002
}
  0
LINE
  5
26
  8
0
 10
8.0240520312586661
 20
6.1495851560732318
 30
0.0
 11
7.6371821314586663
 21
5.8473292640732311
 31
0.0
  0
ARC
  5
27
  8
0
 10
7.7076519757586652
 20
5.7011846183732331
 30
0.0
 40
0.03
 50
203.0
 51
270.0
  0
LINE
  5
28
  8
0
 10
7.6280368301586661
 20
5.811967007573231
 30
0.0
 11
7.6800368301586648
 21
5.6894626845732317
 31
0.0
  0
LINE
  5
29
  8
0
 10
7.6846393544586657
 20
5.6914163401732321
 30
0.0
 11
7.6326393544586661
 21
5.8139206631732314
 31
0.0
1001
ACAD
1000
ASC_BOUNDS
1002
{
1070
    19
1005
24
1002
}
  0
ARC
  5
2A
  8
0
 10
8.0548351050586646
 20
6.110184618373232
 30
0.0
 40
0.05
 50
308.0
 51
128.0
  0
ARC
  5
2B
  8
0
 10
8.0548351050586646
 20
6.110184618373232
 30
0.0
 40
0.045
 50
308.0
 51
128.0
1001
ACAD
1000
ASC_BOUNDS
1002
{
1070
    19
1005
24
1002
}
  0
LINE
  5
2C
  8
0
 10
8.1986519757586631
 20
5.4081846183732329
 30
0.0
 11
8.1986519757586631
 21
5.743184618373232
 31
0.0
1001
ACAD
1000
ASC_BOUNDS
1002
{
1070
    19
1005
24
1002
}
  0
LINE
  5
2D
  8
0
 10
8.1686519757586673
 20
5.7065313714732318
 30
0.0
 11
8.1686519757586673
 21
5.3806846183732322
 31
0.0
1001
ACAD
1000
ASC_BOUNDS
1002
{
1070
    19
1005
24
1002
}
  0
ARC
  5
2E
  8
0
 10
8.1211519757586643
 20
5.6436846183732321
 30
0.0
 40
0.0275
 50
0.0
 51
90.0
  0
ARC
  5
2F
  8
0
 10
8.1211519757586643
 20
5.6436846183732321
 30
0.0
 40
0.0325
 50
0.0
 51
90.0
1001
ACAD
1000
ASC_BOUNDS
1002
{
1070
    19
1005
24
1002
}
  0
LINE
  5
30
  8
0
 10
8.2186519757586662
 20
5.5931653804732298
 30
0.0
 11
8.2186519757586662
 21
5.8116572013732331
 31
0.0
  0
LINE
  5
31
  8
0
 10
8.2136519757586655
 20
5.8116572013732331
 30
0.0
 11
8.2136519757586655
 21
5.5945051264732308
 31
0.0
1001
ACAD
1000
ASC_BOUNDS
1002
{
1070
    19
1005
24
1002
}
  0
ARC
  5
32
  8
0
 10
8.0846519757586641
 20
5.4304640735732326
 30
0.0
 40
0.011
 50
70.0
 51
249.99999999999989
  0
LINE
  5
33
  8
0
 10
8.1686519757586673
 20
5.41159652937323
 30
0.0
 11
8.0884141973586665
 21
5.4408006923732328
 31
0.0
  0
ARC
  5
34
  8
0
 10
8.2086519757586665
 20
5.4081846183732329
 30
0.0
 40
0.01
 50
180.0
 51
270.0
  0
ARC
  5
35
  8
0
 10
8.1961519757586654
 20
5.3806846183732322
 30
0.0
 40
0.0275
 50
180.0
 51
0.0
  0
LINE
  5
36
  8
0
 10
8.2136519757586655
 20
5.3981846183732323
 30
0.0
 11
8.2086519757586665
 21
5.3981846183732323
 31
0.0
  0
ARC
  5
37
  8
0
 10
8.2136519757586655
 20
5.3881846183732316
 30
0.0
 40
0.01
 50
0.0
 51
90.0
  0
LINE
  5
38
  8
0
 10
8.223651975758667
 20
5.3806846183732322
 30
0.0
 11
8.223651975758667
 21
5.3881846183732316
 31
0.0
  0
LINE
  5
39
  8
0
 10
8.0808897541586653
 20
5.4201274547732332
 30
0.0
 11
8.1686519757586673
 21
5.3881846183732316
 31
0.0
  0
LINE
  5
3A
  8
0
 10
8.2036519757586674
 20
5.5671846183732319
 30
0.0
 11
8.2186519757586662
 21
5.5931653804732298
 31
0.0
  0
LINE
  5
3B
  8
0
 10
8.2136519757586655
 20
5.5945051264732308
 30
0.0
 11
8.1986519757586631
 21
5.5685243643732321
 31
0.0
1001
ACAD
1000
ASC_BOUNDS
1002
{
1070
    19
1005
24
1002
}
  0
LINE
  5
3C
  8
0
 10
8.1986519757586631
 20
5.4731846183732307
 30
0.0
 11
8.2414141973586652
 21
5.4887487941732331
 31
0.0
  0
LINE
  5
3D
  8
0
 10
8.2338897541586675
 20
5.509422031873231
 30
0.0
 11
8.1986519757586631
 21
5.4965965293732308
 31
0.0
  0
ARC
  5
3E
  8
0
 10
8.2376519757586664
 20
5.4990854130732307
 30
0.0
 40
0.011
 50
290.0
 51
109.9999999999999
  0
LINE
  5
3F
  8
0
 10
8.2036519757586674
 20
5.5371846183732307
 30
0.0
 11
8.2036519757586674
 21
5.5671846183732319
 31
0.0
  0
LINE
  5
40
  8
0
 10
8.1636519757586665
 20
5.5671846183732319
 30
0.0
 11
8.1636519757586665
 21
5.5371846183732307
 31
0.0
  0
ARC
  5
41
  8
0
 10
8.0846519757586641
 20
5.5154640735732317
 30
0.0
 40
0.011
 50
70.0
 51
249.99999999999989
  0
LINE
  5
42
  8
0
 10
8.1636519757586665
 20
5.5371846183732307
 30
0.0
 11
8.1686519757586673
 21
5.5371846183732307
 31
0.0
  0
LINE
  5
43
  8
0
 10
8.1986519757586631
 20
5.5371846183732307
 30
0.0
 11
8.2036519757586674
 21
5.5371846183732307
 31
0.0
  0
LINE
  5
44
  8
0
 10
8.0808897541586653
 20
5.5051274547732323
 30
0.0
 11
8.1686519757586673
 21
5.4731846183732307
 31
0.0
  0
LINE
  5
45
  8
0
 10
8.1686519757586673
 20
5.4965965293732308
 30
0.0
 11
8.0884141973586665
 21
5.5258006923732319
 31
0.0
  0
LINE
  5
46
  8
0
 10
8.1486519757586642
 20
5.5931653804732298
 30
0.0
 11
8.1636519757586665
 21
5.5671846183732319
 31
0.0
  0
LINE
  5
47
  8
0
 10
8.1686519757586673
 20
5.5685243643732321
 30
0.0
 11
8.1536519757586667
 21
5.5945051264732308
 31
0.0
1001
ACAD
1000
ASC_BOUNDS
1002
{
1070
    19
1005
24
1002
}
  0
LINE
  5
48
  8
0
 10
8.1536519757586667
 20
5.5945051264732308
 30
0.0
 11
8.1536519757586667
 21
5.6436846183732321
 31
0.0
1001
ACAD
1000
ASC_BOUNDS
1002
{
1070
    19
1005
24
1002
}
  0
LINE
  5
49
  8
0
 10
8.1486519757586642
 20
5.6436846183732321
 30
0.0
 11
8.1486519757586642
 21
5.5931653804732298
 31
0.0
  0
LINE
  5
4A
  8
0
 10
7.8040255167586663
 20
5.8507797812732321
 30
0.0
 11
8.0856181788586667
 21
6.0707840806732314
 31
0.0
  0
LINE
  5
4B
  8
0
 10
8.0825398714586676
 20
6.0747241344732323
 30
0.0
 11
7.8009472093586663
 21
5.854719835073233
 31
0.0
1001
ACAD
1000
ASC_BOUNDS
1002
{
1070
    19
1005
24
1002
}
  0
LINE
  5
4C
  8
0
 10
8.1834425304586667
 20
5.8412014339732323
 30
0.0
 11
7.835597902858666
 21
5.7798670410732313
 31
0.0
  0
LINE
  5
4D
  8
0
 10
7.7076519757586661
 20
5.6711846183732311
 30
0.0
 11
8.1211519757586661
 21
5.6711846183732311
 31
0.0
  0
LINE
  5
4E
  8
0
 10
8.1211519757586661
 20
5.6761846183732318
 30
0.0
 11
7.7076519757586661
 21
5.6761846183732318
 31
0.0
1001
ACAD
1000
ASC_BOUNDS
1002
{
1070
    19
1005
24
1002
}
  0
LINE
  5
4F
  8
0
 10
7.836466143758666
 20
5.7749430022732318
 30
0.0
 11
8.1843107712586658
 21
5.836277395173231
 31
0.0
1001
ACAD
1000
ASC_BOUNDS
1002
{
1070
    19
1005
24
1002
}
  0
ARC
  5
50
  8
0
 10
8.1886519757586651
 20
5.8116572013732331
 30
0.0
 40
0.03
 50
0.0
 51
100.0
  0
ARC
  5
51
  8
0
 10
8.1886519757586651
 20
5.8116572013732331
 30
0.0
 40
0.025
 50
0.0
 51
100.0
1001
ACAD
1000
ASC_BOUNDS
1002
{
1070
    19
1005
24
1002
}
  0
ARC
  5
52
  8
0
 10
8.0628583553586655
 20
5.7400077231732309
 30
0.0
 40
0.015
 50
85.000000000000014
 51
265.0
1001
ACAD
1000
ASC_BOUNDS
1002
{
1070
    19
1005
24
1002
}
  0
ARC
  5
53
  8
0
 10
8.1586519757586657
 20
5.7065313714732318
 30
0.0
 40
0.01
 50
0.0
 51
85.000000000000014
1001
ACAD
1000
ASC_BOUNDS
1002
{
1070
    19
1005
24
1002
}
  0
LINE
  5
54
  8
0
 10
8.0615510192586655
 20
5.7250648026732316
 30
0.0
 11
8.1595235331586657
 21
5.7164933183732307
 31
0.0
1001
ACAD
1000
ASC_BOUNDS
1002
{
1070
    19
1005
24
1002
}
  0
LINE
  5
55
  8
0
 10
8.1986519757586631
 20
5.743184618373232
 30
0.0
 11
8.0641656914586655
 21
5.7549506436732321
 31
0.0
1001
ACAD
1000
ASC_BOUNDS
1002
{
1070
    19
1005
24
1002
}
  0
ARC
  5
56
  8
0
 10
7.8286519757586648
 20
5.8192593511732333
 30
0.0
 40
0.04
 50
128.0
 51
280.0
  0
ARC
  5
57
  8
0
 10
7.8286519757586648
 20
5.8192593511732333
 30
0.0
 40
0.045
 50
128.0
 51
280.0
1001
ACAD
1000
ASC_BOUNDS
1002
{
1070
    19
1005
24
1002
}
  0
ARC
  5
58
  8
0
 10
7.7076519757586652
 20
5.7011846183732331
 30
0.0
 40
0.025
 50
203.0
 51
270.0
1001
ACAD
1000
ASC_BOUNDS
1002
{
1070
    19
1005
24
1002
}
  0
ARC
  5
59
  8
0
 10
7.6556519757586647
 20
5.8236889413732316
 30
0.0
 40
0.03
 50
128.0
 51
203.0
  0
ARC
  5
5A
  8
0
 10
7.6556519757586647
 20
5.8236889413732316
 30
0.0
 40
0.025
 50
128.0
 51
203.0
1001
ACAD
1000
ASC_BOUNDS
1002
{
1070
    19
1005
24
1002
}
  0
ENDSEC
  0
EOF
