  0
SECTION
  2
HEADER
  9
$ACADVER
  1
AC1009
  9
$INSBASE
 10
0.0
 20
0.0
 30
0.0
  9
$EXTMIN
 10
3.811888525909068
 20
0.9980846618527896
 30
0.0
  9
$EXTMAX
 10
4.2375661970095271
 20
1.409780266276131
 30
0.0
  9
$LIMMIN
 10
0.0
 20
0.0
  9
$LIMMAX
 10
12.0
 20
9.0
  9
$ORTHOMODE
 70
     0
  9
$REGENMODE
 70
     1
  9
$FILLMODE
 70
     1
  9
$QTEXTMODE
 70
     0
  9
$MIRRTEXT
 70
     1
  9
$DRAGMODE
 70
     2
  9
$LTSCALE
 40
1.0
  9
$OSMODE
 70
    39
  9
$ATTMODE
 70
     1
  9
$TEXTSIZE
 40
0.2
  9
$TRACEWID
 40
0.05
  9
$TEXTSTYLE
  7
STANDARD
  9
$CLAYER
  8
0
  9
$CELTYPE
  6
BYLAYER
  9
$CECOLOR
 62
   256
  9
$DIMSCALE
 40
1.0
  9
$DIMASZ
 40
0.18
  9
$DIMEXO
 40
0.0625
  9
$DIMDLI
 40
0.38
  9
$DIMRND
 40
0.0
  9
$DIMDLE
 40
0.0
  9
$DIMEXE
 40
0.18
  9
$DIMTP
 40
0.0
  9
$DIMTM
 40
0.0
  9
$DIMTXT
 40
0.18
  9
$DIMCEN
 40
0.09
  9
$DIMTSZ
 40
0.0
  9
$DIMTOL
 70
     0
  9
$DIMLIM
 70
     0
  9
$DIMTIH
 70
     1
  9
$DIMTOH
 70
     1
  9
$DIMSE1
 70
     0
  9
$DIMSE2
 70
     0
  9
$DIMTAD
 70
     0
  9
$DIMZIN
 70
     0
  9
$DIMBLK
  1

  9
$DIMASO
 70
     1
  9
$DIMSHO
 70
     1
  9
$DIMPOST
  1

  9
$DIMAPOST
  1

  9
$DIMALT
 70
     1
  9
$DIMALTD
 70
     2
  9
$DIMALTF
 40
25.399999999999999
  9
$DIMLFAC
 40
0.2
  9
$DIMTOFL
 70
     0
  9
$DIMTVP
 40
0.0
  9
$DIMTIX
 70
     0
  9
$DIMSOXD
 70
     0
  9
$DIMSAH
 70
     0
  9
$DIMBLK1
  1

  9
$DIMBLK2
  1

  9
$DIMSTYLE
  2
STANDARD
  9
$DIMCLRD
 70
     0
  9
$DIMCLRE
 70
     0
  9
$DIMCLRT
 70
     0
  9
$DIMTFAC
 40
1.0
  9
$DIMGAP
 40
0.09
  9
$LUNITS
 70
     2
  9
$LUPREC
 70
     3
  9
$SKETCHINC
 40
0.1
  9
$FILLETRAD
 40
0.025
  9
$AUNITS
 70
     0
  9
$AUPREC
 70
     0
  9
$MENU
  1
acad
  9
$ELEVATION
 40
0.0
  9
$PELEVATION
 40
0.0
  9
$THICKNESS
 40
0.0
  9
$LIMCHECK
 70
     0
  9
$BLIPMODE
 70
     0
  9
$CHAMFERA
 40
0.0
  9
$CHAMFERB
 40
0.0
  9
$SKPOLY
 70
     0
  9
$TDCREATE
 40
2450129.3597065969
  9
$TDUPDATE
 40
2451982.5755479159
  9
$TDINDWG
 40
0.0085523148
  9
$TDUSRTIMER
 40
0.0085523148
  9
$USRTIMER
 70
     1
  9
$ANGBASE
 50
0.0
  9
$ANGDIR
 70
     0
  9
$PDMODE
 70
     0
  9
$PDSIZE
 40
0.0
  9
$PLINEWID
 40
0.0
  9
$COORDS
 70
     0
  9
$SPLFRAME
 70
     0
  9
$SPLINETYPE
 70
     6
  9
$SPLINESEGS
 70
     8
  9
$ATTDIA
 70
     0
  9
$ATTREQ
 70
     1
  9
$HANDLING
 70
  4097
  9
$HANDSEED
  5
A8
  9
$SURFTAB1
 70
     6
  9
$SURFTAB2
 70
     6
  9
$SURFTYPE
 70
     6
  9
$SURFU
 70
     6
  9
$SURFV
 70
     6
  9
$UCSNAME
  2

  9
$UCSORG
 10
0.0
 20
0.0
 30
0.0
  9
$UCSXDIR
 10
1.0
 20
0.0
 30
0.0
  9
$UCSYDIR
 10
0.0
 20
1.0
 30
0.0
  9
$PUCSNAME
  2

  9
$PUCSORG
 10
0.0
 20
0.0
 30
0.0
  9
$PUCSXDIR
 10
1.0
 20
0.0
 30
0.0
  9
$PUCSYDIR
 10
0.0
 20
1.0
 30
0.0
  9
$USERI1
 70
     0
  9
$USERI2
 70
     0
  9
$USERI3
 70
     0
  9
$USERI4
 70
     0
  9
$USERI5
 70
     0
  9
$USERR1
 40
0.0
  9
$USERR2
 40
0.0
  9
$USERR3
 40
0.0
  9
$USERR4
 40
0.0
  9
$USERR5
 40
0.0
  9
$WORLDVIEW
 70
     1
  9
$SHADEDGE
 70
     3
  9
$SHADEDIF
 70
    70
  9
$TILEMODE
 70
     1
  9
$MAXACTVP
 70
    16
  9
$PLIMCHECK
 70
     0
  9
$PEXTMIN
 10
1.0000000000000000E+020
 20
1.0000000000000000E+020
 30
1.0000000000000000E+020
  9
$PEXTMAX
 10
-1.0000000000000000E+020
 20
-1.0000000000000000E+020
 30
-1.0000000000000000E+020
  9
$PLIMMIN
 10
0.0
 20
0.0
  9
$PLIMMAX
 10
12.0
 20
9.0
  9
$UNITMODE
 70
     0
  9
$VISRETAIN
 70
     0
  9
$PLINEGEN
 70
     0
  9
$PSLTSCALE
 70
     1
  0
ENDSEC
  0
SECTION
  2
TABLES
  0
TABLE
  2
VPORT
 70
     2
  0
VPORT
  2
*ACTIVE
 70
     0
 10
0.0
 20
0.0
 11
1.0
 21
1.0
 12
4.0876092681998921
 22
1.2468883733301479
 13
0.0
 23
0.0
 14
1.0
 24
1.0
 15
0.0
 25
0.0
 16
0.0
 26
0.0
 36
1.0
 17
0.0
 27
0.0
 37
0.0
 40
1.5321637384092459
 41
1.807017543859649
 42
50.0
 43
0.0
 44
0.0
 50
0.0
 51
0.0
 71
     0
 72
   100
 73
     1
 74
     0
 75
     0
 76
     0
 77
     0
 78
     0
  0
ENDTAB
  0
TABLE
  2
LTYPE
 70
     2
  0
LTYPE
  2
CONTINUOUS
 70
     0
  3
Solid line
 72
    65
 73
     0
 40
0.0
  0
LTYPE
  2
HIDDEN2
 70
     0
  3
_ _ _ _ _ _ _ _ _ _ _ _ _ _ _ _ _ _ _ _ _ _ _ _
 72
    65
 73
     2
 40
0.1875
 49
0.125
 49
-0.0625
  0
ENDTAB
  0
TABLE
  2
LAYER
 70
     1
  0
LAYER
  2
0
 70
     0
 62
     1
  6
CONTINUOUS
  0
ENDTAB
  0
TABLE
  2
STYLE
 70
     1
  0
STYLE
  2
STANDARD
 70
     0
 40
0.0
 41
1.0
 50
0.0
 71
     0
 42
0.2
  3
txt
  4

  0
ENDTAB
  0
TABLE
  2
VIEW
 70
     0
  0
ENDTAB
  0
TABLE
  2
UCS
 70
     0
  0
ENDTAB
  0
TABLE
  2
APPID
 70
     1
  0
APPID
  2
ACAD
 70
     0
  0
ENDTAB
  0
TABLE
  2
DIMSTYLE
 70
     1
  0
DIMSTYLE
  2
STANDARD
 70
     0
  3

  4

  5

  6

  7

 40
1.0
 41
0.18
 42
0.0625
 43
0.38
 44
0.18
 45
0.0
 46
0.0
 47
0.0
 48
0.0
140
0.18
141
0.09
142
0.0
143
25.399999999999999
144
1.0
145
0.0
146
1.0
147
0.09
 71
     0
 72
     0
 73
     1
 74
     1
 75
     0
 76
     0
 77
     0
 78
     0
170
     0
171
     2
172
     0
173
     0
174
     0
175
     0
176
     0
177
     0
178
     0
  0
ENDTAB
  0
ENDSEC
  0
SECTION
  2
BLOCKS
  0
BLOCK
  8
0
  2
$MODEL_SPACE
 70
     0
 10
0.0
 20
0.0
 30
0.0
  3
$MODEL_SPACE
  1

  0
ENDBLK
  5
9
  8
0
  0
BLOCK
 67
     1
  8
0
  2
$PAPER_SPACE
 70
     0
 10
0.0
 20
0.0
 30
0.0
  3
$PAPER_SPACE
  1

  0
ENDBLK
  5
E
 67
     1
  8
0
  0
ENDSEC
  0
SECTION
  2
ENTITIES
  0
LINE
  5
24
  8
0
 10
3.8710661954387309
 20
0.9980846618527896
 30
0.0
 11
4.1939291954387308
 21
0.9980846618527896
 31
0.0
  0
LINE
  5
26
  8
0
 10
3.842066195438731
 20
1.0040846618527881
 30
0.0
 11
4.2150661954387312
 21
1.0040846618527881
 31
0.0
  0
LINE
  5
27
  8
0
 10
4.013859195438731
 20
1.0490846618527889
 30
0.0
 11
4.2150661954387312
 21
1.0490846618527889
 31
0.0
  0
LINE
  5
28
  8
0
 10
4.1027651954387299
 20
1.0128346618527879
 30
0.0
 11
4.1324061954387297
 21
1.0128346618527879
 31
0.0
  0
LINE
  5
29
  8
0
 10
4.0141961954387293
 20
1.040584661852789
 30
0.0
 11
4.2150831954387291
 21
1.040334661852788
 31
0.0
  0
ARC
  5
2E
  8
0
 10
-4.0142841954387301
 20
1.1105846618527879
 30
0.0
 40
0.07
210
0.0
220
0.0
230
-1.0
 50
270.0
 51
29.072575000000001
  0
ARC
  5
2F
  8
0
 10
-4.013859195438731
 20
1.1103346618527881
 30
0.0
 40
0.06125
210
0.0
220
0.0
230
-1.0
 50
270.0
 51
29.072518999999989
  0
ARC
  5
30
  8
0
 10
3.84706619543873
 20
1.1113068233765151
 30
0.0
 40
0.03
 50
150.92719517139761
 51
180.0
  0
ARC
  5
31
  8
0
 10
3.8505671954387282
 20
1.111482631508649
 30
0.0
 40
0.025
 50
150.92719517139761
 51
180.0
  0
LINE
  5
32
  8
0
 10
3.842066195438731
 20
1.0128346618527879
 30
0.0
 11
3.9067241954387288
 21
1.0128346618527879
 31
0.0
  0
LINE
  5
33
  8
0
 10
3.8710661954387309
 20
1.0040846618527881
 30
0.0
 11
3.8710661954387309
 21
0.9980846618527896
 31
0.0
  0
LINE
  5
34
  8
0
 10
3.8170661954387302
 20
1.1113068233765151
 30
0.0
 11
3.817066195438731
 21
1.0290846618527889
 31
0.0
  0
ARC
  5
35
  8
0
 10
3.842066195438731
 20
1.0290846618527889
 30
0.0
 40
0.025
 50
180.0
 51
270.0
  0
POLYLINE
  5
36
  8
0
 66
     1
 10
0.0
 20
0.0
 30
0.0
 70
     8
  0
VERTEX
  5
37
  8
0
 10
3.842066195438731
 20
1.0128346618527879
 30
0.0
 70
    32
  0
VERTEX
  5
38
  8
0
 10
3.8407841954387298
 20
1.0128856618527879
 30
0.0
 70
    32
  0
VERTEX
  5
39
  8
0
 10
3.8395121954387301
 20
1.0130366618527891
 30
0.0
 70
    32
  0
VERTEX
  5
3A
  8
0
 10
3.838258195438728
 20
1.0132876618527891
 30
0.0
 70
    32
  0
VERTEX
  5
3B
  8
0
 10
3.8370301954387291
 20
1.0136346618527881
 30
0.0
 70
    32
  0
VERTEX
  5
3C
  8
0
 10
3.8358341954387312
 20
1.014077661852788
 30
0.0
 70
    32
  0
VERTEX
  5
3D
  8
0
 10
3.8346761954387301
 20
1.014612661852788
 30
0.0
 70
    32
  0
VERTEX
  5
3E
  8
0
 10
3.8335661954387299
 20
1.015235661852788
 30
0.0
 70
    32
  0
VERTEX
  5
3F
  8
0
 10
3.832508195438729
 20
1.015942661852788
 30
0.0
 70
    32
  0
VERTEX
  5
40
  8
0
 10
3.8315101954387298
 20
1.016730661852788
 30
0.0
 70
    32
  0
VERTEX
  5
41
  8
0
 10
3.8305761954387312
 20
1.017594661852788
 30
0.0
 70
    32
  0
VERTEX
  5
42
  8
0
 10
3.82971319543873
 20
1.018527661852787
 30
0.0
 70
    32
  0
VERTEX
  5
43
  8
0
 10
3.828924195438729
 20
1.0195266618527881
 30
0.0
 70
    32
  0
VERTEX
  5
44
  8
0
 10
3.8282171954387292
 20
1.020584661852789
 30
0.0
 70
    32
  0
VERTEX
  5
45
  8
0
 10
3.82759419543873
 20
1.021694661852788
 30
0.0
 70
    32
  0
VERTEX
  5
46
  8
0
 10
3.8270591954387312
 20
1.022851661852789
 30
0.0
 70
    32
  0
VERTEX
  5
47
  8
0
 10
3.8266171954387289
 20
1.024048661852788
 30
0.0
 70
    32
  0
VERTEX
  5
48
  8
0
 10
3.826268195438729
 20
1.025276661852788
 30
0.0
 70
    32
  0
VERTEX
  5
49
  8
0
 10
3.826019195438731
 20
1.0265316618527891
 30
0.0
 70
    32
  0
VERTEX
  5
4A
  8
0
 10
3.8258671954387289
 20
1.027802661852788
 30
0.0
 70
    32
  0
VERTEX
  5
4B
  8
0
 10
3.8258161954387302
 20
1.0290846618527889
 30
0.0
 70
    32
  0
SEQEND
  5
4C
  8
0
  0
LINE
  5
4D
  8
0
 10
3.8255671954387278
 20
1.111482631508649
 30
0.0
 11
3.8255671954387278
 21
1.0290846618527889
 31
0.0
  0
LINE
  5
4E
  8
0
 10
3.9324741954387301
 20
1.0128346618527879
 30
0.0
 11
4.1027651954387299
 21
1.0128346618527879
 31
0.0
  0
LINE
  5
4F
  8
0
 10
4.035633195438729
 20
1.0202536618527891
 30
0.0
 11
3.9294221954387312
 21
1.0202536618527891
 31
0.0
  0
LINE
  5
50
  8
0
 10
3.9067241954387288
 20
1.0128346618527879
 30
0.0
 11
3.9294221954387312
 21
1.0202536618527891
 31
0.0
  0
LINE
  5
51
  8
0
 10
3.9324741954387301
 20
1.0128346618527879
 30
0.0
 11
3.9057051954387298
 21
1.0040846618527881
 31
0.0
  0
LINE
  5
52
  8
0
 10
3.9324741954387301
 20
1.0128346618527879
 30
0.0
 11
3.9324741954387301
 21
1.0040846618527881
 31
0.0
  0
LINE
  5
53
  8
0
 10
4.035633195438729
 20
1.0202536618527891
 30
0.0
 11
4.035633195438729
 21
1.0128346618527879
 31
0.0
  0
LINE
  5
54
  8
0
 10
3.9507436135071621
 20
1.3595250959959131
 30
0.0
 11
3.820846106596878
 21
1.1258844411903191
 31
0.0
  0
LINE
  5
55
  8
0
 10
3.9571327261975018
 20
1.3546058721672281
 30
0.0
 11
3.8287171214038511
 21
1.123630646353486
 31
0.0
  0
ARC
  5
56
  8
0
 10
4.0006691954387312
 20
1.331542661852789
 30
0.0
 40
0.049268
 50
330.55490885437422
 51
152.08783490413629
  0
ARC
  5
57
  8
0
 10
4.0009987837873799
 20
1.331584661852788
 30
0.0
 40
0.0575
 50
330.92719517139773
 51
150.92719517139761
  0
LINE
  5
58
  8
0
 10
4.0512539540675991
 20
1.303644227709664
 30
0.0
 11
3.9603261954387312
 21
1.1400966618527879
 31
0.0
  0
LINE
  5
59
  8
0
 10
4.0435731102010006
 20
1.307323043315902
 30
0.0
 11
3.953104195438732
 21
1.1445996618527881
 31
0.0
  0
LINE
  5
5A
  8
0
 10
4.1939291954387308
 20
0.9980846618527896
 30
0.0
 11
4.1939291954387308
 21
1.0040846618527881
 31
0.0
  0
POLYLINE
  5
5B
  8
0
 66
     1
 10
0.0
 20
0.0
 30
0.0
 70
     8
  0
VERTEX
  5
5C
  8
0
 10
4.2150661954387312
 20
1.0128346618527879
 30
0.0
 70
    32
  0
VERTEX
  5
5D
  8
0
 10
4.1324061954387297
 20
1.0128346618527879
 30
0.0
 70
    32
  0
SEQEND
  5
5E
  8
0
  0
ARC
  5
5F
  8
0
 10
4.2150661954387312
 20
1.0265846618527881
 30
0.0
 40
0.0225
 50
270.0
 51
89.999992000000006
  0
ARC
  5
60
  8
0
 10
4.2150661954387312
 20
1.0265846618527881
 30
0.0
 40
0.01375
 50
270.0
 51
89.999992000000006
  0
ENDSEC
  0
EOF
