  0
SECTION
  2
HEADER
  9
$ACADVER
  1
AC1015
  9
$ACADMAINTVER
 70
    14
  9
$DWGCODEPAGE
  3
ANSI_1252
  9
$INSBASE
 10
0.0
 20
0.0
 30
0.0
  9
$EXTMIN
 10
4.939667884281597
 20
6.705264863663536
 30
-0.0015258207003583
  9
$EXTMAX
 10
6.772625002372343
 20
7.466538864606587
 30
0.0000000349246037
  9
$LIMMIN
 10
0.0
 20
0.0
  9
$LIMMAX
 10
12.0
 20
9.0
  9
$ORTHOMODE
 70
     0
  9
$REGENMODE
 70
     1
  9
$FILLMODE
 70
     1
  9
$QTEXTMODE
 70
     0
  9
$MIRRTEXT
 70
     1
  9
$LTSCALE
 40
1.0
  9
$ATTMODE
 70
     1
  9
$TEXTSIZE
 40
0.12
  9
$TRACEWID
 40
0.05
  9
$TEXTSTYLE
  7
ROMANS
  9
$CLAYER
  8
0
  9
$CELTYPE
  6
BYLAYER
  9
$CECOLOR
 62
   256
  9
$CELTSCALE
 40
1.0
  9
$DISPSILH
 70
     0
  9
$DIMSCALE
 40
1.0
  9
$DIMASZ
 40
0.15
  9
$DIMEXO
 40
0.09
  9
$DIMDLI
 40
0.38
  9
$DIMRND
 40
0.0
  9
$DIMDLE
 40
0.0
  9
$DIMEXE
 40
0.09
  9
$DIMTP
 40
0.0
  9
$DIMTM
 40
0.0
  9
$DIMTXT
 40
0.12
  9
$DIMCEN
 40
0.0
  9
$DIMTSZ
 40
0.0
  9
$DIMTOL
 70
     0
  9
$DIMLIM
 70
     0
  9
$DIMTIH
 70
     1
  9
$DIMTOH
 70
     1
  9
$DIMSE1
 70
     0
  9
$DIMSE2
 70
     0
  9
$DIMTAD
 70
     0
  9
$DIMZIN
 70
     0
  9
$DIMBLK
  1

  9
$DIMASO
 70
     1
  9
$DIMSHO
 70
     1
  9
$DIMPOST
  1

  9
$DIMAPOST
  1

  9
$DIMALT
 70
     0
  9
$DIMALTD
 70
     2
  9
$DIMALTF
 40
25.4
  9
$DIMLFAC
 40
1.0
  9
$DIMTOFL
 70
     0
  9
$DIMTVP
 40
0.0
  9
$DIMTIX
 70
     0
  9
$DIMSOXD
 70
     0
  9
$DIMSAH
 70
     0
  9
$DIMBLK1
  1

  9
$DIMBLK2
  1

  9
$DIMSTYLE
  2
BILL1
  9
$DIMCLRD
 70
   256
  9
$DIMCLRE
 70
   256
  9
$DIMCLRT
 70
   256
  9
$DIMTFAC
 40
1.0
  9
$DIMGAP
 40
0.09
  9
$DIMJUST
 70
     0
  9
$DIMSD1
 70
     0
  9
$DIMSD2
 70
     0
  9
$DIMTOLJ
 70
     1
  9
$DIMTZIN
 70
     0
  9
$DIMALTZ
 70
     0
  9
$DIMALTTZ
 70
     0
  9
$DIMUPT
 70
     1
  9
$DIMDEC
 70
     3
  9
$DIMTDEC
 70
     4
  9
$DIMALTU
 70
     2
  9
$DIMALTTD
 70
     2
  9
$DIMTXSTY
  7
ROMANS
  9
$DIMAUNIT
 70
     0
  9
$DIMADEC
 70
     0
  9
$DIMALTRND
 40
0.0
  9
$DIMAZIN
 70
     0
  9
$DIMDSEP
 70
    46
  9
$DIMATFIT
 70
     3
  9
$DIMFRAC
 70
     0
  9
$DIMLDRBLK
  1

  9
$DIMLUNIT
 70
     2
  9
$DIMLWD
 70
    -2
  9
$DIMLWE
 70
    -2
  9
$DIMTMOVE
 70
     0
  9
$LUNITS
 70
     2
  9
$LUPREC
 70
     4
  9
$SKETCHINC
 40
0.1
  9
$FILLETRAD
 40
0.0
  9
$AUNITS
 70
     0
  9
$AUPREC
 70
     0
  9
$MENU
  1
.
  9
$ELEVATION
 40
0.0
  9
$PELEVATION
 40
0.0
  9
$THICKNESS
 40
0.0
  9
$LIMCHECK
 70
     0
  9
$CHAMFERA
 40
0.0
  9
$CHAMFERB
 40
0.0
  9
$CHAMFERC
 40
0.0
  9
$CHAMFERD
 40
0.0
  9
$SKPOLY
 70
     0
  9
$TDCREATE
 40
2450457.558857986
  9
$TDUCREATE
 40
2450457.725524652
  9
$TDUPDATE
 40
2453476.647984838
  9
$TDUUPDATE
 40
2453476.814651505
  9
$TDINDWG
 40
0.1070955093
  9
$TDUSRTIMER
 40
0.1070955093
  9
$USRTIMER
 70
     1
  9
$ANGBASE
 50
0.0
  9
$ANGDIR
 70
     0
  9
$PDMODE
 70
     0
  9
$PDSIZE
 40
0.0
  9
$PLINEWID
 40
0.0
  9
$SPLFRAME
 70
     0
  9
$SPLINETYPE
 70
     6
  9
$SPLINESEGS
 70
     8
  9
$HANDSEED
  5
D86
  9
$SURFTAB1
 70
     6
  9
$SURFTAB2
 70
     6
  9
$SURFTYPE
 70
     6
  9
$SURFU
 70
     6
  9
$SURFV
 70
     6
  9
$UCSBASE
  2

  9
$UCSNAME
  2

  9
$UCSORG
 10
0.0
 20
0.0
 30
0.0
  9
$UCSXDIR
 10
1.0
 20
0.0
 30
0.0
  9
$UCSYDIR
 10
0.0
 20
1.0
 30
0.0
  9
$UCSORTHOREF
  2

  9
$UCSORTHOVIEW
 70
     0
  9
$UCSORGTOP
 10
0.0
 20
0.0
 30
0.0
  9
$UCSORGBOTTOM
 10
0.0
 20
0.0
 30
0.0
  9
$UCSORGLEFT
 10
0.0
 20
0.0
 30
0.0
  9
$UCSORGRIGHT
 10
0.0
 20
0.0
 30
0.0
  9
$UCSORGFRONT
 10
0.0
 20
0.0
 30
0.0
  9
$UCSORGBACK
 10
0.0
 20
0.0
 30
0.0
  9
$PUCSBASE
  2

  9
$PUCSNAME
  2

  9
$PUCSORG
 10
0.0
 20
0.0
 30
0.0
  9
$PUCSXDIR
 10
1.0
 20
0.0
 30
0.0
  9
$PUCSYDIR
 10
0.0
 20
1.0
 30
0.0
  9
$PUCSORTHOREF
  2

  9
$PUCSORTHOVIEW
 70
     0
  9
$PUCSORGTOP
 10
0.0
 20
0.0
 30
0.0
  9
$PUCSORGBOTTOM
 10
0.0
 20
0.0
 30
0.0
  9
$PUCSORGLEFT
 10
0.0
 20
0.0
 30
0.0
  9
$PUCSORGRIGHT
 10
0.0
 20
0.0
 30
0.0
  9
$PUCSORGFRONT
 10
0.0
 20
0.0
 30
0.0
  9
$PUCSORGBACK
 10
0.0
 20
0.0
 30
0.0
  9
$USERI1
 70
     0
  9
$USERI2
 70
     0
  9
$USERI3
 70
     0
  9
$USERI4
 70
     0
  9
$USERI5
 70
     0
  9
$USERR1
 40
0.0
  9
$USERR2
 40
0.0
  9
$USERR3
 40
0.0
  9
$USERR4
 40
0.0
  9
$USERR5
 40
0.0
  9
$WORLDVIEW
 70
     1
  9
$SHADEDGE
 70
     3
  9
$SHADEDIF
 70
    70
  9
$TILEMODE
 70
     1
  9
$MAXACTVP
 70
    16
  9
$PINSBASE
 10
0.0
 20
0.0
 30
0.0
  9
$PLIMCHECK
 70
     0
  9
$PEXTMIN
 10
1.000000000000000E+20
 20
1.000000000000000E+20
 30
1.000000000000000E+20
  9
$PEXTMAX
 10
-1.000000000000000E+20
 20
-1.000000000000000E+20
 30
-1.000000000000000E+20
  9
$PLIMMIN
 10
0.0
 20
0.0
  9
$PLIMMAX
 10
12.0
 20
9.0
  9
$UNITMODE
 70
     0
  9
$VISRETAIN
 70
     0
  9
$PLINEGEN
 70
     0
  9
$PSLTSCALE
 70
     1
  9
$TREEDEPTH
 70
  3020
  9
$CMLSTYLE
  2
STANDARD
  9
$CMLJUST
 70
     0
  9
$CMLSCALE
 40
1.0
  9
$PROXYGRAPHICS
 70
     1
  9
$MEASUREMENT
 70
     0
  9
$CELWEIGHT
370
    -1
  9
$ENDCAPS
280
     0
  9
$JOINSTYLE
280
     0
  9
$LWDISPLAY
290
     0
  9
$INSUNITS
 70
     0
  9
$HYPERLINKBASE
  1

  9
$STYLESHEET
  1

  9
$XEDIT
290
     1
  9
$CEPSNTYPE
380
     0
  9
$PSTYLEMODE
290
     1
  9
$FINGERPRINTGUID
  2
{56163D9A-96DB-11D5-A189-C70457E46A2B}
  9
$VERSIONGUID
  2
{4E72B8FA-9F2A-4511-AB40-BF949741976A}
  9
$EXTNAMES
290
     1
  9
$PSVPSCALE
 40
0.0
  9
$OLESTARTUP
290
     0
  0
ENDSEC
  0
SECTION
  2
CLASSES
  0
CLASS
  1
SAVER
  2
Saver
  3
"Just a little object"
 90
        0
280
     0
281
     0
  0
CLASS
  1
ACDBDICTIONARYWDFLT
  2
AcDbDictionaryWithDefault
  3
AutoCAD 2000
 90
        0
280
     0
281
     0
  0
CLASS
  1
ACDBPLACEHOLDER
  2
AcDbPlaceHolder
  3
AutoCAD 2000
 90
        0
280
     0
281
     0
  0
CLASS
  1
LAYOUT
  2
AcDbLayout
  3
AutoCAD 2000
 90
        0
280
     0
281
     0
  0
CLASS
  1
DICTIONARYVAR
  2
AcDbDictionaryVar
  3
AutoCAD 2000
 90
        0
280
     0
281
     0
  0
ENDSEC
  0
SECTION
  2
TABLES
  0
TABLE
  2
VPORT
  5
8
330
0
100
AcDbSymbolTable
 70
     4
  0
VPORT
  5
D85
330
8
100
AcDbSymbolTableRecord
100
AcDbViewportTableRecord
  2
*Active
 70
     0
 10
0.0
 20
0.0
 11
1.0
 21
1.0
 12
5.993664345255893
 22
7.167052623624066
 13
0.0
 23
0.0
 14
1.0
 24
1.0
 15
0.0
 25
0.0
 16
0.0
 26
0.0
 36
1.0
 17
0.0
 27
0.0
 37
0.0
 40
1.500505517814509
 41
2.151057401812688
 42
50.0
 43
0.0
 44
0.0
 50
0.0
 51
0.0
 71
     0
 72
   100
 73
     1
 74
     0
 75
     0
 76
     0
 77
     0
 78
     0
281
     0
 65
     1
110
0.0
120
0.0
130
0.0
111
1.0
121
0.0
131
0.0
112
0.0
122
1.0
132
0.0
 79
     0
146
0.0
  0
ENDTAB
  0
TABLE
  2
LTYPE
  5
5
330
0
100
AcDbSymbolTable
 70
     2
  0
LTYPE
  5
14
330
5
100
AcDbSymbolTableRecord
100
AcDbLinetypeTableRecord
  2
BYBLOCK
 70
     0
  3

 72
    65
 73
     0
 40
0.0
  0
LTYPE
  5
15
330
5
100
AcDbSymbolTableRecord
100
AcDbLinetypeTableRecord
  2
BYLAYER
 70
     0
  3

 72
    65
 73
     0
 40
0.0
  0
LTYPE
  5
16
330
5
100
AcDbSymbolTableRecord
100
AcDbLinetypeTableRecord
  2
CONTINUOUS
 70
     0
  3
Solid line
 72
    65
 73
     0
 40
0.0
  0
LTYPE
  5
44C
330
5
100
AcDbSymbolTableRecord
100
AcDbLinetypeTableRecord
  2
CENTER
 70
     0
  3
____ _ ____ _ ____ _ ____ _ ____ _ ____ _ ____ 
 72
    65
 73
     4
 40
2.0
 49
1.25
 74
     0
 49
-0.25
 74
     0
 49
0.25
 74
     0
 49
-0.25
 74
     0
  0
ENDTAB
  0
TABLE
  2
LAYER
  5
2
330
0
100
AcDbSymbolTable
 70
     6
  0
LAYER
  5
F
330
2
100
AcDbSymbolTableRecord
100
AcDbLayerTableRecord
  2
0
 70
     0
 62
     7
  6
CONTINUOUS
370
    -3
390
732
  0
LAYER
  5
32
330
2
100
AcDbSymbolTableRecord
100
AcDbLayerTableRecord
  2
DIM
 70
     0
 62
     9
  6
CONTINUOUS
370
    -3
390
732
  0
LAYER
  5
44D
330
2
100
AcDbSymbolTableRecord
100
AcDbLayerTableRecord
  2
CEN
 70
     0
 62
     4
  6
CENTER
370
    -3
390
732
  0
LAYER
  5
749
330
2
100
AcDbSymbolTableRecord
100
AcDbLayerTableRecord
  2
Defpoints
 70
     0
 62
     7
  6
CONTINUOUS
290
     0
370
    -3
390
732
  0
LAYER
  5
7AC
330
2
100
AcDbSymbolTableRecord
100
AcDbLayerTableRecord
  2
BORDER
 70
     0
 62
     7
  6
CONTINUOUS
370
    -3
390
732
  0
LAYER
  5
7AD
330
2
100
AcDbSymbolTableRecord
100
AcDbLayerTableRecord
  2
LOGO
 70
     0
 62
     1
  6
CONTINUOUS
370
    -3
390
732
  0
ENDTAB
  0
TABLE
  2
STYLE
  5
3
330
0
100
AcDbSymbolTable
 70
     3
  0
STYLE
  5
10
330
3
100
AcDbSymbolTableRecord
100
AcDbTextStyleTableRecord
  2
STANDARD
 70
     0
 40
0.12
 41
0.75
 50
0.0
 71
     0
 42
0.2
  3
C:\ACADR13\COMMON\FONTS\ROMANS.SHX
  4

  0
STYLE
  5
35
330
3
100
AcDbSymbolTableRecord
100
AcDbTextStyleTableRecord
  2
ROMANS
 70
     0
 40
0.12
 41
0.75
 50
0.0
 71
     0
 42
0.12
  3
C:\ACADR13\COMMON\FONTS\ROMANS.SHX
  4

  0
STYLE
  5
140
330
3
100
AcDbSymbolTableRecord
100
AcDbTextStyleTableRecord
  2
TXT
 70
     0
 40
0.0
 41
1.0
 50
0.0
 71
     0
 42
0.0
  3
TXT
  4

  0
ENDTAB
  0
TABLE
  2
VIEW
  5
6
330
0
100
AcDbSymbolTable
 70
     0
  0
ENDTAB
  0
TABLE
  2
UCS
  5
7
330
0
100
AcDbSymbolTable
 70
     0
  0
ENDTAB
  0
TABLE
  2
APPID
  5
9
330
0
100
AcDbSymbolTable
 70
     2
  0
APPID
  5
11
330
9
100
AcDbSymbolTableRecord
100
AcDbRegAppTableRecord
  2
ACAD
 70
     0
  0
APPID
  5
73C
330
9
100
AcDbSymbolTableRecord
100
AcDbRegAppTableRecord
  2
DCO15
 70
     0
  0
ENDTAB
  0
TABLE
  2
DIMSTYLE
  5
A
330
0
100
AcDbSymbolTable
 70
     4
100
AcDbDimStyleTable
 71
     3
340
36
340
774
340
765
  0
DIMSTYLE
105
36
330
A
100
AcDbSymbolTableRecord
100
AcDbDimStyleTableRecord
  2
BILL1
 70
     0
 41
0.15
 42
0.09
 44
0.09
140
0.12
141
0.0
176
   256
177
   256
178
   256
271
     3
288
     1
340
35
  0
DIMSTYLE
105
765
330
A
100
AcDbSymbolTableRecord
100
AcDbDimStyleTableRecord
  2
4_TO_1
 70
     0
 41
0.15
 42
0.09
 44
0.09
140
0.12
141
0.0
144
0.25
176
   256
177
   256
178
   256
271
     3
272
     3
288
     1
340
35
  0
DIMSTYLE
105
774
330
A
100
AcDbSymbolTableRecord
100
AcDbDimStyleTableRecord
  2
10_TO_1
 70
     0
 41
0.15
 42
0.09
 44
0.09
140
0.12
141
0.0
144
0.1
176
   256
177
   256
178
   256
271
     3
272
     3
288
     1
340
35
  0
DIMSTYLE
105
A8D
330
A
100
AcDbSymbolTableRecord
100
AcDbDimStyleTableRecord
  2
Standard
 70
     0
289
     0
340
10
  0
ENDTAB
  0
TABLE
  2
BLOCK_RECORD
  5
1
330
0
100
AcDbSymbolTable
 70
    12
  0
BLOCK_RECORD
  5
1A
330
1
100
AcDbSymbolTableRecord
100
AcDbBlockTableRecord
  2
*MODEL_SPACE
340
735
  0
BLOCK_RECORD
  5
17
330
1
100
AcDbSymbolTableRecord
100
AcDbBlockTableRecord
  2
*PAPER_SPACE
340
736
  0
BLOCK_RECORD
  5
54
330
1
100
AcDbSymbolTableRecord
100
AcDbBlockTableRecord
  2
XHATCH60
340
0
102
{BLKREFS
331
49F
331
8C9
102
}
  0
BLOCK_RECORD
  5
478
330
1
100
AcDbSymbolTableRecord
100
AcDbBlockTableRecord
  2
BORDER
340
0
  0
BLOCK_RECORD
  5
CEF
330
1
100
AcDbSymbolTableRecord
100
AcDbBlockTableRecord
  2
*D8
340
0
  0
BLOCK_RECORD
  5
D11
330
1
100
AcDbSymbolTableRecord
100
AcDbBlockTableRecord
  2
*D9
340
0
  0
BLOCK_RECORD
  5
D37
330
1
100
AcDbSymbolTableRecord
100
AcDbBlockTableRecord
  2
*D11
340
0
  0
ENDTAB
  0
ENDSEC
  0
SECTION
  2
BLOCKS
  0
BLOCK
  5
1B
330
1A
100
AcDbEntity
  8
0
100
AcDbBlockBegin
  2
*MODEL_SPACE
 70
     0
 10
0.0
 20
0.0
 30
0.0
  3
*MODEL_SPACE
  1

  0
ENDBLK
  5
1C
330
1A
100
AcDbEntity
  8
0
100
AcDbBlockEnd
  0
BLOCK
  5
18
330
17
100
AcDbEntity
 67
     1
  8
0
100
AcDbBlockBegin
  2
*PAPER_SPACE
 70
     0
 10
0.0
 20
0.0
 30
0.0
  3
*PAPER_SPACE
  1

  0
ENDBLK
  5
19
330
17
100
AcDbEntity
 67
     1
  8
0
100
AcDbBlockEnd
  0
BLOCK
  5
12D
330
54
100
AcDbEntity
  8
0
100
AcDbBlockBegin
  2
XHATCH60
 70
     0
 10
0.0
 20
0.0
 30
0.0
  3
XHATCH60
  1

  0
LINE
  5
55
330
54
100
AcDbEntity
  8
0
100
AcDbLine
 10
3.905216
 20
9.720098
 30
0.0
 11
4.787323999999999
 21
9.720093999999999
 31
0.0
  0
LINE
  5
56
330
54
100
AcDbEntity
  8
0
100
AcDbLine
 10
3.890922
 20
9.710096999999999
 30
0.0
 11
4.801611
 21
9.710092999999998
 31
0.0
  0
LINE
  5
57
330
54
100
AcDbEntity
  8
0
100
AcDbLine
 10
3.883504
 20
9.700096999999999
 30
0.0
 11
4.809029999999999
 21
9.700092999999998
 31
0.0
  0
LINE
  5
58
330
54
100
AcDbEntity
  8
0
100
AcDbLine
 10
3.879360999999999
 20
9.690096999999999
 30
0.0
 11
4.813171999999999
 21
9.690092999999999
 31
0.0
  0
LINE
  5
59
330
54
100
AcDbEntity
  8
0
100
AcDbLine
 10
3.877763999999999
 20
9.680096999999999
 30
0.0
 11
4.814767999999999
 21
9.680092999999999
 31
0.0
  0
LINE
  5
5A
330
54
100
AcDbEntity
  8
0
100
AcDbLine
 10
3.877297
 20
9.670096
 30
0.0
 11
4.815233999999999
 21
9.670092999999999
 31
0.0
  0
LINE
  5
5B
330
54
100
AcDbEntity
  8
0
100
AcDbLine
 10
3.877297
 20
9.660096000000001
 30
0.0
 11
4.815233999999999
 21
9.660092
 31
0.0
  0
LINE
  5
5C
330
54
100
AcDbEntity
  8
0
100
AcDbLine
 10
3.877297
 20
9.650096000000001
 30
0.0
 11
4.815233999999999
 21
9.650091999999999
 31
0.0
  0
LINE
  5
5D
330
54
100
AcDbEntity
  8
0
100
AcDbLine
 10
3.877297
 20
9.640095999999999
 30
0.0
 11
4.815233999999999
 21
9.640091999999999
 31
0.0
  0
LINE
  5
5E
330
54
100
AcDbEntity
  8
0
100
AcDbLine
 10
3.877297
 20
9.630094999999998
 30
0.0
 11
4.815233999999999
 21
9.630091999999999
 31
0.0
  0
LINE
  5
5F
330
54
100
AcDbEntity
  8
0
100
AcDbLine
 10
3.877297
 20
9.620094999999999
 30
0.0
 11
4.815233999999999
 21
9.620091
 31
0.0
  0
LINE
  5
60
330
54
100
AcDbEntity
  8
0
100
AcDbLine
 10
3.877295999999999
 20
9.610094999999999
 30
0.0
 11
4.815233999999999
 21
9.610091
 31
0.0
  0
LINE
  5
61
330
54
100
AcDbEntity
  8
0
100
AcDbLine
 10
3.877295999999999
 20
9.600094999999999
 30
0.0
 11
4.815233999999999
 21
9.600091
 31
0.0
  0
LINE
  5
62
330
54
100
AcDbEntity
  8
0
100
AcDbLine
 10
3.877295999999999
 20
9.590094999999999
 30
0.0
 11
4.815233999999999
 21
9.590091000000001
 31
0.0
  0
LINE
  5
63
330
54
100
AcDbEntity
  8
0
100
AcDbLine
 10
3.877295999999999
 20
9.580094
 30
0.0
 11
4.815233999999999
 21
9.580090999999999
 31
0.0
  0
LINE
  5
64
330
54
100
AcDbEntity
  8
0
100
AcDbLine
 10
3.877295999999999
 20
9.570094
 30
0.0
 11
4.815233999999999
 21
9.570089999999998
 31
0.0
  0
LINE
  5
65
330
54
100
AcDbEntity
  8
0
100
AcDbLine
 10
3.877295999999999
 20
9.560093999999999
 30
0.0
 11
4.815234999999999
 21
9.560089999999998
 31
0.0
  0
LINE
  5
66
330
54
100
AcDbEntity
  8
0
100
AcDbLine
 10
3.877295999999999
 20
9.550093999999999
 30
0.0
 11
4.815234999999999
 21
9.550089999999999
 31
0.0
  0
LINE
  5
67
330
54
100
AcDbEntity
  8
0
100
AcDbLine
 10
3.877295999999999
 20
9.540092999999998
 30
0.0
 11
4.815234999999999
 21
9.540089999999999
 31
0.0
  0
LINE
  5
68
330
54
100
AcDbEntity
  8
0
100
AcDbLine
 10
3.877295999999999
 20
9.530092999999999
 30
0.0
 11
4.815234999999999
 21
9.530089
 31
0.0
  0
LINE
  5
69
330
54
100
AcDbEntity
  8
0
100
AcDbLine
 10
3.877297
 20
9.520092999999999
 30
0.0
 11
4.815234999999999
 21
9.520089
 31
0.0
  0
LINE
  5
6A
330
54
100
AcDbEntity
  8
0
100
AcDbLine
 10
3.877297
 20
9.510092999999999
 30
0.0
 11
4.815234999999999
 21
9.510089
 31
0.0
  0
LINE
  5
6B
330
54
100
AcDbEntity
  8
0
100
AcDbLine
 10
3.877297
 20
9.500092999999999
 30
0.0
 11
4.815234999999999
 21
9.500088999999999
 31
0.0
  0
LINE
  5
6C
330
54
100
AcDbEntity
  8
0
100
AcDbLine
 10
3.877297
 20
9.490092
 30
0.0
 11
4.815234999999999
 21
9.490088
 31
0.0
  0
LINE
  5
6D
330
54
100
AcDbEntity
  8
0
100
AcDbLine
 10
3.877295999999999
 20
9.480091999999999
 30
0.0
 11
4.815234999999999
 21
9.480088
 31
0.0
  0
LINE
  5
6E
330
54
100
AcDbEntity
  8
0
100
AcDbLine
 10
3.877295999999999
 20
9.470091999999999
 30
0.0
 11
4.815234999999999
 21
9.470088
 31
0.0
  0
LINE
  5
6F
330
54
100
AcDbEntity
  8
0
100
AcDbLine
 10
3.877295999999999
 20
9.460091999999999
 30
0.0
 11
4.815234999999999
 21
9.460088
 31
0.0
  0
LINE
  5
70
330
54
100
AcDbEntity
  8
0
100
AcDbLine
 10
3.877295999999999
 20
9.450091
 30
0.0
 11
4.815234999999999
 21
9.450088
 31
0.0
  0
LINE
  5
71
330
54
100
AcDbEntity
  8
0
100
AcDbLine
 10
3.877295999999999
 20
9.440091
 30
0.0
 11
4.815234999999999
 21
9.440087
 31
0.0
  0
LINE
  5
72
330
54
100
AcDbEntity
  8
0
100
AcDbLine
 10
3.877295999999999
 20
9.430091
 30
0.0
 11
4.815234999999999
 21
9.430087
 31
0.0
  0
LINE
  5
73
330
54
100
AcDbEntity
  8
0
100
AcDbLine
 10
3.877295999999999
 20
9.420091000000001
 30
0.0
 11
4.815234999999999
 21
9.420086999999998
 31
0.0
  0
LINE
  5
74
330
54
100
AcDbEntity
  8
0
100
AcDbLine
 10
3.877295999999999
 20
9.41009
 30
0.0
 11
4.815233999999999
 21
9.410086999999998
 31
0.0
  0
LINE
  5
75
330
54
100
AcDbEntity
  8
0
100
AcDbLine
 10
3.877295999999999
 20
9.400089999999998
 30
0.0
 11
4.815233999999999
 21
9.400085999999999
 31
0.0
  0
LINE
  5
76
330
54
100
AcDbEntity
  8
0
100
AcDbLine
 10
3.877295999999999
 20
9.390089999999998
 30
0.0
 11
4.815233999999999
 21
9.390086
 31
0.0
  0
LINE
  5
77
330
54
100
AcDbEntity
  8
0
100
AcDbLine
 10
3.877295999999999
 20
9.380089999999999
 30
0.0
 11
4.815233999999999
 21
9.380086
 31
0.0
  0
LINE
  5
78
330
54
100
AcDbEntity
  8
0
100
AcDbLine
 10
3.877297
 20
9.370089999999999
 30
0.0
 11
4.815233999999999
 21
9.370086
 31
0.0
  0
LINE
  5
79
330
54
100
AcDbEntity
  8
0
100
AcDbLine
 10
3.877297
 20
9.360089
 30
0.0
 11
4.815233999999999
 21
9.360084999999999
 31
0.0
  0
LINE
  5
7A
330
54
100
AcDbEntity
  8
0
100
AcDbLine
 10
3.877295999999999
 20
9.350089
 30
0.0
 11
4.815233999999999
 21
9.350084999999999
 31
0.0
  0
LINE
  5
7B
330
54
100
AcDbEntity
  8
0
100
AcDbLine
 10
3.877295999999999
 20
9.340089
 30
0.0
 11
4.815233999999999
 21
9.340085
 31
0.0
  0
LINE
  5
7C
330
54
100
AcDbEntity
  8
0
100
AcDbLine
 10
3.877295999999999
 20
9.330088999999999
 30
0.0
 11
4.815233999999999
 21
9.330085
 31
0.0
  0
LINE
  5
7D
330
54
100
AcDbEntity
  8
0
100
AcDbLine
 10
3.877295999999999
 20
9.320088
 30
0.0
 11
4.815233999999999
 21
9.320085
 31
0.0
  0
LINE
  5
7E
330
54
100
AcDbEntity
  8
0
100
AcDbLine
 10
3.877295999999999
 20
9.310088
 30
0.0
 11
4.815233999999999
 21
9.310083999999999
 31
0.0
  0
LINE
  5
7F
330
54
100
AcDbEntity
  8
0
100
AcDbLine
 10
3.877295999999999
 20
9.300088
 30
0.0
 11
4.815233999999999
 21
9.300084
 31
0.0
  0
LINE
  5
80
330
54
100
AcDbEntity
  8
0
100
AcDbLine
 10
3.877295999999999
 20
9.290088
 30
0.0
 11
4.815233999999999
 21
9.290084
 31
0.0
  0
LINE
  5
81
330
54
100
AcDbEntity
  8
0
100
AcDbLine
 10
3.877295999999999
 20
9.280086999999999
 30
0.0
 11
4.815233999999999
 21
9.280084
 31
0.0
  0
LINE
  5
82
330
54
100
AcDbEntity
  8
0
100
AcDbLine
 10
3.877295999999999
 20
9.270087
 30
0.0
 11
4.815233999999999
 21
9.270082999999999
 31
0.0
  0
LINE
  5
83
330
54
100
AcDbEntity
  8
0
100
AcDbLine
 10
3.877295999999999
 20
9.260087
 30
0.0
 11
4.815233999999999
 21
9.260082999999999
 31
0.0
  0
LINE
  5
84
330
54
100
AcDbEntity
  8
0
100
AcDbLine
 10
3.877295999999999
 20
9.250086999999998
 30
0.0
 11
4.815233999999999
 21
9.250083
 31
0.0
  0
LINE
  5
85
330
54
100
AcDbEntity
  8
0
100
AcDbLine
 10
3.877295999999999
 20
9.240086999999999
 30
0.0
 11
4.815233999999999
 21
9.240083
 31
0.0
  0
LINE
  5
86
330
54
100
AcDbEntity
  8
0
100
AcDbLine
 10
3.877295999999999
 20
9.230086
 30
0.0
 11
4.815233999999999
 21
9.230083
 31
0.0
  0
LINE
  5
87
330
54
100
AcDbEntity
  8
0
100
AcDbLine
 10
3.877295999999999
 20
9.220086
 30
0.0
 11
4.815233999999999
 21
9.220082000000001
 31
0.0
  0
LINE
  5
88
330
54
100
AcDbEntity
  8
0
100
AcDbLine
 10
3.877295999999999
 20
9.210086
 30
0.0
 11
4.815233999999999
 21
9.210081999999999
 31
0.0
  0
LINE
  5
89
330
54
100
AcDbEntity
  8
0
100
AcDbLine
 10
3.877295999999999
 20
9.200086
 30
0.0
 11
4.815233999999999
 21
9.200082
 31
0.0
  0
LINE
  5
8A
330
54
100
AcDbEntity
  8
0
100
AcDbLine
 10
3.877295999999999
 20
9.190084999999999
 30
0.0
 11
4.815233999999999
 21
9.190082
 31
0.0
  0
LINE
  5
8B
330
54
100
AcDbEntity
  8
0
100
AcDbLine
 10
3.877295999999999
 20
9.180085
 30
0.0
 11
4.815234999999999
 21
9.180080999999999
 31
0.0
  0
LINE
  5
8C
330
54
100
AcDbEntity
  8
0
100
AcDbLine
 10
3.877295999999999
 20
9.170085
 30
0.0
 11
4.815234999999999
 21
9.170080999999999
 31
0.0
  0
LINE
  5
8D
330
54
100
AcDbEntity
  8
0
100
AcDbLine
 10
3.877295999999999
 20
9.160085
 30
0.0
 11
4.815233999999999
 21
9.160080999999999
 31
0.0
  0
LINE
  5
8E
330
54
100
AcDbEntity
  8
0
100
AcDbLine
 10
3.877295999999999
 20
9.150083999999999
 30
0.0
 11
4.815233999999999
 21
9.150081
 31
0.0
  0
LINE
  5
8F
330
54
100
AcDbEntity
  8
0
100
AcDbLine
 10
3.877295999999999
 20
9.140083999999999
 30
0.0
 11
3.993351
 21
9.140083
 31
0.0
  0
LINE
  5
90
330
54
100
AcDbEntity
  8
0
100
AcDbLine
 10
4.131352999999999
 20
9.140083
 30
0.0
 11
4.232235
 21
9.140082000000001
 31
0.0
  0
LINE
  5
91
330
54
100
AcDbEntity
  8
0
100
AcDbLine
 10
4.268182
 20
9.140082000000001
 30
0.0
 11
4.339730999999999
 21
9.140082000000001
 31
0.0
  0
LINE
  5
92
330
54
100
AcDbEntity
  8
0
100
AcDbLine
 10
4.375677999999999
 20
9.140082000000001
 30
0.0
 11
4.70593
 21
9.140081
 31
0.0
  0
LINE
  5
93
330
54
100
AcDbEntity
  8
0
100
AcDbLine
 10
4.741877999999999
 20
9.140080000000001
 30
0.0
 11
4.815233999999999
 21
9.140080000000001
 31
0.0
  0
LINE
  5
94
330
54
100
AcDbEntity
  8
0
100
AcDbLine
 10
3.877295999999999
 20
9.130084
 30
0.0
 11
3.987903999999999
 21
9.130083
 31
0.0
  0
LINE
  5
95
330
54
100
AcDbEntity
  8
0
100
AcDbLine
 10
4.128674
 20
9.130083
 30
0.0
 11
4.229555
 21
9.130082000000001
 31
0.0
  0
LINE
  5
96
330
54
100
AcDbEntity
  8
0
100
AcDbLine
 10
4.265501999999999
 20
9.130082000000001
 30
0.0
 11
4.337050999999999
 21
9.130082000000001
 31
0.0
  0
LINE
  5
97
330
54
100
AcDbEntity
  8
0
100
AcDbLine
 10
4.372997999999999
 20
9.130082000000001
 30
0.0
 11
4.703249999999999
 21
9.130081
 31
0.0
  0
LINE
  5
98
330
54
100
AcDbEntity
  8
0
100
AcDbLine
 10
4.739199
 20
9.130079999999999
 30
0.0
 11
4.815233999999999
 21
9.130079999999999
 31
0.0
  0
LINE
  5
99
330
54
100
AcDbEntity
  8
0
100
AcDbLine
 10
3.877295999999999
 20
9.120084
 30
0.0
 11
3.98994
 21
9.120083000000001
 31
0.0
  0
LINE
  5
9A
330
54
100
AcDbEntity
  8
0
100
AcDbLine
 10
4.125994999999999
 20
9.120083000000001
 30
0.0
 11
4.226875999999999
 21
9.120082
 31
0.0
  0
LINE
  5
9B
330
54
100
AcDbEntity
  8
0
100
AcDbLine
 10
4.262823
 20
9.120082
 30
0.0
 11
4.334373
 21
9.120082
 31
0.0
  0
LINE
  5
9C
330
54
100
AcDbEntity
  8
0
100
AcDbLine
 10
4.370318
 20
9.120082
 30
0.0
 11
4.700569999999999
 21
9.120080999999998
 31
0.0
  0
LINE
  5
9D
330
54
100
AcDbEntity
  8
0
100
AcDbLine
 10
4.736519
 20
9.120080999999998
 30
0.0
 11
4.815233999999999
 21
9.120079999999999
 31
0.0
  0
LINE
  5
9E
330
54
100
AcDbEntity
  8
0
100
AcDbLine
 10
3.877295999999999
 20
9.110084
 30
0.0
 11
3.993791
 21
9.110082999999999
 31
0.0
  0
LINE
  5
9F
330
54
100
AcDbEntity
  8
0
100
AcDbLine
 10
4.123315999999999
 20
9.110082999999999
 30
0.0
 11
4.224196
 21
9.110082
 31
0.0
  0
LINE
  5
A0
330
54
100
AcDbEntity
  8
0
100
AcDbLine
 10
4.260144
 20
9.110082
 30
0.0
 11
4.331693
 21
9.110082
 31
0.0
  0
LINE
  5
A1
330
54
100
AcDbEntity
  8
0
100
AcDbLine
 10
4.367639999999999
 20
9.110082
 30
0.0
 11
4.697891
 21
9.110080999999999
 31
0.0
  0
LINE
  5
A2
330
54
100
AcDbEntity
  8
0
100
AcDbLine
 10
4.733838999999999
 20
9.110080999999999
 30
0.0
 11
4.815233999999999
 21
9.110079999999999
 31
0.0
  0
LINE
  5
A3
330
54
100
AcDbEntity
  8
0
100
AcDbLine
 10
3.877295999999999
 20
9.100082999999999
 30
0.0
 11
3.997641999999999
 21
9.100082
 31
0.0
  0
LINE
  5
A4
330
54
100
AcDbEntity
  8
0
100
AcDbLine
 10
4.031125
 20
9.100082
 30
0.0
 11
4.221516999999999
 21
9.100080999999999
 31
0.0
  0
LINE
  5
A5
330
54
100
AcDbEntity
  8
0
100
AcDbLine
 10
4.257463999999999
 20
9.100080999999999
 30
0.0
 11
4.329012999999999
 21
9.100080999999999
 31
0.0
  0
LINE
  5
A6
330
54
100
AcDbEntity
  8
0
100
AcDbLine
 10
4.364959999999999
 20
9.100080999999999
 30
0.0
 11
4.695211
 21
9.10008
 31
0.0
  0
LINE
  5
A7
330
54
100
AcDbEntity
  8
0
100
AcDbLine
 10
4.731158999999999
 20
9.10008
 30
0.0
 11
4.815233999999999
 21
9.10008
 31
0.0
  0
LINE
  5
A8
330
54
100
AcDbEntity
  8
0
100
AcDbLine
 10
3.877295999999999
 20
9.090082999999999
 30
0.0
 11
4.001492999999999
 21
9.090082
 31
0.0
  0
LINE
  5
A9
330
54
100
AcDbEntity
  8
0
100
AcDbLine
 10
4.034975
 20
9.090082
 30
0.0
 11
4.116207
 21
9.090082
 31
0.0
  0
LINE
  5
AA
330
54
100
AcDbEntity
  8
0
100
AcDbLine
 10
4.211935999999999
 20
9.090082
 30
0.0
 11
4.218837
 21
9.090082
 31
0.0
  0
LINE
  5
AB
330
54
100
AcDbEntity
  8
0
100
AcDbLine
 10
4.31235
 20
9.090080999999999
 30
0.0
 11
4.326332999999999
 21
9.090080999999999
 31
0.0
  0
LINE
  5
AC
330
54
100
AcDbEntity
  8
0
100
AcDbLine
 10
4.36228
 20
9.090080999999999
 30
0.0
 11
4.370709999999999
 21
9.090080999999999
 31
0.0
  0
LINE
  5
AD
330
54
100
AcDbEntity
  8
0
100
AcDbLine
 10
4.462928999999999
 20
9.090080999999999
 30
0.0
 11
4.478493
 21
9.090080999999999
 31
0.0
  0
LINE
  5
AE
330
54
100
AcDbEntity
  8
0
100
AcDbLine
 10
4.570947
 20
9.09008
 30
0.0
 11
4.579374999999999
 21
9.09008
 31
0.0
  0
LINE
  5
AF
330
54
100
AcDbEntity
  8
0
100
AcDbLine
 10
4.678494999999999
 20
9.09008
 30
0.0
 11
4.692531999999999
 21
9.09008
 31
0.0
  0
LINE
  5
B0
330
54
100
AcDbEntity
  8
0
100
AcDbLine
 10
4.72848
 20
9.09008
 30
0.0
 11
4.815233999999999
 21
9.090078999999999
 31
0.0
  0
LINE
  5
B1
330
54
100
AcDbEntity
  8
0
100
AcDbLine
 10
3.877295999999999
 20
9.080083
 30
0.0
 11
4.005344
 21
9.080082
 31
0.0
  0
LINE
  5
B2
330
54
100
AcDbEntity
  8
0
100
AcDbLine
 10
4.038826999999999
 20
9.080082
 30
0.0
 11
4.108373999999999
 21
9.080082
 31
0.0
  0
LINE
  5
B3
330
54
100
AcDbEntity
  8
0
100
AcDbLine
 10
4.209255999999999
 20
9.080082
 30
0.0
 11
4.216158
 21
9.080082
 31
0.0
  0
LINE
  5
B4
330
54
100
AcDbEntity
  8
0
100
AcDbLine
 10
4.315844999999999
 20
9.080080999999999
 30
0.0
 11
4.323654
 21
9.080080999999999
 31
0.0
  0
LINE
  5
B5
330
54
100
AcDbEntity
  8
0
100
AcDbLine
 10
4.3596
 20
9.080080999999999
 30
0.0
 11
4.366502999999999
 21
9.080080999999999
 31
0.0
  0
LINE
  5
B6
330
54
100
AcDbEntity
  8
0
100
AcDbLine
 10
4.466420999999999
 20
9.080080999999999
 30
0.0
 11
4.474286
 21
9.080080999999999
 31
0.0
  0
LINE
  5
B7
330
54
100
AcDbEntity
  8
0
100
AcDbLine
 10
4.568266999999999
 20
9.08008
 30
0.0
 11
4.575167999999999
 21
9.08008
 31
0.0
  0
LINE
  5
B8
330
54
100
AcDbEntity
  8
0
100
AcDbLine
 10
4.681987999999999
 20
9.08008
 30
0.0
 11
4.689853
 21
9.08008
 31
0.0
  0
LINE
  5
B9
330
54
100
AcDbEntity
  8
0
100
AcDbLine
 10
4.725801
 20
9.08008
 30
0.0
 11
4.815233999999999
 21
9.080078999999999
 31
0.0
  0
LINE
  5
BA
330
54
100
AcDbEntity
  8
0
100
AcDbLine
 10
3.877295999999999
 20
9.070083
 30
0.0
 11
4.009195
 21
9.070082000000001
 31
0.0
  0
LINE
  5
BB
330
54
100
AcDbEntity
  8
0
100
AcDbLine
 10
4.042677999999999
 20
9.070082000000001
 30
0.0
 11
4.105694999999999
 21
9.070082000000001
 31
0.0
  0
LINE
  5
BC
330
54
100
AcDbEntity
  8
0
100
AcDbLine
 10
4.206576
 20
9.070082000000001
 30
0.0
 11
4.213478
 21
9.070082000000001
 31
0.0
  0
LINE
  5
BD
330
54
100
AcDbEntity
  8
0
100
AcDbLine
 10
4.314072
 20
9.070081
 30
0.0
 11
4.320973999999999
 21
9.070081
 31
0.0
  0
LINE
  5
BE
330
54
100
AcDbEntity
  8
0
100
AcDbLine
 10
4.356920999999999
 20
9.070081
 30
0.0
 11
4.363823
 21
9.070081
 31
0.0
  0
LINE
  5
BF
330
54
100
AcDbEntity
  8
0
100
AcDbLine
 10
4.464705
 20
9.070081
 30
0.0
 11
4.471605999999999
 21
9.070081
 31
0.0
  0
LINE
  5
C0
330
54
100
AcDbEntity
  8
0
100
AcDbLine
 10
4.565586999999999
 20
9.07008
 30
0.0
 11
4.572487999999999
 21
9.07008
 31
0.0
  0
LINE
  5
C1
330
54
100
AcDbEntity
  8
0
100
AcDbLine
 10
4.680271
 20
9.07008
 30
0.0
 11
4.687173
 21
9.07008
 31
0.0
  0
LINE
  5
C2
330
54
100
AcDbEntity
  8
0
100
AcDbLine
 10
4.723120999999999
 20
9.07008
 30
0.0
 11
4.815233999999999
 21
9.070078999999999
 31
0.0
  0
LINE
  5
C3
330
54
100
AcDbEntity
  8
0
100
AcDbLine
 10
3.877295999999999
 20
9.060082000000001
 30
0.0
 11
4.013046
 21
9.060081
 31
0.0
  0
LINE
  5
C4
330
54
100
AcDbEntity
  8
0
100
AcDbLine
 10
4.046529
 20
9.060081
 30
0.0
 11
4.103015
 21
9.060081
 31
0.0
  0
LINE
  5
C5
330
54
100
AcDbEntity
  8
0
100
AcDbLine
 10
4.137062
 20
9.060081
 30
0.0
 11
4.210798
 21
9.060081
 31
0.0
  0
LINE
  5
C6
330
54
100
AcDbEntity
  8
0
100
AcDbLine
 10
4.246745999999999
 20
9.060081
 30
0.0
 11
4.270658
 21
9.060081
 31
0.0
  0
LINE
  5
C7
330
54
100
AcDbEntity
  8
0
100
AcDbLine
 10
4.311392999999999
 20
9.060081
 30
0.0
 11
4.318294999999999
 21
9.060081
 31
0.0
  0
LINE
  5
C8
330
54
100
AcDbEntity
  8
0
100
AcDbLine
 10
4.354241
 20
9.060081
 30
0.0
 11
4.361144
 21
9.060081
 31
0.0
  0
LINE
  5
C9
330
54
100
AcDbEntity
  8
0
100
AcDbLine
 10
4.393467
 20
9.060081
 30
0.0
 11
4.428676
 21
9.060081
 31
0.0
  0
LINE
  5
CA
330
54
100
AcDbEntity
  8
0
100
AcDbLine
 10
4.462025999999999
 20
9.060081
 30
0.0
 11
4.468926999999999
 21
9.060081
 31
0.0
  0
LINE
  5
CB
330
54
100
AcDbEntity
  8
0
100
AcDbLine
 10
4.501249999999999
 20
9.060080000000001
 30
0.0
 11
4.530583
 21
9.060080000000001
 31
0.0
  0
LINE
  5
CC
330
54
100
AcDbEntity
  8
0
100
AcDbLine
 10
4.562907
 20
9.060080000000001
 30
0.0
 11
4.569808999999999
 21
9.060080000000001
 31
0.0
  0
LINE
  5
CD
330
54
100
AcDbEntity
  8
0
100
AcDbLine
 10
4.602133
 20
9.060080000000001
 30
0.0
 11
4.644242
 21
9.060080000000001
 31
0.0
  0
LINE
  5
CE
330
54
100
AcDbEntity
  8
0
100
AcDbLine
 10
4.677591999999999
 20
9.060080000000001
 30
0.0
 11
4.684492999999999
 21
9.060080000000001
 31
0.0
  0
LINE
  5
CF
330
54
100
AcDbEntity
  8
0
100
AcDbLine
 10
4.720442
 20
9.060080000000001
 30
0.0
 11
4.815233999999999
 21
9.060078999999999
 31
0.0
  0
LINE
  5
D0
330
54
100
AcDbEntity
  8
0
100
AcDbLine
 10
3.877295999999999
 20
9.050082000000001
 30
0.0
 11
4.016897
 21
9.050081
 31
0.0
  0
LINE
  5
D1
330
54
100
AcDbEntity
  8
0
100
AcDbLine
 10
4.05038
 20
9.050081
 30
0.0
 11
4.100335
 21
9.050081
 31
0.0
  0
LINE
  5
D2
330
54
100
AcDbEntity
  8
0
100
AcDbLine
 10
4.132658999999999
 20
9.050081
 30
0.0
 11
4.208118999999999
 21
9.050081
 31
0.0
  0
LINE
  5
D3
330
54
100
AcDbEntity
  8
0
100
AcDbLine
 10
4.244066
 20
9.050079999999999
 30
0.0
 11
4.272823
 21
9.050079999999999
 31
0.0
  0
LINE
  5
D4
330
54
100
AcDbEntity
  8
0
100
AcDbLine
 10
4.308713
 20
9.050079999999999
 30
0.0
 11
4.315616
 21
9.050079999999999
 31
0.0
  0
LINE
  5
D5
330
54
100
AcDbEntity
  8
0
100
AcDbLine
 10
4.351562
 20
9.050079999999999
 30
0.0
 11
4.358463999999999
 21
9.050079999999999
 31
0.0
  0
LINE
  5
D6
330
54
100
AcDbEntity
  8
0
100
AcDbLine
 10
4.459346
 20
9.050079999999999
 30
0.0
 11
4.466248
 21
9.050079999999999
 31
0.0
  0
LINE
  5
D7
330
54
100
AcDbEntity
  8
0
100
AcDbLine
 10
4.498569999999999
 20
9.050079
 30
0.0
 11
4.527904
 21
9.050079
 31
0.0
  0
LINE
  5
D8
330
54
100
AcDbEntity
  8
0
100
AcDbLine
 10
4.560227999999999
 20
9.050079
 30
0.0
 11
4.567129
 21
9.050079
 31
0.0
  0
LINE
  5
D9
330
54
100
AcDbEntity
  8
0
100
AcDbLine
 10
4.674911999999999
 20
9.050079
 30
0.0
 11
4.681814
 21
9.050079
 31
0.0
  0
LINE
  5
DA
330
54
100
AcDbEntity
  8
0
100
AcDbLine
 10
4.717762
 20
9.050079
 30
0.0
 11
4.815233999999999
 21
9.050077999999999
 31
0.0
  0
LINE
  5
DB
330
54
100
AcDbEntity
  8
0
100
AcDbLine
 10
3.877295999999999
 20
9.040081999999999
 30
0.0
 11
4.020748
 21
9.040080999999998
 31
0.0
  0
LINE
  5
DC
330
54
100
AcDbEntity
  8
0
100
AcDbLine
 10
4.054230999999999
 20
9.040080999999998
 30
0.0
 11
4.097655999999999
 21
9.040080999999998
 31
0.0
  0
LINE
  5
DD
330
54
100
AcDbEntity
  8
0
100
AcDbLine
 10
4.12998
 20
9.040080999999998
 30
0.0
 11
4.20544
 21
9.040080999999998
 31
0.0
  0
LINE
  5
DE
330
54
100
AcDbEntity
  8
0
100
AcDbLine
 10
4.241386
 20
9.040079999999999
 30
0.0
 11
4.270144
 21
9.040079999999999
 31
0.0
  0
LINE
  5
DF
330
54
100
AcDbEntity
  8
0
100
AcDbLine
 10
4.306033
 20
9.040079999999999
 30
0.0
 11
4.312935999999999
 21
9.040079999999999
 31
0.0
  0
LINE
  5
E0
330
54
100
AcDbEntity
  8
0
100
AcDbLine
 10
4.348882999999999
 20
9.040079999999999
 30
0.0
 11
4.355783999999999
 21
9.040079999999999
 31
0.0
  0
LINE
  5
E1
330
54
100
AcDbEntity
  8
0
100
AcDbLine
 10
4.456666
 20
9.040079999999999
 30
0.0
 11
4.463568
 21
9.040079999999999
 31
0.0
  0
LINE
  5
E2
330
54
100
AcDbEntity
  8
0
100
AcDbLine
 10
4.495891
 20
9.040078999999998
 30
0.0
 11
4.525223999999999
 21
9.040078999999998
 31
0.0
  0
LINE
  5
E3
330
54
100
AcDbEntity
  8
0
100
AcDbLine
 10
4.557548999999999
 20
9.040078999999998
 30
0.0
 11
4.564448999999999
 21
9.040078999999998
 31
0.0
  0
LINE
  5
E4
330
54
100
AcDbEntity
  8
0
100
AcDbLine
 10
4.672233
 20
9.040078999999998
 30
0.0
 11
4.679133999999999
 21
9.040078999999998
 31
0.0
  0
LINE
  5
E5
330
54
100
AcDbEntity
  8
0
100
AcDbLine
 10
4.715081999999999
 20
9.040078999999998
 30
0.0
 11
4.815233999999999
 21
9.040077999999999
 31
0.0
  0
LINE
  5
E6
330
54
100
AcDbEntity
  8
0
100
AcDbLine
 10
3.877295999999999
 20
9.030082
 30
0.0
 11
4.0246
 21
9.030080999999999
 31
0.0
  0
LINE
  5
E7
330
54
100
AcDbEntity
  8
0
100
AcDbLine
 10
4.058081999999999
 20
9.030080999999999
 30
0.0
 11
4.094975999999999
 21
9.030080999999999
 31
0.0
  0
LINE
  5
E8
330
54
100
AcDbEntity
  8
0
100
AcDbLine
 10
4.127299999999999
 20
9.030080999999999
 30
0.0
 11
4.202760999999999
 21
9.030080999999999
 31
0.0
  0
LINE
  5
E9
330
54
100
AcDbEntity
  8
0
100
AcDbLine
 10
4.238706999999999
 20
9.030079999999999
 30
0.0
 11
4.267465
 21
9.030079999999999
 31
0.0
  0
LINE
  5
EA
330
54
100
AcDbEntity
  8
0
100
AcDbLine
 10
4.303353999999999
 20
9.030079999999999
 30
0.0
 11
4.310257
 21
9.030079999999999
 31
0.0
  0
LINE
  5
EB
330
54
100
AcDbEntity
  8
0
100
AcDbLine
 10
4.346203
 20
9.030079999999999
 30
0.0
 11
4.353105
 21
9.030079999999999
 31
0.0
  0
LINE
  5
EC
330
54
100
AcDbEntity
  8
0
100
AcDbLine
 10
4.453986
 20
9.030079999999999
 30
0.0
 11
4.460887999999999
 21
9.030079999999999
 31
0.0
  0
LINE
  5
ED
330
54
100
AcDbEntity
  8
0
100
AcDbLine
 10
4.493212
 20
9.030078999999998
 30
0.0
 11
4.522545
 21
9.030078999999998
 31
0.0
  0
LINE
  5
EE
330
54
100
AcDbEntity
  8
0
100
AcDbLine
 10
4.554869
 20
9.030078999999998
 30
0.0
 11
4.56177
 21
9.030078999999998
 31
0.0
  0
LINE
  5
EF
330
54
100
AcDbEntity
  8
0
100
AcDbLine
 10
4.669553999999999
 20
9.030078999999998
 30
0.0
 11
4.676455
 21
9.030078999999998
 31
0.0
  0
LINE
  5
F0
330
54
100
AcDbEntity
  8
0
100
AcDbLine
 10
4.712403
 20
9.030078999999998
 30
0.0
 11
4.815233999999999
 21
9.030077999999999
 31
0.0
  0
LINE
  5
F1
330
54
100
AcDbEntity
  8
0
100
AcDbLine
 10
3.877295999999999
 20
9.020082
 30
0.0
 11
4.028451
 21
9.020080999999999
 31
0.0
  0
LINE
  5
F2
330
54
100
AcDbEntity
  8
0
100
AcDbLine
 10
4.061933999999999
 20
9.020080999999999
 30
0.0
 11
4.092298
 21
9.020080999999999
 31
0.0
  0
LINE
  5
F3
330
54
100
AcDbEntity
  8
0
100
AcDbLine
 10
4.124621
 20
9.020080999999999
 30
0.0
 11
4.200080999999999
 21
9.020080999999999
 31
0.0
  0
LINE
  5
F4
330
54
100
AcDbEntity
  8
0
100
AcDbLine
 10
4.236026999999999
 20
9.02008
 30
0.0
 11
4.264785999999999
 21
9.02008
 31
0.0
  0
LINE
  5
F5
330
54
100
AcDbEntity
  8
0
100
AcDbLine
 10
4.300673999999999
 20
9.02008
 30
0.0
 11
4.307576999999999
 21
9.02008
 31
0.0
  0
LINE
  5
F6
330
54
100
AcDbEntity
  8
0
100
AcDbLine
 10
4.343523
 20
9.02008
 30
0.0
 11
4.350425
 21
9.02008
 31
0.0
  0
LINE
  5
F7
330
54
100
AcDbEntity
  8
0
100
AcDbLine
 10
4.451305999999999
 20
9.02008
 30
0.0
 11
4.458207999999999
 21
9.02008
 31
0.0
  0
LINE
  5
F8
330
54
100
AcDbEntity
  8
0
100
AcDbLine
 10
4.490531999999999
 20
9.020078999999999
 30
0.0
 11
4.519865
 21
9.020078999999999
 31
0.0
  0
LINE
  5
F9
330
54
100
AcDbEntity
  8
0
100
AcDbLine
 10
4.552189
 20
9.020078999999999
 30
0.0
 11
4.559091
 21
9.020078999999999
 31
0.0
  0
LINE
  5
FA
330
54
100
AcDbEntity
  8
0
100
AcDbLine
 10
4.666873999999999
 20
9.020078999999999
 30
0.0
 11
4.673776
 21
9.020078999999999
 31
0.0
  0
LINE
  5
FB
330
54
100
AcDbEntity
  8
0
100
AcDbLine
 10
4.709723
 20
9.020078999999999
 30
0.0
 11
4.815233999999999
 21
9.020077999999999
 31
0.0
  0
LINE
  5
FC
330
54
100
AcDbEntity
  8
0
100
AcDbLine
 10
3.877295999999999
 20
9.010080999999999
 30
0.0
 11
4.032301999999999
 21
9.01008
 31
0.0
  0
LINE
  5
FD
330
54
100
AcDbEntity
  8
0
100
AcDbLine
 10
4.065783999999999
 20
9.01008
 30
0.0
 11
4.089617999999999
 21
9.01008
 31
0.0
  0
LINE
  5
FE
330
54
100
AcDbEntity
  8
0
100
AcDbLine
 10
4.190498
 20
9.01008
 30
0.0
 11
4.197401
 21
9.01008
 31
0.0
  0
LINE
  5
FF
330
54
100
AcDbEntity
  8
0
100
AcDbLine
 10
4.233348
 20
9.010078999999999
 30
0.0
 11
4.262106
 21
9.010078999999999
 31
0.0
  0
LINE
  5
100
330
54
100
AcDbEntity
  8
0
100
AcDbLine
 10
4.297994999999999
 20
9.010078999999999
 30
0.0
 11
4.304897
 21
9.010078999999999
 31
0.0
  0
LINE
  5
101
330
54
100
AcDbEntity
  8
0
100
AcDbLine
 10
4.340844
 20
9.010078999999999
 30
0.0
 11
4.347745999999999
 21
9.010078999999999
 31
0.0
  0
LINE
  5
102
330
54
100
AcDbEntity
  8
0
100
AcDbLine
 10
4.448627
 20
9.010078999999999
 30
0.0
 11
4.455529
 21
9.010078999999999
 31
0.0
  0
LINE
  5
103
330
54
100
AcDbEntity
  8
0
100
AcDbLine
 10
4.549509999999999
 20
9.010078
 30
0.0
 11
4.556410999999999
 21
9.010078
 31
0.0
  0
LINE
  5
104
330
54
100
AcDbEntity
  8
0
100
AcDbLine
 10
4.664194999999999
 20
9.010078
 30
0.0
 11
4.671095999999999
 21
9.010078
 31
0.0
  0
LINE
  5
105
330
54
100
AcDbEntity
  8
0
100
AcDbLine
 10
4.707044
 20
9.010078
 30
0.0
 11
4.815233999999999
 21
9.010077
 31
0.0
  0
LINE
  5
106
330
54
100
AcDbEntity
  8
0
100
AcDbLine
 10
3.877295999999999
 20
9.000080999999999
 30
0.0
 11
4.036152999999999
 21
9.00008
 31
0.0
  0
LINE
  5
107
330
54
100
AcDbEntity
  8
0
100
AcDbLine
 10
4.069634999999999
 20
9.00008
 30
0.0
 11
4.087124
 21
9.00008
 31
0.0
  0
LINE
  5
108
330
54
100
AcDbEntity
  8
0
100
AcDbLine
 10
4.187819
 20
9.00008
 30
0.0
 11
4.194722
 21
9.00008
 31
0.0
  0
LINE
  5
109
330
54
100
AcDbEntity
  8
0
100
AcDbLine
 10
4.230667999999999
 20
9.000078999999999
 30
0.0
 11
4.259426999999999
 21
9.000078999999999
 31
0.0
  0
LINE
  5
10A
330
54
100
AcDbEntity
  8
0
100
AcDbLine
 10
4.295316
 20
9.000078999999999
 30
0.0
 11
4.302217999999999
 21
9.000078999999999
 31
0.0
  0
LINE
  5
10B
330
54
100
AcDbEntity
  8
0
100
AcDbLine
 10
4.338163999999999
 20
9.000078999999999
 30
0.0
 11
4.345251999999999
 21
9.000078999999999
 31
0.0
  0
LINE
  5
10C
330
54
100
AcDbEntity
  8
0
100
AcDbLine
 10
4.445948
 20
9.000078999999999
 30
0.0
 11
4.453034999999999
 21
9.000078999999999
 31
0.0
  0
LINE
  5
10D
330
54
100
AcDbEntity
  8
0
100
AcDbLine
 10
4.546829999999999
 20
9.000078
 30
0.0
 11
4.553918
 21
9.000078
 31
0.0
  0
LINE
  5
10E
330
54
100
AcDbEntity
  8
0
100
AcDbLine
 10
4.661515
 20
9.000078
 30
0.0
 11
4.668416
 21
9.000078
 31
0.0
  0
LINE
  5
10F
330
54
100
AcDbEntity
  8
0
100
AcDbLine
 10
4.704365
 20
9.000078
 30
0.0
 11
4.815233999999999
 21
9.000077
 31
0.0
  0
LINE
  5
110
330
54
100
AcDbEntity
  8
0
100
AcDbLine
 10
3.877295999999999
 20
8.990080999999999
 30
0.0
 11
4.040003999999999
 21
8.99008
 31
0.0
  0
LINE
  5
111
330
54
100
AcDbEntity
  8
0
100
AcDbLine
 10
4.073485999999999
 20
8.99008
 30
0.0
 11
4.088593
 21
8.99008
 31
0.0
  0
LINE
  5
112
330
54
100
AcDbEntity
  8
0
100
AcDbLine
 10
4.18514
 20
8.99008
 30
0.0
 11
4.192041999999999
 21
8.99008
 31
0.0
  0
LINE
  5
113
330
54
100
AcDbEntity
  8
0
100
AcDbLine
 10
4.227987999999999
 20
8.990078999999999
 30
0.0
 11
4.256746999999999
 21
8.990078999999999
 31
0.0
  0
LINE
  5
114
330
54
100
AcDbEntity
  8
0
100
AcDbLine
 10
4.292635999999999
 20
8.990078999999999
 30
0.0
 11
4.299539
 21
8.990078999999999
 31
0.0
  0
LINE
  5
115
330
54
100
AcDbEntity
  8
0
100
AcDbLine
 10
4.335485
 20
8.990078999999999
 30
0.0
 11
4.346722999999999
 21
8.990078999999999
 31
0.0
  0
LINE
  5
116
330
54
100
AcDbEntity
  8
0
100
AcDbLine
 10
4.443267999999999
 20
8.990078999999999
 30
0.0
 11
4.454506999999999
 21
8.990078999999999
 31
0.0
  0
LINE
  5
117
330
54
100
AcDbEntity
  8
0
100
AcDbLine
 10
4.54415
 20
8.990078
 30
0.0
 11
4.555387999999999
 21
8.990078
 31
0.0
  0
LINE
  5
118
330
54
100
AcDbEntity
  8
0
100
AcDbLine
 10
4.658834999999999
 20
8.990078
 30
0.0
 11
4.665737
 21
8.990078
 31
0.0
  0
LINE
  5
119
330
54
100
AcDbEntity
  8
0
100
AcDbLine
 10
4.701684999999999
 20
8.990078
 30
0.0
 11
4.815233999999999
 21
8.990077000000001
 31
0.0
  0
LINE
  5
11A
330
54
100
AcDbEntity
  8
0
100
AcDbLine
 10
3.877295999999999
 20
8.980081
 30
0.0
 11
4.041179
 21
8.98008
 31
0.0
  0
LINE
  5
11B
330
54
100
AcDbEntity
  8
0
100
AcDbLine
 10
4.077336999999999
 20
8.98008
 30
0.0
 11
4.508573
 21
8.980078
 31
0.0
  0
LINE
  5
11C
330
54
100
AcDbEntity
  8
0
100
AcDbLine
 10
4.541470999999999
 20
8.980078
 30
0.0
 11
4.815233999999999
 21
8.980076999999999
 31
0.0
  0
LINE
  5
11D
330
54
100
AcDbEntity
  8
0
100
AcDbLine
 10
3.877295999999999
 20
8.970080000000001
 30
0.0
 11
3.944683
 21
8.970080000000001
 31
0.0
  0
LINE
  5
11E
330
54
100
AcDbEntity
  8
0
100
AcDbLine
 10
4.081188
 20
8.970079
 30
0.0
 11
4.444810999999999
 21
8.970077999999999
 31
0.0
  0
LINE
  5
11F
330
54
100
AcDbEntity
  8
0
100
AcDbLine
 10
4.538791999999999
 20
8.970077999999999
 30
0.0
 11
4.815233999999999
 21
8.970076999999999
 31
0.0
  0
LINE
  5
120
330
54
100
AcDbEntity
  8
0
100
AcDbLine
 10
3.877295999999999
 20
8.960079999999999
 30
0.0
 11
3.942002999999999
 21
8.960079999999999
 31
0.0
  0
LINE
  5
121
330
54
100
AcDbEntity
  8
0
100
AcDbLine
 10
4.082915999999999
 20
8.960078999999998
 30
0.0
 11
4.442130999999999
 21
8.960077999999999
 31
0.0
  0
LINE
  5
122
330
54
100
AcDbEntity
  8
0
100
AcDbLine
 10
4.536112
 20
8.960077
 30
0.0
 11
4.815233999999999
 21
8.960075999999999
 31
0.0
  0
LINE
  5
123
330
54
100
AcDbEntity
  8
0
100
AcDbLine
 10
3.877295999999999
 20
8.950079999999999
 30
0.0
 11
3.939323999999999
 21
8.950079999999999
 31
0.0
  0
LINE
  5
124
330
54
100
AcDbEntity
  8
0
100
AcDbLine
 10
4.076735
 20
8.950078999999998
 30
0.0
 11
4.439451
 21
8.950077999999999
 31
0.0
  0
LINE
  5
125
330
54
100
AcDbEntity
  8
0
100
AcDbLine
 10
4.529804
 20
8.950077
 30
0.0
 11
4.815233999999999
 21
8.950075999999999
 31
0.0
  0
LINE
  5
126
330
54
100
AcDbEntity
  8
0
100
AcDbLine
 10
3.877295999999999
 20
8.94008
 30
0.0
 11
4.815233999999999
 21
8.940075999999999
 31
0.0
  0
LINE
  5
127
330
54
100
AcDbEntity
  8
0
100
AcDbLine
 10
3.877295999999999
 20
8.930078999999999
 30
0.0
 11
4.815233999999999
 21
8.930075999999999
 31
0.0
  0
LINE
  5
128
330
54
100
AcDbEntity
  8
0
100
AcDbLine
 10
3.878131999999999
 20
8.920078999999999
 30
0.0
 11
4.814398999999999
 21
8.920075
 31
0.0
  0
LINE
  5
129
330
54
100
AcDbEntity
  8
0
100
AcDbLine
 10
3.880516999999999
 20
8.910078999999999
 30
0.0
 11
4.812013999999999
 21
8.910075
 31
0.0
  0
LINE
  5
12A
330
54
100
AcDbEntity
  8
0
100
AcDbLine
 10
3.885391
 20
8.900078999999999
 30
0.0
 11
4.807136999999999
 21
8.900074999999999
 31
0.0
  0
LINE
  5
12B
330
54
100
AcDbEntity
  8
0
100
AcDbLine
 10
3.894143
 20
8.890079
 30
0.0
 11
4.798383
 21
8.890074999999999
 31
0.0
  0
LINE
  5
12C
330
54
100
AcDbEntity
  8
0
100
AcDbLine
 10
3.911953
 20
8.880077999999999
 30
0.0
 11
4.780569999999999
 21
8.880074999999999
 31
0.0
  0
ENDBLK
  5
12E
330
54
100
AcDbEntity
  8
0
100
AcDbBlockEnd
  0
BLOCK
  5
5D1
330
478
100
AcDbEntity
  8
0
100
AcDbBlockBegin
  2
BORDER
 70
     0
 10
0.0
 20
0.0
 30
0.0
  3
BORDER
  1

  0
LINE
  5
479
330
478
100
AcDbEntity
  8
0
100
AcDbLine
 10
-0.0000000000000009
 20
0.0
 30
0.0
 11
8.499998999999998
 21
0.0
 31
0.0
  0
LINE
  5
47A
330
478
100
AcDbEntity
  8
0
100
AcDbLine
 10
-0.0000000000000009
 20
11.0
 30
0.0
 11
8.499998999999998
 21
11.0
 31
0.0
  0
TEXT
  5
47B
330
478
100
AcDbEntity
  8
DIM
  6
Continuous
100
AcDbText
 10
0.9801834824650139
 20
1.097709679505342
 30
0.0
 40
0.1
  1
XX-XX-92
 41
0.8
  7
TXT
100
AcDbText
  0
LINE
  5
47C
330
478
100
AcDbEntity
  8
0
  6
Continuous
100
AcDbLine
 10
0.3660044824650139
 20
1.227709679505341
 30
0.0
 11
2.466005482465015
 21
1.227709679505341
 31
0.0
  0
LINE
  5
47D
330
478
100
AcDbEntity
  8
0
  6
Continuous
100
AcDbLine
 10
0.3660044824650139
 20
1.067709679505342
 30
0.0
 11
2.466005482465015
 21
1.067709679505342
 31
0.0
  0
LINE
  5
47E
330
478
100
AcDbEntity
  8
0
  6
Continuous
100
AcDbLine
 10
0.3660044824650139
 20
10.64966820719128
 30
0.0
 11
8.132988035069963
 21
10.64966820719128
 31
0.0
  0
LINE
  5
47F
330
478
100
AcDbEntity
  8
0
  6
Continuous
100
AcDbLine
 10
0.3960044824650142
 20
10.61966820719128
 30
0.0
 11
8.102989035069963
 21
10.61966820719128
 31
0.0
  0
LINE
  5
480
330
478
100
AcDbEntity
  8
0
  6
Continuous
100
AcDbLine
 10
8.132988035069963
 20
9.549668207191281
 30
0.0
 11
0.3660044824650139
 21
9.549668207191281
 31
0.0
  0
LINE
  5
481
330
478
100
AcDbEntity
  8
0
  6
Continuous
100
AcDbLine
 10
0.3960044824650142
 20
0.277709679505342
 30
0.0
 11
8.102989035069963
 21
0.277709679505342
 31
0.0
  0
TEXT
  5
482
330
478
100
AcDbEntity
  8
DIM
  6
Continuous
100
AcDbText
 10
0.4849464824650154
 20
0.952709679505342
 30
0.0
 40
0.07
  1
Sheet        of
  7
TXT
100
AcDbText
  0
TEXT
  5
483
330
478
100
AcDbEntity
  8
DIM
  6
Continuous
100
AcDbText
 10
0.465314482465014
 20
1.626727679505342
 30
0.0
 40
0.08
  1
DECIMAL DIMENSIONS
 41
0.875
  7
TXT
100
AcDbText
  0
TEXT
  5
484
330
478
100
AcDbEntity
  8
DIM
  6
Continuous
100
AcDbText
 10
0.465314482465014
 20
1.506727679505342
 30
0.0
 40
0.08
  1
UNLESS OTHERWISE SPECIFIED
 41
0.875
  7
TXT
100
AcDbText
  0
LINE
  5
485
330
478
100
AcDbEntity
  8
0
  6
Continuous
100
AcDbLine
 10
0.3660044824650139
 20
0.9077096795053417
 30
0.0
 11
2.466005482465015
 21
0.9077096795053417
 31
0.0
  0
LINE
  5
486
330
478
100
AcDbEntity
  8
0
  6
Continuous
100
AcDbLine
 10
0.3660044824650139
 20
1.817249679505342
 30
0.0
 11
2.466005482465015
 21
1.817249679505342
 31
0.0
  0
LINE
  5
487
330
478
100
AcDbEntity
  8
0
  6
Continuous
100
AcDbLine
 10
0.3660044824650139
 20
0.5877096795053421
 30
0.0
 11
8.132988035069963
 21
0.5877096795053421
 31
0.0
  0
LINE
  5
488
330
478
100
AcDbEntity
  8
0
  6
Continuous
100
AcDbLine
 10
0.3660044824650139
 20
2.247709679505342
 30
0.0
 11
8.132988035069963
 21
2.247709679505342
 31
0.0
  0
LINE
  5
489
330
478
100
AcDbEntity
  8
0
  6
Continuous
100
AcDbLine
 10
0.3660044824650139
 20
0.2477096795053421
 30
0.0
 11
8.132988035069963
 21
0.2477096795053421
 31
0.0
  0
LINE
  5
48A
330
478
100
AcDbEntity
  8
0
  6
Continuous
100
AcDbLine
 10
-0.0000000000000009
 20
11.0
 30
0.0
 11
0.0
 21
0.0
 31
0.0
  0
LINE
  5
48B
330
478
100
AcDbEntity
  8
0
  6
Continuous
100
AcDbLine
 10
0.3960044824650142
 20
10.61966820719128
 30
0.0
 11
0.3960044824650142
 21
0.277709679505342
 31
0.0
  0
LINE
  5
48C
330
478
100
AcDbEntity
  8
0
  6
Continuous
100
AcDbLine
 10
0.3660044824650139
 20
0.2477096795053421
 30
0.0
 11
0.3660044824650139
 21
10.64966820719128
 31
0.0
  0
TEXT
  5
48D
330
478
100
AcDbEntity
  8
DIM
  6
Continuous
100
AcDbText
 10
0.5691194824650144
 20
0.6358716795053421
 30
0.0
 40
0.12
  1
FULL
  7
TXT
100
AcDbText
  0
TEXT
  5
48E
330
478
100
AcDbEntity
  8
DIM
  6
Continuous
100
AcDbText
 10
0.4849464824650154
 20
0.7927096795053421
 30
0.0
 40
0.07
  1
Drawn Scale:
  7
TXT
100
AcDbText
  0
TEXT
  5
48F
330
478
100
AcDbEntity
  8
DIM
  6
Continuous
100
AcDbText
 10
0.4393184824650147
 20
0.458756679505342
 30
0.0
 40
0.07
  1
Cad File
  7
TXT
100
AcDbText
  0
TEXT
  5
490
330
478
100
AcDbEntity
  8
DIM
  6
Continuous
100
AcDbText
 10
0.4393184824650147
 20
0.3537566795053419
 30
0.0
 40
0.07
  1
No.
  7
TXT
100
AcDbText
  0
LINE
  5
491
330
478
100
AcDbEntity
  8
0
  6
Continuous
100
AcDbLine
 10
1.416005482465014
 20
0.9077096795053417
 30
0.0
 11
1.416005482465014
 21
0.5877096795053421
 31
0.0
  0
TEXT
  5
492
330
478
100
AcDbEntity
  8
DIM
  6
Continuous
 62
     7
100
AcDbText
 10
1.069119482465014
 20
0.365871679505342
 30
0.0
 40
0.15
  1
TC
  7
TXT
100
AcDbText
  0
TEXT
  5
493
330
478
100
AcDbEntity
  8
DIM
  6
Continuous
100
AcDbText
 10
0.9840254824650136
 20
0.9377096795053422
 30
0.0
 40
0.1
  1
1
 41
0.8
  7
TXT
100
AcDbText
  0
TEXT
  5
494
330
478
100
AcDbEntity
  8
DIM
  6
Continuous
100
AcDbText
 10
0.5409374824650142
 20
1.297877679505342
 30
0.0
 40
0.08
  1
mm.
  7
TXT
100
AcDbText
  0
TEXT
  5
495
330
478
100
AcDbEntity
  8
DIM
  6
Continuous
100
AcDbText
 10
0.4849464824650154
 20
1.112709679505341
 30
0.0
 40
0.07
  1
Date:
  7
TXT
100
AcDbText
  0
LINE
  5
496
330
478
100
AcDbEntity
  8
DIM
  6
Continuous
100
AcDbLine
 10
0.9634944824650135
 20
1.417709679505342
 30
0.0
 11
1.113494482465013
 21
1.267709679505341
 31
0.0
  0
LINE
  5
497
330
478
100
AcDbEntity
  8
DIM
  6
Continuous
100
AcDbLine
 10
1.113494482465013
 20
1.417709679505342
 30
0.0
 11
0.9634944824650135
 21
1.267709679505341
 31
0.0
  0
LINE
  5
498
330
478
100
AcDbEntity
  8
DIM
  6
Continuous
100
AcDbLine
 10
1.113494482465013
 20
1.267709679505341
 30
0.0
 11
1.113494482465013
 21
1.417709679505342
 31
0.0
  0
LINE
  5
499
330
478
100
AcDbEntity
  8
DIM
  6
Continuous
100
AcDbLine
 10
0.9634954824650145
 20
1.267709679505341
 30
0.0
 11
0.9634954824650145
 21
1.417709679505342
 31
0.0
  0
LINE
  5
49A
330
478
100
AcDbEntity
  8
DIM
  6
Continuous
100
AcDbLine
 10
0.9634954824650145
 20
1.267709679505341
 30
0.0
 11
1.113494482465013
 21
1.267709679505341
 31
0.0
  0
LINE
  5
49B
330
478
100
AcDbEntity
  8
DIM
  6
Continuous
100
AcDbLine
 10
0.9634954824650145
 20
1.417709679505342
 30
0.0
 11
1.113494482465013
 21
1.417709679505342
 31
0.0
  0
TEXT
  5
49C
330
478
100
AcDbEntity
  8
0
100
AcDbText
 10
0.4618091580712483
 20
2.28061348971872
 30
0.0
 40
0.09
  1
DE0019FM.dwg
 41
0.75
  7
ROMANS
100
AcDbText
  0
LINE
  5
49D
330
478
100
AcDbEntity
  8
0
100
AcDbLine
 10
0.3960044824650142
 20
2.405792643123164
 30
0.0
 11
1.255238350987483
 21
2.405792643123164
 31
0.0
  0
LINE
  5
49E
330
478
100
AcDbEntity
  8
0
100
AcDbLine
 10
1.255238350987483
 20
2.405792643123164
 30
0.0
 11
1.255238350987483
 21
2.247709679505342
 31
0.0
  0
INSERT
  5
49F
330
478
100
AcDbEntity
  8
DIM
  6
Continuous
100
AcDbBlockReference
  2
XHATCH60
 10
-3.437507487274614
 20
0.7668934492322608
 30
0.0
  0
POLYLINE
  5
4A0
330
478
100
AcDbEntity
  8
DIM
  6
Continuous
100
AcDb3dPolyline
 66
     1
 10
0.0
 20
0.0
 30
0.0
 70
     8
  0
VERTEX
  5
4A1
330
4A0
100
AcDbEntity
  8
DIM
100
AcDbVertex
100
AcDb3dPolylineVertex
 10
1.268067482465014
 20
9.913987207191279
 30
0.0
 70
    32
  0
VERTEX
  5
4A2
330
4A0
100
AcDbEntity
  8
DIM
100
AcDbVertex
100
AcDb3dPolylineVertex
 10
1.224362482465013
 20
9.750876207191282
 30
0.0
 70
    32
  0
VERTEX
  5
4A3
330
4A0
100
AcDbEntity
  8
DIM
100
AcDbVertex
100
AcDb3dPolylineVertex
 10
1.260310482465015
 20
9.750876207191282
 30
0.0
 70
    32
  0
VERTEX
  5
4A4
330
4A0
100
AcDbEntity
  8
DIM
100
AcDbVertex
100
AcDb3dPolylineVertex
 10
1.304015482465014
 20
9.913987207191279
 30
0.0
 70
    32
  0
VERTEX
  5
4A5
330
4A0
100
AcDbEntity
  8
DIM
100
AcDbVertex
100
AcDb3dPolylineVertex
 10
1.268067482465014
 20
9.913987207191279
 30
0.0
 70
    32
  0
SEQEND
  5
4A6
330
4A0
100
AcDbEntity
  8
DIM
  0
POLYLINE
  5
4A7
330
478
100
AcDbEntity
  8
DIM
  6
Continuous
100
AcDb3dPolyline
 66
     1
 10
0.0
 20
0.0
 30
0.0
 70
     8
  0
VERTEX
  5
4A8
330
4A7
100
AcDbEntity
  8
DIM
100
AcDbVertex
100
AcDb3dPolylineVertex
 10
1.152361482465013
 20
9.789542207191281
 30
0.0
 70
    32
  0
VERTEX
  5
4A9
330
4A7
100
AcDbEntity
  8
DIM
100
AcDbVertex
100
AcDb3dPolylineVertex
 10
1.227821482465015
 20
9.789542207191281
 30
0.0
 70
    32
  0
VERTEX
  5
4AA
330
4A7
100
AcDbEntity
  8
DIM
100
AcDbVertex
100
AcDb3dPolylineVertex
 10
1.242855482465014
 20
9.84565420719128
 30
0.0
 70
    32
  0
VERTEX
  5
4AB
330
4A7
100
AcDbEntity
  8
DIM
100
AcDbVertex
100
AcDb3dPolylineVertex
 10
1.243088482465014
 20
9.852745207191283
 30
0.0
 70
    32
  0
VERTEX
  5
4AC
330
4A7
100
AcDbEntity
  8
DIM
100
AcDbVertex
100
AcDb3dPolylineVertex
 10
1.240160482465014
 20
9.859208207191279
 30
0.0
 70
    32
  0
VERTEX
  5
4AD
330
4A7
100
AcDbEntity
  8
DIM
100
AcDbVertex
100
AcDb3dPolylineVertex
 10
1.234676482465014
 20
9.863709207191281
 30
0.0
 70
    32
  0
VERTEX
  5
4AE
330
4A7
100
AcDbEntity
  8
DIM
100
AcDbVertex
100
AcDb3dPolylineVertex
 10
1.227766482465014
 20
9.865320207191281
 30
0.0
 70
    32
  0
VERTEX
  5
4AF
330
4A7
100
AcDbEntity
  8
DIM
100
AcDbVertex
100
AcDb3dPolylineVertex
 10
1.152329482465014
 20
9.865320207191281
 30
0.0
 70
    32
  0
VERTEX
  5
4B0
330
4A7
100
AcDbEntity
  8
DIM
100
AcDbVertex
100
AcDb3dPolylineVertex
 10
1.145727482465014
 20
9.863856207191282
 30
0.0
 70
    32
  0
VERTEX
  5
4B1
330
4A7
100
AcDbEntity
  8
DIM
100
AcDbVertex
100
AcDb3dPolylineVertex
 10
1.140362482465014
 20
9.859740207191279
 30
0.0
 70
    32
  0
VERTEX
  5
4B2
330
4A7
100
AcDbEntity
  8
DIM
100
AcDbVertex
100
AcDb3dPolylineVertex
 10
1.137239482465013
 20
9.85374120719128
 30
0.0
 70
    32
  0
VERTEX
  5
4B3
330
4A7
100
AcDbEntity
  8
DIM
100
AcDbVertex
100
AcDb3dPolylineVertex
 10
1.114946482465014
 20
9.770541207191282
 30
0.0
 70
    32
  0
VERTEX
  5
4B4
330
4A7
100
AcDbEntity
  8
DIM
100
AcDbVertex
100
AcDb3dPolylineVertex
 10
1.114714482465013
 20
9.763450207191283
 30
0.0
 70
    32
  0
VERTEX
  5
4B5
330
4A7
100
AcDbEntity
  8
DIM
100
AcDbVertex
100
AcDb3dPolylineVertex
 10
1.117642482465014
 20
9.756987207191279
 30
0.0
 70
    32
  0
VERTEX
  5
4B6
330
4A7
100
AcDbEntity
  8
DIM
100
AcDbVertex
100
AcDb3dPolylineVertex
 10
1.123125482465013
 20
9.752487207191283
 30
0.0
 70
    32
  0
VERTEX
  5
4B7
330
4A7
100
AcDbEntity
  8
DIM
100
AcDbVertex
100
AcDb3dPolylineVertex
 10
1.130036482465014
 20
9.750876207191282
 30
0.0
 70
    32
  0
VERTEX
  5
4B8
330
4A7
100
AcDbEntity
  8
DIM
100
AcDbVertex
100
AcDb3dPolylineVertex
 10
1.217460482465014
 20
9.750876207191282
 30
0.0
 70
    32
  0
VERTEX
  5
4B9
330
4A7
100
AcDbEntity
  8
DIM
100
AcDbVertex
100
AcDb3dPolylineVertex
 10
1.225827482465014
 20
9.782097207191281
 30
0.0
 70
    32
  0
VERTEX
  5
4BA
330
4A7
100
AcDbEntity
  8
DIM
100
AcDbVertex
100
AcDb3dPolylineVertex
 10
1.157143482465014
 20
9.782097207191281
 30
0.0
 70
    32
  0
VERTEX
  5
4BB
330
4A7
100
AcDbEntity
  8
DIM
100
AcDbVertex
100
AcDb3dPolylineVertex
 10
1.153017482465014
 20
9.78413220719128
 30
0.0
 70
    32
  0
VERTEX
  5
4BC
330
4A7
100
AcDbEntity
  8
DIM
100
AcDbVertex
100
AcDb3dPolylineVertex
 10
1.152120482465014
 20
9.788643207191281
 30
0.0
 70
    32
  0
SEQEND
  5
4BD
330
4A7
100
AcDbEntity
  8
DIM
  0
POLYLINE
  5
4BE
330
478
100
AcDbEntity
  8
DIM
  6
Continuous
100
AcDb3dPolyline
 66
     1
 10
0.0
 20
0.0
 30
0.0
 70
     8
  0
VERTEX
  5
4BF
330
4BE
100
AcDbEntity
  8
DIM
100
AcDbVertex
100
AcDb3dPolylineVertex
 10
1.070450482465013
 20
9.750876207191282
 30
0.0
 70
    32
  0
VERTEX
  5
4C0
330
4BE
100
AcDbEntity
  8
DIM
100
AcDbVertex
100
AcDb3dPolylineVertex
 10
1.029154482465013
 20
9.750876207191282
 30
0.0
 70
    32
  0
VERTEX
  5
4C1
330
4BE
100
AcDbEntity
  8
DIM
100
AcDbVertex
100
AcDb3dPolylineVertex
 10
1.022244482465014
 20
9.752487207191283
 30
0.0
 70
    32
  0
VERTEX
  5
4C2
330
4BE
100
AcDbEntity
  8
DIM
100
AcDbVertex
100
AcDb3dPolylineVertex
 10
1.016760482465014
 20
9.756987207191279
 30
0.0
 70
    32
  0
VERTEX
  5
4C3
330
4BE
100
AcDbEntity
  8
DIM
100
AcDbVertex
100
AcDb3dPolylineVertex
 10
1.013831482465014
 20
9.763450207191283
 30
0.0
 70
    32
  0
VERTEX
  5
4C4
330
4BE
100
AcDbEntity
  8
DIM
100
AcDbVertex
100
AcDb3dPolylineVertex
 10
1.014063482465014
 20
9.770541207191282
 30
0.0
 70
    32
  0
VERTEX
  5
4C5
330
4BE
100
AcDbEntity
  8
DIM
100
AcDbVertex
100
AcDb3dPolylineVertex
 10
1.036357482465014
 20
9.85374120719128
 30
0.0
 70
    32
  0
VERTEX
  5
4C6
330
4BE
100
AcDbEntity
  8
DIM
100
AcDbVertex
100
AcDb3dPolylineVertex
 10
1.039480482465014
 20
9.859740207191279
 30
0.0
 70
    32
  0
VERTEX
  5
4C7
330
4BE
100
AcDbEntity
  8
DIM
100
AcDbVertex
100
AcDb3dPolylineVertex
 10
1.044845482465014
 20
9.863856207191282
 30
0.0
 70
    32
  0
VERTEX
  5
4C8
330
4BE
100
AcDbEntity
  8
DIM
100
AcDbVertex
100
AcDb3dPolylineVertex
 10
1.051447482465014
 20
9.865320207191281
 30
0.0
 70
    32
  0
VERTEX
  5
4C9
330
4BE
100
AcDbEntity
  8
DIM
100
AcDbVertex
100
AcDb3dPolylineVertex
 10
1.133440482465013
 20
9.865320207191281
 30
0.0
 70
    32
  0
VERTEX
  5
4CA
330
4BE
100
AcDbEntity
  8
DIM
100
AcDbVertex
100
AcDb3dPolylineVertex
 10
1.096588482465014
 20
9.72778720719128
 30
0.0
 70
    32
  0
VERTEX
  5
4CB
330
4BE
100
AcDbEntity
  8
DIM
100
AcDbVertex
100
AcDb3dPolylineVertex
 10
1.093466482465013
 20
9.721789207191282
 30
0.0
 70
    32
  0
VERTEX
  5
4CC
330
4BE
100
AcDbEntity
  8
DIM
100
AcDbVertex
100
AcDb3dPolylineVertex
 10
1.088101482465014
 20
9.717673207191282
 30
0.0
 70
    32
  0
VERTEX
  5
4CD
330
4BE
100
AcDbEntity
  8
DIM
100
AcDbVertex
100
AcDb3dPolylineVertex
 10
1.081498482465014
 20
9.71620920719128
 30
0.0
 70
    32
  0
VERTEX
  5
4CE
330
4BE
100
AcDbEntity
  8
DIM
100
AcDbVertex
100
AcDb3dPolylineVertex
 10
0.9995054824650146
 20
9.71620920719128
 30
0.0
 70
    32
  0
VERTEX
  5
4CF
330
4BE
100
AcDbEntity
  8
DIM
100
AcDbVertex
100
AcDb3dPolylineVertex
 10
1.007872482465014
 20
9.747431207191283
 30
0.0
 70
    32
  0
VERTEX
  5
4D0
330
4BE
100
AcDbEntity
  8
DIM
100
AcDbVertex
100
AcDb3dPolylineVertex
 10
1.065538482465014
 20
9.747431207191283
 30
0.0
 70
    32
  0
VERTEX
  5
4D1
330
4BE
100
AcDbEntity
  8
DIM
100
AcDbVertex
100
AcDb3dPolylineVertex
 10
1.068530482465014
 20
9.748378207191283
 30
0.0
 70
    32
  0
VERTEX
  5
4D2
330
4BE
100
AcDbEntity
  8
DIM
100
AcDbVertex
100
AcDb3dPolylineVertex
 10
1.070433482465014
 20
9.750876207191282
 30
0.0
 70
    32
  0
SEQEND
  5
4D3
330
4BE
100
AcDbEntity
  8
DIM
  0
POLYLINE
  5
4D4
330
478
100
AcDbEntity
  8
DIM
  6
Continuous
100
AcDb3dPolyline
 66
     1
 10
0.0
 20
0.0
 30
0.0
 70
     8
  0
VERTEX
  5
4D5
330
4D4
100
AcDbEntity
  8
DIM
100
AcDbVertex
100
AcDb3dPolylineVertex
 10
0.9436954824650145
 20
9.789542207191281
 30
0.0
 70
    32
  0
VERTEX
  5
4D6
330
4D4
100
AcDbEntity
  8
DIM
100
AcDbVertex
100
AcDb3dPolylineVertex
 10
1.012253482465014
 20
9.789542207191281
 30
0.0
 70
    32
  0
VERTEX
  5
4D7
330
4D4
100
AcDbEntity
  8
DIM
100
AcDbVertex
100
AcDb3dPolylineVertex
 10
1.027289482465014
 20
9.84565420719128
 30
0.0
 70
    32
  0
VERTEX
  5
4D8
330
4D4
100
AcDbEntity
  8
DIM
100
AcDbVertex
100
AcDb3dPolylineVertex
 10
1.027521482465014
 20
9.852745207191283
 30
0.0
 70
    32
  0
VERTEX
  5
4D9
330
4D4
100
AcDbEntity
  8
DIM
100
AcDbVertex
100
AcDb3dPolylineVertex
 10
1.024593482465014
 20
9.859208207191279
 30
0.0
 70
    32
  0
VERTEX
  5
4DA
330
4D4
100
AcDbEntity
  8
DIM
100
AcDbVertex
100
AcDb3dPolylineVertex
 10
1.019108482465013
 20
9.863709207191281
 30
0.0
 70
    32
  0
VERTEX
  5
4DB
330
4D4
100
AcDbEntity
  8
DIM
100
AcDbVertex
100
AcDb3dPolylineVertex
 10
1.012199482465014
 20
9.865320207191281
 30
0.0
 70
    32
  0
VERTEX
  5
4DC
330
4D4
100
AcDbEntity
  8
DIM
100
AcDbVertex
100
AcDb3dPolylineVertex
 10
0.9436634824650145
 20
9.865320207191281
 30
0.0
 70
    32
  0
VERTEX
  5
4DD
330
4D4
100
AcDbEntity
  8
DIM
100
AcDbVertex
100
AcDb3dPolylineVertex
 10
0.9370624824650146
 20
9.863856207191282
 30
0.0
 70
    32
  0
VERTEX
  5
4DE
330
4D4
100
AcDbEntity
  8
DIM
100
AcDbVertex
100
AcDb3dPolylineVertex
 10
0.9316964824650151
 20
9.859740207191279
 30
0.0
 70
    32
  0
VERTEX
  5
4DF
330
4D4
100
AcDbEntity
  8
DIM
100
AcDbVertex
100
AcDb3dPolylineVertex
 10
0.9285744824650148
 20
9.85374120719128
 30
0.0
 70
    32
  0
VERTEX
  5
4E0
330
4D4
100
AcDbEntity
  8
DIM
100
AcDbVertex
100
AcDb3dPolylineVertex
 10
0.9062804824650143
 20
9.770541207191282
 30
0.0
 70
    32
  0
VERTEX
  5
4E1
330
4D4
100
AcDbEntity
  8
DIM
100
AcDbVertex
100
AcDb3dPolylineVertex
 10
0.9060484824650147
 20
9.763450207191283
 30
0.0
 70
    32
  0
VERTEX
  5
4E2
330
4D4
100
AcDbEntity
  8
DIM
100
AcDbVertex
100
AcDb3dPolylineVertex
 10
0.9089764824650146
 20
9.756987207191279
 30
0.0
 70
    32
  0
VERTEX
  5
4E3
330
4D4
100
AcDbEntity
  8
DIM
100
AcDbVertex
100
AcDb3dPolylineVertex
 10
0.9144614824650139
 20
9.752487207191283
 30
0.0
 70
    32
  0
VERTEX
  5
4E4
330
4D4
100
AcDbEntity
  8
DIM
100
AcDbVertex
100
AcDb3dPolylineVertex
 10
0.9213704824650141
 20
9.750876207191282
 30
0.0
 70
    32
  0
VERTEX
  5
4E5
330
4D4
100
AcDbEntity
  8
DIM
100
AcDbVertex
100
AcDb3dPolylineVertex
 10
1.001892482465014
 20
9.750876207191282
 30
0.0
 70
    32
  0
VERTEX
  5
4E6
330
4D4
100
AcDbEntity
  8
DIM
100
AcDbVertex
100
AcDb3dPolylineVertex
 10
1.010258482465014
 20
9.782097207191281
 30
0.0
 70
    32
  0
VERTEX
  5
4E7
330
4D4
100
AcDbEntity
  8
DIM
100
AcDbVertex
100
AcDb3dPolylineVertex
 10
0.9484774824650141
 20
9.782097207191281
 30
0.0
 70
    32
  0
VERTEX
  5
4E8
330
4D4
100
AcDbEntity
  8
DIM
100
AcDbVertex
100
AcDb3dPolylineVertex
 10
0.9434544824650137
 20
9.788643207191281
 30
0.0
 70
    32
  0
VERTEX
  5
4E9
330
4D4
100
AcDbEntity
  8
DIM
100
AcDbVertex
100
AcDb3dPolylineVertex
 10
0.9436954824650145
 20
9.789542207191281
 30
0.0
 70
    32
  0
SEQEND
  5
4EA
330
4D4
100
AcDbEntity
  8
DIM
  0
POLYLINE
  5
4EB
330
478
100
AcDbEntity
  8
DIM
  6
Continuous
100
AcDb3dPolyline
 66
     1
 10
0.0
 20
0.0
 30
0.0
 70
     8
  0
VERTEX
  5
4EC
330
4EB
100
AcDbEntity
  8
DIM
100
AcDbVertex
100
AcDb3dPolylineVertex
 10
0.9018674824650148
 20
9.913987207191279
 30
0.0
 70
    32
  0
VERTEX
  5
4ED
330
4EB
100
AcDbEntity
  8
DIM
100
AcDbVertex
100
AcDb3dPolylineVertex
 10
0.8581624824650146
 20
9.750876207191282
 30
0.0
 70
    32
  0
VERTEX
  5
4EE
330
4EB
100
AcDbEntity
  8
DIM
100
AcDbVertex
100
AcDb3dPolylineVertex
 10
0.8941084824650138
 20
9.750876207191282
 30
0.0
 70
    32
  0
VERTEX
  5
4EF
330
4EB
100
AcDbEntity
  8
DIM
100
AcDbVertex
100
AcDb3dPolylineVertex
 10
0.937814482465014
 20
9.913987207191279
 30
0.0
 70
    32
  0
VERTEX
  5
4F0
330
4EB
100
AcDbEntity
  8
DIM
100
AcDbVertex
100
AcDb3dPolylineVertex
 10
0.9018674824650148
 20
9.913987207191279
 30
0.0
 70
    32
  0
SEQEND
  5
4F1
330
4EB
100
AcDbEntity
  8
DIM
  0
POLYLINE
  5
4F2
330
478
100
AcDbEntity
  8
DIM
  6
Continuous
100
AcDb3dPolyline
 66
     1
 10
0.0
 20
0.0
 30
0.0
 70
     8
  0
VERTEX
  5
4F3
330
4F2
100
AcDbEntity
  8
DIM
100
AcDbVertex
100
AcDb3dPolylineVertex
 10
0.7943714824650146
 20
9.913987207191279
 30
0.0
 70
    32
  0
VERTEX
  5
4F4
330
4F2
100
AcDbEntity
  8
DIM
100
AcDbVertex
100
AcDb3dPolylineVertex
 10
0.7506664824650145
 20
9.750876207191282
 30
0.0
 70
    32
  0
VERTEX
  5
4F5
330
4F2
100
AcDbEntity
  8
DIM
100
AcDbVertex
100
AcDb3dPolylineVertex
 10
0.7866124824650145
 20
9.750876207191282
 30
0.0
 70
    32
  0
VERTEX
  5
4F6
330
4F2
100
AcDbEntity
  8
DIM
100
AcDbVertex
100
AcDb3dPolylineVertex
 10
0.8079744824650143
 20
9.830597207191281
 30
0.0
 70
    32
  0
VERTEX
  5
4F7
330
4F2
100
AcDbEntity
  8
DIM
100
AcDbVertex
100
AcDb3dPolylineVertex
 10
0.8299444824650139
 20
9.830597207191281
 30
0.0
 70
    32
  0
VERTEX
  5
4F8
330
4F2
100
AcDbEntity
  8
DIM
100
AcDbVertex
100
AcDb3dPolylineVertex
 10
0.8340764824650142
 20
9.82856020719128
 30
0.0
 70
    32
  0
VERTEX
  5
4F9
330
4F2
100
AcDbEntity
  8
DIM
100
AcDbVertex
100
AcDb3dPolylineVertex
 10
0.8349754824650137
 20
9.824042207191283
 30
0.0
 70
    32
  0
VERTEX
  5
4FA
330
4F2
100
AcDbEntity
  8
DIM
100
AcDbVertex
100
AcDb3dPolylineVertex
 10
0.8153714824650144
 20
9.750876207191282
 30
0.0
 70
    32
  0
VERTEX
  5
4FB
330
4F2
100
AcDbEntity
  8
DIM
100
AcDbVertex
100
AcDb3dPolylineVertex
 10
0.8512604824650145
 20
9.750876207191282
 30
0.0
 70
    32
  0
VERTEX
  5
4FC
330
4F2
100
AcDbEntity
  8
DIM
100
AcDbVertex
100
AcDb3dPolylineVertex
 10
0.8769994824650142
 20
9.846937207191281
 30
0.0
 70
    32
  0
VERTEX
  5
4FD
330
4F2
100
AcDbEntity
  8
DIM
100
AcDbVertex
100
AcDb3dPolylineVertex
 10
0.876712482465014
 20
9.845651207191281
 30
0.0
 70
    32
  0
VERTEX
  5
4FE
330
4F2
100
AcDbEntity
  8
DIM
100
AcDbVertex
100
AcDb3dPolylineVertex
 10
0.8769444824650145
 20
9.852744207191282
 30
0.0
 70
    32
  0
VERTEX
  5
4FF
330
4F2
100
AcDbEntity
  8
DIM
100
AcDbVertex
100
AcDb3dPolylineVertex
 10
0.8740164824650147
 20
9.859207207191282
 30
0.0
 70
    32
  0
VERTEX
  5
500
330
4F2
100
AcDbEntity
  8
DIM
100
AcDbVertex
100
AcDb3dPolylineVertex
 10
0.8685314824650145
 20
9.863709207191281
 30
0.0
 70
    32
  0
VERTEX
  5
501
330
4F2
100
AcDbEntity
  8
DIM
100
AcDbVertex
100
AcDb3dPolylineVertex
 10
0.8616204824650148
 20
9.865320207191281
 30
0.0
 70
    32
  0
VERTEX
  5
502
330
4F2
100
AcDbEntity
  8
DIM
100
AcDbVertex
100
AcDb3dPolylineVertex
 10
0.8172784824650145
 20
9.865320207191281
 30
0.0
 70
    32
  0
VERTEX
  5
503
330
4F2
100
AcDbEntity
  8
DIM
100
AcDbVertex
100
AcDb3dPolylineVertex
 10
0.8303184824650138
 20
9.913987207191279
 30
0.0
 70
    32
  0
VERTEX
  5
504
330
4F2
100
AcDbEntity
  8
DIM
100
AcDbVertex
100
AcDb3dPolylineVertex
 10
0.7943714824650146
 20
9.913987207191279
 30
0.0
 70
    32
  0
SEQEND
  5
505
330
4F2
100
AcDbEntity
  8
DIM
  0
POLYLINE
  5
506
330
478
100
AcDbEntity
  8
DIM
  6
Continuous
100
AcDb3dPolyline
 66
     1
 10
0.0
 20
0.0
 30
0.0
 70
     8
  0
VERTEX
  5
507
330
506
100
AcDbEntity
  8
DIM
100
AcDbVertex
100
AcDb3dPolylineVertex
 10
0.7734914824650146
 20
9.861820207191282
 30
0.0
 70
    32
  0
VERTEX
  5
508
330
506
100
AcDbEntity
  8
DIM
100
AcDbVertex
100
AcDb3dPolylineVertex
 10
0.6845964824650146
 20
9.861820207191282
 30
0.0
 70
    32
  0
VERTEX
  5
509
330
506
100
AcDbEntity
  8
DIM
100
AcDbVertex
100
AcDb3dPolylineVertex
 10
0.6779944824650146
 20
9.86035620719128
 30
0.0
 70
    32
  0
VERTEX
  5
50A
330
506
100
AcDbEntity
  8
DIM
100
AcDbVertex
100
AcDb3dPolylineVertex
 10
0.6726294824650143
 20
9.85624020719128
 30
0.0
 70
    32
  0
VERTEX
  5
50B
330
506
100
AcDbEntity
  8
DIM
100
AcDbVertex
100
AcDb3dPolylineVertex
 10
0.6695064824650148
 20
9.850241207191281
 30
0.0
 70
    32
  0
VERTEX
  5
50C
330
506
100
AcDbEntity
  8
DIM
100
AcDbVertex
100
AcDb3dPolylineVertex
 10
0.6481524824650143
 20
9.770541207191282
 30
0.0
 70
    32
  0
VERTEX
  5
50D
330
506
100
AcDbEntity
  8
DIM
100
AcDbVertex
100
AcDb3dPolylineVertex
 10
0.6479194824650146
 20
9.763450207191283
 30
0.0
 70
    32
  0
VERTEX
  5
50E
330
506
100
AcDbEntity
  8
DIM
100
AcDbVertex
100
AcDb3dPolylineVertex
 10
0.6508474824650144
 20
9.756987207191279
 30
0.0
 70
    32
  0
VERTEX
  5
50F
330
506
100
AcDbEntity
  8
DIM
100
AcDbVertex
100
AcDb3dPolylineVertex
 10
0.6563314824650144
 20
9.752487207191283
 30
0.0
 70
    32
  0
VERTEX
  5
510
330
506
100
AcDbEntity
  8
DIM
100
AcDbVertex
100
AcDb3dPolylineVertex
 10
0.6632414824650148
 20
9.750876207191282
 30
0.0
 70
    32
  0
VERTEX
  5
511
330
506
100
AcDbEntity
  8
DIM
100
AcDbVertex
100
AcDb3dPolylineVertex
 10
0.7437634824650142
 20
9.750876207191282
 30
0.0
 70
    32
  0
VERTEX
  5
512
330
506
100
AcDbEntity
  8
DIM
100
AcDbVertex
100
AcDb3dPolylineVertex
 10
0.7521294824650138
 20
9.782097207191281
 30
0.0
 70
    32
  0
VERTEX
  5
513
330
506
100
AcDbEntity
  8
DIM
100
AcDbVertex
100
AcDb3dPolylineVertex
 10
0.6903484824650148
 20
9.782097207191281
 30
0.0
 70
    32
  0
VERTEX
  5
514
330
506
100
AcDbEntity
  8
DIM
100
AcDbVertex
100
AcDb3dPolylineVertex
 10
0.6862224824650145
 20
9.78413220719128
 30
0.0
 70
    32
  0
VERTEX
  5
515
330
506
100
AcDbEntity
  8
DIM
100
AcDbVertex
100
AcDb3dPolylineVertex
 10
0.6853264824650145
 20
9.788643207191281
 30
0.0
 70
    32
  0
VERTEX
  5
516
330
506
100
AcDbEntity
  8
DIM
100
AcDbVertex
100
AcDb3dPolylineVertex
 10
0.6955344824650141
 20
9.826744207191282
 30
0.0
 70
    32
  0
VERTEX
  5
517
330
506
100
AcDbEntity
  8
DIM
100
AcDbVertex
100
AcDb3dPolylineVertex
 10
0.6973924824650144
 20
9.829523207191282
 30
0.0
 70
    32
  0
VERTEX
  5
518
330
506
100
AcDbEntity
  8
DIM
100
AcDbVertex
100
AcDb3dPolylineVertex
 10
0.7005574824650145
 20
9.830597207191281
 30
0.0
 70
    32
  0
VERTEX
  5
519
330
506
100
AcDbEntity
  8
DIM
100
AcDbVertex
100
AcDb3dPolylineVertex
 10
0.7651264824650142
 20
9.830597207191281
 30
0.0
 70
    32
  0
VERTEX
  5
51A
330
506
100
AcDbEntity
  8
DIM
100
AcDbVertex
100
AcDb3dPolylineVertex
 10
0.7734914824650146
 20
9.861820207191282
 30
0.0
 70
    32
  0
SEQEND
  5
51B
330
506
100
AcDbEntity
  8
DIM
  0
POLYLINE
  5
51C
330
478
100
AcDbEntity
  8
DIM
  6
Continuous
100
AcDb3dPolyline
 66
     1
 10
0.0
 20
0.0
 30
0.0
 70
     8
  0
VERTEX
  5
51D
330
51C
100
AcDbEntity
  8
DIM
100
AcDbVertex
100
AcDb3dPolylineVertex
 10
0.6934894824650142
 20
9.913987207191279
 30
0.0
 70
    32
  0
VERTEX
  5
51E
330
51C
100
AcDbEntity
  8
DIM
100
AcDbVertex
100
AcDb3dPolylineVertex
 10
0.5643674824650145
 20
9.913987207191279
 30
0.0
 70
    32
  0
VERTEX
  5
51F
330
51C
100
AcDbEntity
  8
DIM
100
AcDbVertex
100
AcDb3dPolylineVertex
 10
0.5570894824650141
 20
9.912188207191281
 30
0.0
 70
    32
  0
VERTEX
  5
520
330
51C
100
AcDbEntity
  8
DIM
100
AcDbVertex
100
AcDb3dPolylineVertex
 10
0.5514884824650146
 20
9.907206207191283
 30
0.0
 70
    32
  0
VERTEX
  5
521
330
51C
100
AcDbEntity
  8
DIM
100
AcDbVertex
100
AcDb3dPolylineVertex
 10
0.5488524824650148
 20
9.900188207191281
 30
0.0
 70
    32
  0
VERTEX
  5
522
330
51C
100
AcDbEntity
  8
DIM
100
AcDbVertex
100
AcDb3dPolylineVertex
 10
0.5497884824650141
 20
9.89275020719128
 30
0.0
 70
    32
  0
VERTEX
  5
523
330
51C
100
AcDbEntity
  8
DIM
100
AcDbVertex
100
AcDb3dPolylineVertex
 10
0.603029482465014
 20
9.754500207191281
 30
0.0
 70
    32
  0
VERTEX
  5
524
330
51C
100
AcDbEntity
  8
DIM
100
AcDbVertex
100
AcDb3dPolylineVertex
 10
0.6031764824650141
 20
9.751201207191282
 30
0.0
 70
    32
  0
VERTEX
  5
525
330
51C
100
AcDbEntity
  8
DIM
100
AcDbVertex
100
AcDb3dPolylineVertex
 10
0.601307482465014
 20
9.74847920719128
 30
0.0
 70
    32
  0
VERTEX
  5
526
330
51C
100
AcDbEntity
  8
DIM
100
AcDbVertex
100
AcDb3dPolylineVertex
 10
0.5981754824650141
 20
9.747431207191283
 30
0.0
 70
    32
  0
VERTEX
  5
527
330
51C
100
AcDbEntity
  8
DIM
100
AcDbVertex
100
AcDb3dPolylineVertex
 10
0.5077434824650143
 20
9.747431207191283
 30
0.0
 70
    32
  0
VERTEX
  5
528
330
51C
100
AcDbEntity
  8
DIM
100
AcDbVertex
100
AcDb3dPolylineVertex
 10
0.4993774824650146
 20
9.71620920719128
 30
0.0
 70
    32
  0
VERTEX
  5
529
330
51C
100
AcDbEntity
  8
DIM
100
AcDbVertex
100
AcDb3dPolylineVertex
 10
0.6284984824650142
 20
9.71620920719128
 30
0.0
 70
    32
  0
VERTEX
  5
52A
330
51C
100
AcDbEntity
  8
DIM
100
AcDbVertex
100
AcDb3dPolylineVertex
 10
0.6357774824650147
 20
9.718007207191281
 30
0.0
 70
    32
  0
VERTEX
  5
52B
330
51C
100
AcDbEntity
  8
DIM
100
AcDbVertex
100
AcDb3dPolylineVertex
 10
0.6413794824650143
 20
9.722989207191282
 30
0.0
 70
    32
  0
VERTEX
  5
52C
330
51C
100
AcDbEntity
  8
DIM
100
AcDbVertex
100
AcDb3dPolylineVertex
 10
0.6440154824650142
 20
9.730008207191279
 30
0.0
 70
    32
  0
VERTEX
  5
52D
330
51C
100
AcDbEntity
  8
DIM
100
AcDbVertex
100
AcDb3dPolylineVertex
 10
0.6430774824650145
 20
9.737445207191282
 30
0.0
 70
    32
  0
VERTEX
  5
52E
330
51C
100
AcDbEntity
  8
DIM
100
AcDbVertex
100
AcDb3dPolylineVertex
 10
0.5911644824650138
 20
9.872251207191283
 30
0.0
 70
    32
  0
VERTEX
  5
52F
330
51C
100
AcDbEntity
  8
DIM
100
AcDbVertex
100
AcDb3dPolylineVertex
 10
0.5910164824650144
 20
9.875550207191281
 30
0.0
 70
    32
  0
VERTEX
  5
530
330
51C
100
AcDbEntity
  8
DIM
100
AcDbVertex
100
AcDb3dPolylineVertex
 10
0.5928844824650144
 20
9.878271207191282
 30
0.0
 70
    32
  0
VERTEX
  5
531
330
51C
100
AcDbEntity
  8
DIM
100
AcDbVertex
100
AcDb3dPolylineVertex
 10
0.5960164824650143
 20
9.87932020719128
 30
0.0
 70
    32
  0
VERTEX
  5
532
330
51C
100
AcDbEntity
  8
DIM
100
AcDbVertex
100
AcDb3dPolylineVertex
 10
0.6842014824650145
 20
9.87932020719128
 30
0.0
 70
    32
  0
VERTEX
  5
533
330
51C
100
AcDbEntity
  8
DIM
100
AcDbVertex
100
AcDb3dPolylineVertex
 10
0.6934894824650142
 20
9.913987207191279
 30
0.0
 70
    32
  0
SEQEND
  5
534
330
51C
100
AcDbEntity
  8
DIM
  0
POLYLINE
  5
535
330
478
100
AcDbEntity
  8
DIM
  6
Continuous
100
AcDb3dPolyline
 66
     1
 10
0.0
 20
0.0
 30
0.0
 70
     8
  0
VERTEX
  5
536
330
535
100
AcDbEntity
  8
DIM
100
AcDbVertex
100
AcDb3dPolylineVertex
 10
0.4868534824650146
 20
9.647542207191282
 30
0.0
 70
    32
  0
VERTEX
  5
537
330
535
100
AcDbEntity
  8
DIM
100
AcDbVertex
100
AcDb3dPolylineVertex
 10
1.327681482465014
 20
9.647542207191282
 30
0.0
 70
    32
  0
VERTEX
  5
538
330
535
100
AcDbEntity
  8
DIM
100
AcDbVertex
100
AcDb3dPolylineVertex
 10
1.340248482465014
 20
9.649197207191281
 30
0.0
 70
    32
  0
VERTEX
  5
539
330
535
100
AcDbEntity
  8
DIM
100
AcDbVertex
100
AcDb3dPolylineVertex
 10
1.351960482465014
 20
9.654047207191279
 30
0.0
 70
    32
  0
VERTEX
  5
53A
330
535
100
AcDbEntity
  8
DIM
100
AcDbVertex
100
AcDb3dPolylineVertex
 10
1.362015482465014
 20
9.661764207191282
 30
0.0
 70
    32
  0
VERTEX
  5
53B
330
535
100
AcDbEntity
  8
DIM
100
AcDbVertex
100
AcDb3dPolylineVertex
 10
1.369731482465014
 20
9.671820207191281
 30
0.0
 70
    32
  0
VERTEX
  5
53C
330
535
100
AcDbEntity
  8
DIM
100
AcDbVertex
100
AcDb3dPolylineVertex
 10
1.374583482465014
 20
9.683530207191282
 30
0.0
 70
    32
  0
VERTEX
  5
53D
330
535
100
AcDbEntity
  8
DIM
100
AcDbVertex
100
AcDb3dPolylineVertex
 10
1.376236482465014
 20
9.69609820719128
 30
0.0
 70
    32
  0
VERTEX
  5
53E
330
535
100
AcDbEntity
  8
DIM
100
AcDbVertex
100
AcDb3dPolylineVertex
 10
1.376236482465014
 20
10.44620820719128
 30
0.0
 70
    32
  0
VERTEX
  5
53F
330
535
100
AcDbEntity
  8
DIM
100
AcDbVertex
100
AcDb3dPolylineVertex
 10
1.374583482465014
 20
10.45877620719128
 30
0.0
 70
    32
  0
VERTEX
  5
540
330
535
100
AcDbEntity
  8
DIM
100
AcDbVertex
100
AcDb3dPolylineVertex
 10
1.369731482465014
 20
10.47048620719128
 30
0.0
 70
    32
  0
VERTEX
  5
541
330
535
100
AcDbEntity
  8
DIM
100
AcDbVertex
100
AcDb3dPolylineVertex
 10
1.362015482465014
 20
10.48054320719128
 30
0.0
 70
    32
  0
VERTEX
  5
542
330
535
100
AcDbEntity
  8
DIM
100
AcDbVertex
100
AcDb3dPolylineVertex
 10
1.351960482465014
 20
10.48825920719128
 30
0.0
 70
    32
  0
VERTEX
  5
543
330
535
100
AcDbEntity
  8
DIM
100
AcDbVertex
100
AcDb3dPolylineVertex
 10
1.340248482465014
 20
10.49311020719128
 30
0.0
 70
    32
  0
VERTEX
  5
544
330
535
100
AcDbEntity
  8
DIM
100
AcDbVertex
100
AcDb3dPolylineVertex
 10
1.327681482465014
 20
10.49476520719128
 30
0.0
 70
    32
  0
VERTEX
  5
545
330
535
100
AcDbEntity
  8
DIM
100
AcDbVertex
100
AcDb3dPolylineVertex
 10
0.4868534824650146
 20
10.49476520719128
 30
0.0
 70
    32
  0
VERTEX
  5
546
330
535
100
AcDbEntity
  8
DIM
100
AcDbVertex
100
AcDb3dPolylineVertex
 10
0.474287482465015
 20
10.49311020719128
 30
0.0
 70
    32
  0
VERTEX
  5
547
330
535
100
AcDbEntity
  8
DIM
100
AcDbVertex
100
AcDb3dPolylineVertex
 10
0.4625774824650142
 20
10.48825920719128
 30
0.0
 70
    32
  0
VERTEX
  5
548
330
535
100
AcDbEntity
  8
DIM
100
AcDbVertex
100
AcDb3dPolylineVertex
 10
0.4525194824650143
 20
10.48054320719128
 30
0.0
 70
    32
  0
VERTEX
  5
549
330
535
100
AcDbEntity
  8
DIM
100
AcDbVertex
100
AcDb3dPolylineVertex
 10
0.4448044824650142
 20
10.47048620719128
 30
0.0
 70
    32
  0
VERTEX
  5
54A
330
535
100
AcDbEntity
  8
DIM
100
AcDbVertex
100
AcDb3dPolylineVertex
 10
0.4399524824650145
 20
10.45877620719128
 30
0.0
 70
    32
  0
VERTEX
  5
54B
330
535
100
AcDbEntity
  8
DIM
100
AcDbVertex
100
AcDb3dPolylineVertex
 10
0.4382984824650143
 20
10.44620820719128
 30
0.0
 70
    32
  0
VERTEX
  5
54C
330
535
100
AcDbEntity
  8
DIM
100
AcDbVertex
100
AcDb3dPolylineVertex
 10
0.4382984824650143
 20
9.69609820719128
 30
0.0
 70
    32
  0
VERTEX
  5
54D
330
535
100
AcDbEntity
  8
DIM
100
AcDbVertex
100
AcDb3dPolylineVertex
 10
0.4399524824650145
 20
9.683530207191282
 30
0.0
 70
    32
  0
VERTEX
  5
54E
330
535
100
AcDbEntity
  8
DIM
100
AcDbVertex
100
AcDb3dPolylineVertex
 10
0.4448044824650142
 20
9.671820207191281
 30
0.0
 70
    32
  0
VERTEX
  5
54F
330
535
100
AcDbEntity
  8
DIM
100
AcDbVertex
100
AcDb3dPolylineVertex
 10
0.4525194824650143
 20
9.661764207191282
 30
0.0
 70
    32
  0
VERTEX
  5
550
330
535
100
AcDbEntity
  8
DIM
100
AcDbVertex
100
AcDb3dPolylineVertex
 10
0.462576482465015
 20
9.654047207191279
 30
0.0
 70
    32
  0
VERTEX
  5
551
330
535
100
AcDbEntity
  8
DIM
100
AcDbVertex
100
AcDb3dPolylineVertex
 10
0.474287482465015
 20
9.649197207191281
 30
0.0
 70
    32
  0
VERTEX
  5
552
330
535
100
AcDbEntity
  8
DIM
100
AcDbVertex
100
AcDb3dPolylineVertex
 10
0.4868534824650146
 20
9.647542207191282
 30
0.0
 70
    32
  0
SEQEND
  5
553
330
535
100
AcDbEntity
  8
DIM
  0
POLYLINE
  5
554
330
478
100
AcDbEntity
  8
DIM
  6
Continuous
100
AcDb3dPolyline
 66
     1
 10
0.0
 20
0.0
 30
0.0
 70
     8
  0
VERTEX
  5
555
330
554
100
AcDbEntity
  8
DIM
100
AcDbVertex
100
AcDb3dPolylineVertex
 10
1.160727482465014
 20
9.820764207191281
 30
0.0
 70
    32
  0
VERTEX
  5
556
330
554
100
AcDbEntity
  8
DIM
100
AcDbVertex
100
AcDb3dPolylineVertex
 10
1.203864482465013
 20
9.820764207191281
 30
0.0
 70
    32
  0
VERTEX
  5
557
330
554
100
AcDbEntity
  8
DIM
100
AcDbVertex
100
AcDb3dPolylineVertex
 10
1.205681482465014
 20
9.827552207191281
 30
0.0
 70
    32
  0
VERTEX
  5
558
330
554
100
AcDbEntity
  8
DIM
100
AcDbVertex
100
AcDb3dPolylineVertex
 10
1.204785482465014
 20
9.832063207191282
 30
0.0
 70
    32
  0
VERTEX
  5
559
330
554
100
AcDbEntity
  8
DIM
100
AcDbVertex
100
AcDb3dPolylineVertex
 10
1.200659482465014
 20
9.83409720719128
 30
0.0
 70
    32
  0
VERTEX
  5
55A
330
554
100
AcDbEntity
  8
DIM
100
AcDbVertex
100
AcDb3dPolylineVertex
 10
1.168290482465014
 20
9.83409720719128
 30
0.0
 70
    32
  0
VERTEX
  5
55B
330
554
100
AcDbEntity
  8
DIM
100
AcDbVertex
100
AcDb3dPolylineVertex
 10
1.165123482465014
 20
9.833023207191281
 30
0.0
 70
    32
  0
VERTEX
  5
55C
330
554
100
AcDbEntity
  8
DIM
100
AcDbVertex
100
AcDb3dPolylineVertex
 10
1.163267482465014
 20
9.83024320719128
 30
0.0
 70
    32
  0
VERTEX
  5
55D
330
554
100
AcDbEntity
  8
DIM
100
AcDbVertex
100
AcDb3dPolylineVertex
 10
1.160727482465014
 20
9.820764207191281
 30
0.0
 70
    32
  0
SEQEND
  5
55E
330
554
100
AcDbEntity
  8
DIM
  0
POLYLINE
  5
55F
330
478
100
AcDbEntity
  8
DIM
  6
Continuous
100
AcDb3dPolyline
 66
     1
 10
0.0
 20
0.0
 30
0.0
 70
     8
  0
VERTEX
  5
560
330
55F
100
AcDbEntity
  8
DIM
100
AcDbVertex
100
AcDb3dPolylineVertex
 10
0.9520614824650142
 20
9.820764207191281
 30
0.0
 70
    32
  0
VERTEX
  5
561
330
55F
100
AcDbEntity
  8
DIM
100
AcDbVertex
100
AcDb3dPolylineVertex
 10
0.9882954824650145
 20
9.820764207191281
 30
0.0
 70
    32
  0
VERTEX
  5
562
330
55F
100
AcDbEntity
  8
DIM
100
AcDbVertex
100
AcDb3dPolylineVertex
 10
0.990115482465014
 20
9.827552207191281
 30
0.0
 70
    32
  0
VERTEX
  5
563
330
55F
100
AcDbEntity
  8
DIM
100
AcDbVertex
100
AcDb3dPolylineVertex
 10
0.9892174824650146
 20
9.832063207191282
 30
0.0
 70
    32
  0
VERTEX
  5
564
330
55F
100
AcDbEntity
  8
DIM
100
AcDbVertex
100
AcDb3dPolylineVertex
 10
0.9850924824650144
 20
9.83409720719128
 30
0.0
 70
    32
  0
VERTEX
  5
565
330
55F
100
AcDbEntity
  8
DIM
100
AcDbVertex
100
AcDb3dPolylineVertex
 10
0.9596244824650144
 20
9.83409720719128
 30
0.0
 70
    32
  0
VERTEX
  5
566
330
55F
100
AcDbEntity
  8
DIM
100
AcDbVertex
100
AcDb3dPolylineVertex
 10
0.956457482465014
 20
9.833023207191281
 30
0.0
 70
    32
  0
VERTEX
  5
567
330
55F
100
AcDbEntity
  8
DIM
100
AcDbVertex
100
AcDb3dPolylineVertex
 10
0.9546014824650139
 20
9.83024320719128
 30
0.0
 70
    32
  0
VERTEX
  5
568
330
55F
100
AcDbEntity
  8
DIM
100
AcDbVertex
100
AcDb3dPolylineVertex
 10
0.9520614824650142
 20
9.820764207191281
 30
0.0
 70
    32
  0
SEQEND
  5
569
330
55F
100
AcDbEntity
  8
DIM
  0
POLYLINE
  5
56A
330
478
100
AcDbEntity
  8
DIM
  6
Continuous
100
AcDb3dPolyline
 66
     1
 10
0.0
 20
0.0
 30
0.0
 70
     8
  0
VERTEX
  5
56B
330
56A
100
AcDbEntity
  8
DIM
100
AcDbVertex
100
AcDb3dPolylineVertex
 10
1.092750482465014
 20
9.83409720719128
 30
0.0
 70
    32
  0
VERTEX
  5
56C
330
56A
100
AcDbEntity
  8
DIM
100
AcDbVertex
100
AcDb3dPolylineVertex
 10
1.067408482465014
 20
9.83409720719128
 30
0.0
 70
    32
  0
VERTEX
  5
56D
330
56A
100
AcDbEntity
  8
DIM
100
AcDbVertex
100
AcDb3dPolylineVertex
 10
1.064242482465014
 20
9.833023207191281
 30
0.0
 70
    32
  0
VERTEX
  5
56E
330
56A
100
AcDbEntity
  8
DIM
100
AcDbVertex
100
AcDb3dPolylineVertex
 10
1.062384482465014
 20
9.83024320719128
 30
0.0
 70
    32
  0
VERTEX
  5
56F
330
56A
100
AcDbEntity
  8
DIM
100
AcDbVertex
100
AcDb3dPolylineVertex
 10
1.051237482465014
 20
9.788643207191281
 30
0.0
 70
    32
  0
VERTEX
  5
570
330
56A
100
AcDbEntity
  8
DIM
100
AcDbVertex
100
AcDb3dPolylineVertex
 10
1.052136482465014
 20
9.78413220719128
 30
0.0
 70
    32
  0
VERTEX
  5
571
330
56A
100
AcDbEntity
  8
DIM
100
AcDbVertex
100
AcDb3dPolylineVertex
 10
1.056261482465013
 20
9.782097207191281
 30
0.0
 70
    32
  0
VERTEX
  5
572
330
56A
100
AcDbEntity
  8
DIM
100
AcDbVertex
100
AcDb3dPolylineVertex
 10
1.078817482465014
 20
9.782097207191281
 30
0.0
 70
    32
  0
VERTEX
  5
573
330
56A
100
AcDbEntity
  8
DIM
100
AcDbVertex
100
AcDb3dPolylineVertex
 10
1.092750482465014
 20
9.83409720719128
 30
0.0
 70
    32
  0
SEQEND
  5
574
330
56A
100
AcDbEntity
  8
DIM
  0
POLYLINE
  5
575
330
478
100
AcDbEntity
  8
DIM
  6
Continuous
100
AcDb3dPolyline
 66
     1
 10
0.0
 20
0.0
 30
0.0
 70
     8
  0
VERTEX
  5
576
330
575
100
AcDbEntity
  8
DIM
100
AcDbVertex
100
AcDb3dPolylineVertex
 10
1.428790482465013
 20
9.899197207191281
 30
0.0
 70
    32
  0
VERTEX
  5
577
330
575
100
AcDbEntity
  8
DIM
100
AcDbVertex
100
AcDb3dPolylineVertex
 10
1.426930482465014
 20
9.90614220719128
 30
0.0
 70
    32
  0
VERTEX
  5
578
330
575
100
AcDbEntity
  8
DIM
100
AcDbVertex
100
AcDb3dPolylineVertex
 10
1.421846482465014
 20
9.911225207191282
 30
0.0
 70
    32
  0
VERTEX
  5
579
330
575
100
AcDbEntity
  8
DIM
100
AcDbVertex
100
AcDb3dPolylineVertex
 10
1.414901482465014
 20
9.913085207191279
 30
0.0
 70
    32
  0
VERTEX
  5
57A
330
575
100
AcDbEntity
  8
DIM
100
AcDbVertex
100
AcDb3dPolylineVertex
 10
1.407957482465014
 20
9.911225207191282
 30
0.0
 70
    32
  0
VERTEX
  5
57B
330
575
100
AcDbEntity
  8
DIM
100
AcDbVertex
100
AcDb3dPolylineVertex
 10
1.402872482465014
 20
9.90614220719128
 30
0.0
 70
    32
  0
VERTEX
  5
57C
330
575
100
AcDbEntity
  8
DIM
100
AcDbVertex
100
AcDb3dPolylineVertex
 10
1.401013482465014
 20
9.899197207191281
 30
0.0
 70
    32
  0
VERTEX
  5
57D
330
575
100
AcDbEntity
  8
DIM
100
AcDbVertex
100
AcDb3dPolylineVertex
 10
1.402872482465014
 20
9.89225220719128
 30
0.0
 70
    32
  0
VERTEX
  5
57E
330
575
100
AcDbEntity
  8
DIM
100
AcDbVertex
100
AcDb3dPolylineVertex
 10
1.407957482465014
 20
9.88716820719128
 30
0.0
 70
    32
  0
VERTEX
  5
57F
330
575
100
AcDbEntity
  8
DIM
100
AcDbVertex
100
AcDb3dPolylineVertex
 10
1.414901482465014
 20
9.885308207191279
 30
0.0
 70
    32
  0
VERTEX
  5
580
330
575
100
AcDbEntity
  8
DIM
100
AcDbVertex
100
AcDb3dPolylineVertex
 10
1.421846482465014
 20
9.88716820719128
 30
0.0
 70
    32
  0
VERTEX
  5
581
330
575
100
AcDbEntity
  8
DIM
100
AcDbVertex
100
AcDb3dPolylineVertex
 10
1.426930482465014
 20
9.89225220719128
 30
0.0
 70
    32
  0
VERTEX
  5
582
330
575
100
AcDbEntity
  8
DIM
100
AcDbVertex
100
AcDb3dPolylineVertex
 10
1.428790482465013
 20
9.899197207191281
 30
0.0
 70
    32
  0
SEQEND
  5
583
330
575
100
AcDbEntity
  8
DIM
  0
TEXT
  5
584
330
478
100
AcDbEntity
  8
DIM
  6
Continuous
100
AcDbText
 10
1.410735482465014
 20
9.889514207191282
 30
0.0
 40
0.016667
  1
R
  7
TXT
100
AcDbText
  0
LINE
  5
585
330
478
100
AcDbEntity
  8
0
  6
Continuous
100
AcDbLine
 10
8.499999000000002
 20
11.0
 30
0.0
 11
8.499998999999998
 21
0.0
 31
0.0
  0
LINE
  5
586
330
478
100
AcDbEntity
  8
0
  6
Continuous
100
AcDbLine
 10
8.102989035069963
 20
10.61966820719128
 30
0.0
 11
8.102989035069963
 21
0.277709679505342
 31
0.0
  0
LINE
  5
587
330
478
100
AcDbEntity
  8
0
  6
Continuous
100
AcDbLine
 10
8.132988035069963
 20
10.64966820719128
 30
0.0
 11
8.132988035069963
 21
0.2477096795053421
 31
0.0
  0
TEXT
  5
588
330
478
100
AcDbEntity
  8
DIM
  6
Continuous
 62
     7
100
AcDbText
 10
5.754999
 20
0.357709679505342
 30
0.0
 40
0.15
  1
TC-1010XX
  7
TXT
100
AcDbText
  0
TEXT
  5
589
330
478
100
AcDbEntity
  8
DIM
  6
Continuous
100
AcDbText
 10
5.454998999999999
 20
0.9477096795053419
 30
0.0
 40
0.07
  1
Material Description
  7
TXT
100
AcDbText
  0
LINE
  5
58A
330
478
100
AcDbEntity
  8
0
  6
Continuous
100
AcDbLine
 10
2.466005482465015
 20
1.952709679505342
 30
0.0
 11
8.132988035069963
 21
1.952709679505342
 31
0.0
  0
LINE
  5
58B
330
478
100
AcDbEntity
  8
0
  6
Continuous
100
AcDbLine
 10
2.466005482465015
 20
1.657709679505342
 30
0.0
 11
8.132988035069963
 21
1.657709679505342
 31
0.0
  0
LINE
  5
58C
330
478
100
AcDbEntity
  8
0
  6
Continuous
100
AcDbLine
 10
2.466005482465015
 20
1.362709679505341
 30
0.0
 11
8.132988035069963
 21
1.362709679505341
 31
0.0
  0
LINE
  5
58D
330
478
100
AcDbEntity
  8
0
  6
Continuous
100
AcDbLine
 10
2.466005482465015
 20
1.067709679505342
 30
0.0
 11
8.132988035069963
 21
1.067709679505342
 31
0.0
  0
LINE
  5
58E
330
478
100
AcDbEntity
  8
0
  6
Continuous
100
AcDbLine
 10
2.466005482465015
 20
0.9077096795053417
 30
0.0
 11
8.132988035069963
 21
0.9077096795053417
 31
0.0
  0
LINE
  5
58F
330
478
100
AcDbEntity
  8
0
  6
Continuous
100
AcDbLine
 10
4.454998999999999
 20
2.247709679505342
 30
0.0
 11
4.454998999999999
 21
0.5877096795053421
 31
0.0
  0
LINE
  5
590
330
478
100
AcDbEntity
  8
0
  6
Continuous
100
AcDbLine
 10
2.816005482465013
 20
2.247709679505342
 30
0.0
 11
2.816005482465013
 21
0.9077096795053417
 31
0.0
  0
LINE
  5
591
330
478
100
AcDbEntity
  8
0
  6
Continuous
100
AcDbLine
 10
2.466005482465015
 20
2.247709679505342
 30
0.0
 11
2.466005482465015
 21
0.2477096795053421
 31
0.0
  0
TEXT
  5
592
330
478
100
AcDbEntity
  8
DIM
  6
Continuous
100
AcDbText
 10
3.495905482465013
 20
0.631165679505342
 30
0.0
 40
0.1
  1
ED LEE
 41
0.8
  7
TXT
100
AcDbText
  0
TEXT
  5
593
330
478
100
AcDbEntity
  8
DIM
  6
Continuous
100
AcDbText
 10
3.497111482465013
 20
0.7826826795053421
 30
0.0
 40
0.07
  1
Drawn:
  7
TXT
100
AcDbText
  0
TEXT
  5
594
330
478
100
AcDbEntity
  8
DIM
  6
Continuous
100
AcDbText
 10
3.166005482465014
 20
0.9477096795053419
 30
0.0
 40
0.07
  1
R.M. Number
  7
TXT
100
AcDbText
  0
CIRCLE
  5
595
330
478
100
AcDbEntity
  8
DIM
  6
Continuous
100
AcDbCircle
 10
2.641005482465014
 20
1.805209679505342
 30
0.0
 40
0.09
  0
CIRCLE
  5
596
330
478
100
AcDbEntity
  8
DIM
  6
Continuous
100
AcDbCircle
 10
2.641005482465014
 20
1.215209679505341
 30
0.0
 40
0.09
  0
TEXT
  5
597
330
478
100
AcDbEntity
  8
DIM
  6
Continuous
100
AcDbText
 10
2.535803482465014
 20
0.450594679505342
 30
0.0
 40
0.07
  1
Part
  7
TXT
100
AcDbText
  0
TEXT
  5
598
330
478
100
AcDbEntity
  8
DIM
  6
Continuous
100
AcDbText
 10
2.535803482465014
 20
0.3455946795053419
 30
0.0
 40
0.07
  1
No.
  7
TXT
100
AcDbText
  0
TEXT
  5
599
330
478
100
AcDbEntity
  8
DIM
  6
Continuous
100
AcDbText
 10
2.522309482465014
 20
0.9477096795053419
 30
0.0
 40
0.07
  1
Item
  7
TXT
100
AcDbText
  0
CIRCLE
  5
59A
330
478
100
AcDbEntity
  8
DIM
  6
Continuous
100
AcDbCircle
 10
2.641005482465014
 20
1.510209679505342
 30
0.0
 40
0.09
  0
TEXT
  5
59B
330
478
100
AcDbEntity
  8
DIM
  6
Continuous
100
AcDbText
 10
1.504947482465014
 20
0.7927096795053421
 30
0.0
 40
0.07
  1
Approved:
  7
TXT
100
AcDbText
  0
TEXT
  5
59C
330
478
100
AcDbEntity
  8
DIM
  6
Continuous
100
AcDbText
 10
1.609025482465013
 20
0.9377096795053422
 30
0.0
 40
0.1
  1
1
 41
0.8
  7
TXT
100
AcDbText
  0
LINE
  5
59D
330
478
100
AcDbEntity
  8
DIM
  6
Continuous
100
AcDbLine
 10
1.775813482465014
 20
1.626727679505342
 30
0.0
 11
2.163564482465013
 21
1.626727679505342
 31
0.0
  0
TEXT
  5
59E
330
478
100
AcDbEntity
  8
DIM
  6
Continuous
100
AcDbText
 10
1.593447482465013
 20
1.297877679505342
 30
0.0
 40
0.08
  1
Inch
  7
TXT
100
AcDbText
  0
TEXT
  5
59F
330
478
100
AcDbEntity
  8
DIM
  6
Continuous
100
AcDbText
 10
1.692374482465014
 20
1.621102679505342
 30
0.0
 40
0.04
  1
-
  7
TXT
100
AcDbText
  0
TEXT
  5
5A0
330
478
100
AcDbEntity
  8
DIM
  6
Continuous
100
AcDbText
 10
1.692374482465014
 20
1.654849679505342
 30
0.0
 40
0.04
  1
+
  7
TXT
100
AcDbText
  0
LINE
  5
5A1
330
478
100
AcDbEntity
  8
DIM
  6
Continuous
100
AcDbLine
 10
2.166005482465014
 20
1.417709679505342
 30
0.0
 11
2.016005482465014
 21
1.267709679505341
 31
0.0
  0
LINE
  5
5A2
330
478
100
AcDbEntity
  8
DIM
  6
Continuous
100
AcDbLine
 10
2.016005482465014
 20
1.417709679505342
 30
0.0
 11
2.166005482465014
 21
1.267709679505341
 31
0.0
  0
LINE
  5
5A3
330
478
100
AcDbEntity
  8
DIM
  6
Continuous
100
AcDbLine
 10
2.016005482465014
 20
1.267709679505341
 30
0.0
 11
2.016005482465014
 21
1.417709679505342
 31
0.0
  0
LINE
  5
5A4
330
478
100
AcDbEntity
  8
DIM
  6
Continuous
100
AcDbLine
 10
2.166005482465014
 20
1.267709679505341
 30
0.0
 11
2.166005482465014
 21
1.417709679505342
 31
0.0
  0
LINE
  5
5A5
330
478
100
AcDbEntity
  8
DIM
  6
Continuous
100
AcDbLine
 10
2.016005482465014
 20
1.267709679505341
 30
0.0
 11
2.166005482465014
 21
1.267709679505341
 31
0.0
  0
LINE
  5
5A6
330
478
100
AcDbEntity
  8
DIM
  6
Continuous
100
AcDbLine
 10
2.016005482465014
 20
1.417709679505342
 30
0.0
 11
2.166005482465014
 21
1.417709679505342
 31
0.0
  0
LINE
  5
5A7
330
478
100
AcDbEntity
  8
0
  6
Continuous
100
AcDbLine
 10
3.416005482465014
 20
0.9077096795053417
 30
0.0
 11
3.416005482465014
 21
0.5877096795053421
 31
0.0
  0
TEXT
  5
5A8
330
478
100
AcDbEntity
  8
DIM
  6
Continuous
100
AcDbText
 10
2.614581482465013
 20
1.470204679505342
 30
0.0
 40
0.07
  1
2
  7
TXT
100
AcDbText
  0
TEXT
  5
5A9
330
478
100
AcDbEntity
  8
DIM
  6
Continuous
100
AcDbText
 10
2.605779482465014
 20
1.178940679505341
 30
0.0
 40
0.07
  1
1
  7
TXT
100
AcDbText
  0
TEXT
  5
5AA
330
478
100
AcDbEntity
  8
DIM
  6
Continuous
100
AcDbText
 10
2.614456482465013
 20
1.770080679505341
 30
0.0
 40
0.07
  1
3
  7
TXT
100
AcDbText
  0
TEXT
  5
5AB
330
478
100
AcDbEntity
  8
DIM
  6
Continuous
100
AcDbText
 10
4.521196
 20
0.7826826795053421
 30
0.0
 40
0.07
  1
Title:
  7
TXT
100
AcDbText
  0
TEXT
  5
5AC
330
478
100
AcDbEntity
  8
DIM
  6
Continuous
100
AcDbText
 10
4.892117999999999
 20
0.648016679505342
 30
0.0
 40
0.15
  1
ED LEE
  7
TXT
100
AcDbText
  0
LINE
  5
5AD
330
478
100
AcDbEntity
  8
0
  6
Continuous
100
AcDbLine
 10
5.254999999999999
 20
0.5877096795053421
 30
0.0
 11
5.254999999999999
 21
0.2477096795053421
 31
0.0
  0
TEXT
  5
5AE
330
478
100
AcDbEntity
  8
DIM
  6
Continuous
100
AcDbText
 10
5.325199
 20
0.3455946795053419
 30
0.0
 40
0.07
  1
No.
  7
TXT
100
AcDbText
  0
TEXT
  5
5AF
330
478
100
AcDbEntity
  8
DIM
  6
Continuous
100
AcDbText
 10
5.325199
 20
0.450594679505342
 30
0.0
 40
0.07
  1
Dwg.
  7
TXT
100
AcDbText
  0
CIRCLE
  5
5B0
330
478
100
AcDbEntity
  8
DIM
  6
Continuous
100
AcDbCircle
 10
2.641005482465014
 20
2.100209679505342
 30
0.0
 40
0.09
  0
TEXT
  5
5B1
330
478
100
AcDbEntity
  8
DIM
  6
Continuous
100
AcDbText
 10
2.617327482465014
 20
2.067463679505341
 30
0.0
 40
0.07
  1
4
  7
TXT
100
AcDbText
  0
LINE
  5
5B2
330
478
100
AcDbEntity
  8
0
  6
Continuous
100
AcDbLine
 10
7.432989035069963
 20
0.5877096795053421
 30
0.0
 11
7.432989035069963
 21
0.2477096795053421
 31
0.0
  0
TEXT
  5
5B3
330
478
100
AcDbEntity
  8
0
100
AcDbText
 10
5.881944125975935
 20
2.407573981822823
 30
0.0
 40
0.12
  1
UNLESS PRINTER IS QUALIFIED
 41
0.75
  7
ROMANS
100
AcDbText
  0
TEXT
  5
5B4
330
478
100
AcDbEntity
  8
0
100
AcDbText
 10
5.881944125975935
 20
2.601859696108538
 30
0.0
 40
0.12
  1
DO NOT SCALE THIS DRAWING
 41
0.75
  7
ROMANS
100
AcDbText
  0
LINE
  5
5B5
330
478
100
AcDbEntity
  8
0
  6
Continuous
100
AcDbLine
 10
4.390546596429751
 20
10.02966820719128
 30
0.0
 11
8.132988035069963
 21
10.02966820719128
 31
0.0
  0
LINE
  5
5B6
330
478
100
AcDbEntity
  8
0
  6
Continuous
100
AcDbLine
 10
4.390546596429751
 20
9.789668207191279
 30
0.0
 11
8.132988035069963
 21
9.789668207191279
 31
0.0
  0
LINE
  5
5B7
330
478
100
AcDbEntity
  8
0
  6
Continuous
100
AcDbLine
 10
4.390546596429751
 20
10.26966820719128
 30
0.0
 11
8.132988035069963
 21
10.26966820719128
 31
0.0
  0
LINE
  5
5B8
330
478
100
AcDbEntity
  8
0
  6
Continuous
100
AcDbLine
 10
4.390546596429751
 20
10.44966820719128
 30
0.0
 11
8.132988035069963
 21
10.44966820719128
 31
0.0
  0
TEXT
  5
5B9
330
478
100
AcDbEntity
  8
DIM
  6
Continuous
100
AcDbText
 10
5.417466571031645
 20
10.3205727786213
 30
0.0
 40
0.07
  1
Description
  7
TXT
100
AcDbText
  0
TEXT
  5
5BA
330
478
100
AcDbEntity
  8
DIM
100
AcDbText
 10
1.717670802925455
 20
9.995039066999588
 30
0.0
 40
0.06
  1
The information disclosed on this drawing is confidential
 41
0.75
  7
ROMANS
100
AcDbText
  0
TEXT
  5
5BB
330
478
100
AcDbEntity
  8
DIM
100
AcDbText
 10
1.717670802925455
 20
9.800753352713872
 30
0.0
 40
0.06
  1
disclosure, or reproduction of this information and related
 41
0.75
  7
ROMANS
100
AcDbText
  0
TEXT
  5
5BC
330
478
100
AcDbEntity
  8
0
  6
Continuous
100
AcDbText
 10
1.516004482465014
 20
10.41193520719128
 30
0.0
 40
0.15
  1
ROCHESTER DIVISION
  7
TXT
100
AcDbText
  0
TEXT
  5
5BD
330
478
100
AcDbEntity
  8
0
  6
Continuous
100
AcDbText
 10
1.891004482465014
 20
10.18693520719127
 30
0.0
 40
0.15
  1
PRODUCT PRINT
  7
TXT
100
AcDbText
  0
LINE
  5
5BE
330
478
100
AcDbEntity
  8
0
  6
Continuous
100
AcDbLine
 10
1.466005482465015
 20
10.13237259611138
 30
0.0
 11
4.390546596429751
 21
10.13237259611138
 31
0.0
  0
TEXT
  5
5BF
330
478
100
AcDbEntity
  8
DIM
100
AcDbText
 10
1.717670802925455
 20
9.897896209856732
 30
0.0
 40
0.06
  1
and the property of Schlegel Systems, Inc.  The use,
 41
0.75
  7
ROMANS
100
AcDbText
  0
TEXT
  5
5C0
330
478
100
AcDbEntity
  8
DIM
100
AcDbText
 10
1.717670802925455
 20
9.703610495571016
 30
0.0
 40
0.06
  1
knowhow is prohibited without written permission form
 41
0.75
  7
ROMANS
100
AcDbText
  0
LINE
  5
5C1
330
478
100
AcDbEntity
  8
0
  6
Continuous
100
AcDbLine
 10
1.466005482465014
 20
10.64966820719128
 30
0.0
 11
1.466005482465014
 21
9.549668207191281
 31
0.0
  0
TEXT
  5
5C2
330
478
100
AcDbEntity
  8
DIM
100
AcDbText
 10
1.717670802925455
 20
9.606467638428156
 30
0.0
 40
0.06
  1
Schlegel Systems, Inc.
 41
0.75
  7
ROMANS
100
AcDbText
  0
LINE
  5
5C3
330
478
100
AcDbEntity
  8
0
  6
Continuous
100
AcDbLine
 10
4.714999999999998
 20
10.44966820719128
 30
0.0
 11
4.714999999999998
 21
9.549668207191281
 31
0.0
  0
LINE
  5
5C4
330
478
100
AcDbEntity
  8
0
  6
Continuous
100
AcDbLine
 10
4.390546596429751
 20
10.64966820719128
 30
0.0
 11
4.390546596429751
 21
9.549668207191281
 31
0.0
  0
CIRCLE
  5
5C5
330
478
100
AcDbEntity
  8
DIM
  6
Continuous
100
AcDbCircle
 10
4.534999
 20
9.669668207191282
 30
0.0
 40
0.09
  0
TEXT
  5
5C6
330
478
100
AcDbEntity
  8
DIM
  6
Continuous
100
AcDbText
 10
4.510348999999998
 20
9.637546207191281
 30
0.0
 40
0.07
  1
C
  7
TXT
100
AcDbText
  0
CIRCLE
  5
5C7
330
478
100
AcDbEntity
  8
DIM
  6
Continuous
100
AcDbCircle
 10
4.534999
 20
10.14966820719128
 30
0.0
 40
0.09
  0
CIRCLE
  5
5C8
330
478
100
AcDbEntity
  8
DIM
  6
Continuous
100
AcDbCircle
 10
4.534999
 20
9.909667207191283
 30
0.0
 40
0.09
  0
TEXT
  5
5C9
330
478
100
AcDbEntity
  8
DIM
  6
Continuous
100
AcDbText
 10
4.515356999999998
 20
9.878557207191281
 30
0.0
 40
0.07
  1
B
  7
TXT
100
AcDbText
  0
TEXT
  5
5CA
330
478
100
AcDbEntity
  8
DIM
  6
Continuous
100
AcDbText
 10
4.508183999999999
 20
10.12075620719128
 30
0.0
 40
0.07
  1
A
  7
TXT
100
AcDbText
  0
TEXT
  5
5CB
330
478
100
AcDbEntity
  8
DIM
  6
Continuous
100
AcDbText
 10
4.43624252803083
 20
10.3205727786213
 30
0.0
 40
0.07
  1
Lev
  7
TXT
100
AcDbText
  0
TEXT
  5
5CC
330
478
100
AcDbEntity
  8
DIM
  6
Continuous
100
AcDbText
 10
5.875447999999999
 20
10.50720320719128
 30
0.0
 40
0.07
  1
Revisions
  7
TXT
100
AcDbText
  0
LINE
  5
5CD
330
478
100
AcDbEntity
  8
0
  6
Continuous
100
AcDbLine
 10
7.132988035069963
 20
10.44966820719128
 30
0.0
 11
7.132988035069963
 21
9.549668207191281
 31
0.0
  0
LINE
  5
5CE
330
478
100
AcDbEntity
  8
0
  6
Continuous
100
AcDbLine
 10
7.752988035069962
 20
10.44966820719128
 30
0.0
 11
7.752988035069962
 21
9.549668207191281
 31
0.0
  0
TEXT
  5
5CF
330
478
100
AcDbEntity
  8
DIM
  6
Continuous
100
AcDbText
 10
7.313297039582379
 20
10.3205727786213
 30
0.0
 40
0.07
  1
Date
  7
TXT
100
AcDbText
  0
TEXT
  5
5D0
330
478
100
AcDbEntity
  8
DIM
  6
Continuous
100
AcDbText
 10
7.863438035069962
 20
10.3205727786213
 30
0.0
 40
0.07
  1
By
  7
TXT
100
AcDbText
  0
ENDBLK
  5
5D2
330
478
100
AcDbEntity
  8
0
100
AcDbBlockEnd
  0
BLOCK
  5
CFA
330
CEF
100
AcDbEntity
  8
0
100
AcDbBlockBegin
  2
*D8
 70
     1
 10
0.0
 20
0.0
 30
0.0
  3
*D8
  1

  0
LINE
  5
D06
330
CEF
100
AcDbEntity
  8
0
370
    -2
100
AcDbLine
 10
2.358702641891258
 20
7.521029137257309
 30
0.0
 11
2.358702641891258
 21
8.822908669912894
 31
0.0
  0
LINE
  5
D07
330
CEF
100
AcDbEntity
  8
0
370
    -2
100
AcDbLine
 10
9.110702641891258
 20
7.521029137257309
 30
0.0
 11
9.110702641891258
 21
8.822908669912894
 31
0.0
  0
LINE
  5
D08
330
CEF
100
AcDbEntity
  8
0
370
    -2
100
AcDbLine
 10
2.508702641891258
 20
8.732908669912895
 30
0.0
 11
5.504299092807405
 21
8.732908669912895
 31
0.0
  0
LINE
  5
D09
330
CEF
100
AcDbEntity
  8
0
370
    -2
100
AcDbLine
 10
8.960702641891257
 20
8.732908669912895
 30
0.0
 11
6.532870521378834
 21
8.732908669912895
 31
0.0
  0
SOLID
  5
D0A
330
CEF
100
AcDbEntity
  8
0
100
AcDbTrace
 10
2.508702641891258
 20
8.757908669912895
 30
0.0
 11
2.508702641891258
 21
8.707908669912894
 31
0.0
 12
2.358702641891258
 22
8.732908669912895
 32
0.0
 13
2.358702641891258
 23
8.732908669912895
 33
0.0
  0
SOLID
  5
D0B
330
CEF
100
AcDbEntity
  8
0
100
AcDbTrace
 10
8.960702641891257
 20
8.757908669912895
 30
0.0
 11
8.960702641891257
 21
8.707908669912894
 31
0.0
 12
9.110702641891258
 22
8.732908669912895
 32
0.0
 13
9.110702641891258
 23
8.732908669912895
 33
0.0
  0
MTEXT
  5
D0C
330
CEF
100
AcDbEntity
  8
0
100
AcDbMText
 10
6.01858480709312
 20
8.732908669912895
 30
0.0
 40
0.12
 41
0.0
 71
     5
 72
     1
  1
\A1;1.688 ±.030
  7
ROMANS
 73
     1
 44
1.0
  0
POINT
  5
D0D
330
CEF
100
AcDbEntity
  8
Defpoints
 62
     0
100
AcDbPoint
 10
2.358702641891258
 20
7.431029137257309
 30
0.0
  0
POINT
  5
D0E
330
CEF
100
AcDbEntity
  8
Defpoints
 62
     0
100
AcDbPoint
 10
9.110702641891258
 20
7.431029137257309
 30
0.0
  0
POINT
  5
D0F
330
CEF
100
AcDbEntity
  8
Defpoints
 62
     0
100
AcDbPoint
 10
9.110702641891258
 20
8.732908669912895
 30
0.0
  0
ENDBLK
  5
CFB
330
CEF
100
AcDbEntity
  8
0
100
AcDbBlockEnd
  0
BLOCK
  5
D18
330
D11
100
AcDbEntity
  8
0
100
AcDbBlockBegin
  2
*D9
 70
     1
 10
0.0
 20
0.0
 30
0.0
  3
*D9
  1

  0
LINE
  5
D26
330
D11
100
AcDbEntity
  8
0
370
    -2
100
AcDbLine
 10
2.301233197378078
 20
6.038791708501398
 30
0.0
 11
2.151233197378078
 21
6.038791708501398
 31
0.0
  0
LINE
  5
D27
330
D11
100
AcDbEntity
  8
0
370
    -2
100
AcDbLine
 10
2.151233197378078
 20
6.038791708501398
 30
0.0
 11
2.53844623309127
 21
6.801362264014241
 31
0.0
  0
MTEXT
  5
D28
330
D11
100
AcDbEntity
  8
0
100
AcDbMText
 10
2.944090340235221
 20
6.038791708501398
 30
0.0
 40
0.12
 41
0.0
 71
     5
 72
     1
  1
\A1;.218 DIA. ±.020
  7
ROMANS
 73
     1
 44
1.0
  0
SOLID
  5
D29
330
D11
100
AcDbEntity
  8
0
100
AcDbTrace
 10
2.516155293460393
 20
6.812681009985972
 30
0.0
 11
2.560737172722148
 21
6.79004351804251
 31
0.0
 12
2.606358708921656
 22
6.935107901799507
 32
0.0
 13
2.606358708921656
 23
6.935107901799507
 33
0.0
  0
POINT
  5
D2A
330
D11
100
AcDbEntity
  8
Defpoints
 62
     0
100
AcDbPoint
 10
2.606358708921656
 20
6.935107901799507
 30
0.0
  0
POINT
  5
D2B
330
D11
100
AcDbEntity
  8
Defpoints
 62
     0
100
AcDbPoint
 10
2.983046574860859
 20
7.67695037271511
 30
0.0
  0
ENDBLK
  5
D19
330
D11
100
AcDbEntity
  8
0
100
AcDbBlockEnd
  0
BLOCK
  5
D3E
330
D37
100
AcDbEntity
  8
0
100
AcDbBlockBegin
  2
*D11
 70
     1
 10
0.0
 20
0.0
 30
0.0
  3
*D11
  1

  0
LINE
  5
D4C
330
D37
100
AcDbEntity
  8
0
370
    -2
100
AcDbLine
 10
9.116727852981718
 20
5.841389839672451
 30
0.0
 11
9.475757425215713
 21
5.841389839672451
 31
0.0
  0
LINE
  5
D4D
330
D37
100
AcDbEntity
  8
0
370
    -2
100
AcDbLine
 10
9.475757425215713
 20
5.841389839672451
 30
0.0
 11
9.042104158418624
 21
6.98982148736413
 31
0.0
  0
MTEXT
  5
D4E
330
D37
100
AcDbEntity
  8
0
100
AcDbMText
 10
8.473870710124574
 20
5.841389839672451
 30
0.0
 40
0.12
 41
0.0
 71
     5
 72
     1
  1
\A1;.094 DIA. ±.020
  7
ROMANS
 73
     1
 44
1.0
  0
SOLID
  5
D4F
330
D37
100
AcDbEntity
  8
0
100
AcDbTrace
 10
9.065492298203622
 20
6.998652960480059
 30
0.0
 11
9.018716018633625
 21
6.980990014248201
 31
0.0
 12
8.989115319723048
 22
7.130150326074119
 32
0.0
 13
8.989115319723048
 23
7.130150326074119
 33
0.0
  0
POINT
  5
D50
330
D37
100
AcDbEntity
  8
Defpoints
 62
     0
100
AcDbPoint
 10
8.989115319723048
 20
7.130150326074119
 30
0.0
  0
POINT
  5
D51
330
D37
100
AcDbEntity
  8
Defpoints
 62
     0
100
AcDbPoint
 10
8.856289964059468
 20
7.481907948440492
 30
0.0
  0
ENDBLK
  5
D3F
330
D37
100
AcDbEntity
  8
0
100
AcDbBlockEnd
  0
ENDSEC
  0
SECTION
  2
ENTITIES
  0
LINE
  5
BD7
330
1A
100
AcDbEntity
  8
0
  6
Continuous
 62
     7
100
AcDbLine
 10
6.635467654970065
 20
7.134170047469726
 30
0.0
 11
5.369986453185015
 21
7.185426029861726
 31
0.0
  0
LINE
  5
BD8
330
1A
100
AcDbEntity
  8
0
  6
Continuous
 62
     7
100
AcDbLine
 10
5.105774443495065
 20
7.191123350494725
 30
0.0
 11
5.356892406520431
 21
7.180952280491649
 31
0.0
  0
LINE
  5
BD9
330
1A
100
AcDbEntity
  8
0
  6
Continuous
 62
     7
100
AcDbLine
 10
6.635265305097604
 20
7.045242960278004
 30
0.0
 11
5.105774443495065
 21
6.983293753469726
 31
0.0
  0
LINE
  5
BDA
102
{ACAD_REACTORS
330
D80
102
}
330
1A
100
AcDbEntity
  8
0
  6
Continuous
 62
     7
100
AcDbLine
 10
5.105976793370065
 20
6.978297849694726
 30
0.0
 11
6.635467654970065
 21
7.040247056494726
 31
0.0
  0
ARC
  5
BE6
330
1A
100
AcDbEntity
  8
0
  6
Continuous
 62
     7
100
AcDbCircle
 10
5.101565566195065
 20
7.087208551969726
 30
0.0
 40
0.109
100
AcDbArc
 50
87.68060788100001
 51
272.319392119
  0
ARC
  5
BE7
102
{ACAD_REACTORS
330
D80
102
}
330
1A
100
AcDbEntity
  8
0
  6
Continuous
 62
     7
100
AcDbCircle
 10
5.101565566195065
 20
7.087208551969726
 30
0.0
 40
0.104
100
AcDbArc
 50
87.68060788100001
 51
272.319392119
  0
ARC
  5
C93
330
1A
100
AcDbEntity
  8
0
  6
Continuous
 62
     7
100
AcDbCircle
 10
6.633565566195065
 20
7.087208551969726
 30
0.0
 40
0.047
100
AcDbArc
 50
272.319392119
 51
87.68060788100001
  0
ARC
  5
C94
102
{ACAD_REACTORS
330
D80
102
}
330
1A
100
AcDbEntity
  8
0
  6
Continuous
 62
     7
100
AcDbCircle
 10
6.633565566195065
 20
7.087208551969726
 30
0.0
 40
0.042
100
AcDbArc
 50
272.319392119
 51
87.68060788100001
  0
LINE
  5
CD9
330
1A
100
AcDbEntity
  8
0
  6
Continuous
 62
     7
100
AcDbLine
 10
4.992565566195065
 20
7.118458551969726
 30
0.0
 11
4.992565566195065
 21
7.390077993494726
 31
0.0
  0
LINE
  5
CDA
330
1A
100
AcDbEntity
  8
0
  6
Continuous
 62
     7
100
AcDbLine
 10
6.680565566195065
 20
7.118458551969726
 30
0.0
 11
6.680565566195065
 21
7.390077993494726
 31
0.0
  0
LINE
  5
CFC
330
1A
100
AcDbEntity
  8
0
  6
Continuous
 62
     7
100
AcDbLine
 10
5.123293783787807
 20
7.183312657136831
 30
0.0
 11
5.358556275637647
 21
7.173783783754479
 31
0.0
  0
LINE
  5
CFD
102
{ACAD_REACTORS
330
D80
102
}
330
1A
100
AcDbEntity
  8
0
  6
Continuous
 62
     7
100
AcDbLine
 10
5.357419977124829
 20
7.178833907013657
 30
0.0
 11
5.123496133662807
 21
7.188308560911831
 31
0.0
  0
LINE
  5
CFE
330
1A
100
AcDbEntity
  8
0
100
AcDbLine
 10
5.123496133662807
 20
7.188308560911831
 30
0.0
 11
5.123293783787807
 21
7.183312657136831
 31
0.0
  0
LINE
  5
CFF
330
1A
100
AcDbEntity
  8
0
  6
Continuous
 62
     7
100
AcDbLine
 10
5.369986453185015
 20
7.185426029861726
 30
0.0
 11
5.357419977124829
 21
7.178833907013657
 31
0.0
  0
LINE
  5
D00
330
1A
100
AcDbEntity
  8
0
  6
Continuous
 62
     7
100
AcDbLine
 10
5.358556275637647
 20
7.173783783754479
 30
0.0
 11
5.371122751697851
 21
7.180375906602566
 31
0.0
  0
LINE
  5
D01
330
1A
100
AcDbEntity
  8
0
  6
Continuous
 62
     7
100
AcDbLine
 10
5.357094756389845
 20
7.18594818426671
 30
0.0
 11
5.356892406520431
 21
7.180952280491649
 31
0.0
  0
LINE
  5
D02
330
1A
100
AcDbEntity
  8
0
  6
Continuous
 62
     7
100
AcDbLine
 10
5.357094756389845
 20
7.18594818426671
 30
0.0
 11
5.105976793370065
 21
7.196119254269726
 31
0.0
  0
LINE
  5
D03
102
{ACAD_REACTORS
330
D80
102
}
330
1A
100
AcDbEntity
  8
0
  6
Continuous
 62
     7
100
AcDbLine
 10
5.37112275169785
 20
7.180375906602566
 30
0.0
 11
6.635265305120065
 21
7.129174143694726
 31
0.0
  0
LINE
  5
D6E
330
1A
100
AcDbEntity
  8
0
100
AcDbLine
 10
4.97819820506677
 20
6.770399194780748
 30
0.0
 11
4.94069820506677
 21
6.770399194780748
 31
0.0
  0
LINE
  5
D6F
330
1A
100
AcDbEntity
  8
0
100
AcDbLine
 10
4.94069820506677
 20
6.770399194780748
 30
0.0
 11
5.037501463995068
 21
6.961041833658959
 31
0.0
  0
MTEXT
  5
D70
330
1A
100
AcDbEntity
  8
0
100
AcDbMText
 10
5.138912490781056
 20
6.770399194780749
 30
0.0
 40
0.03
 41
0.0
 71
     5
 72
     1
  1
\A1;.218 DIA. ±.020
  7
ROMANS
 73
     1
 44
1.0
  0
SOLID
  5
D71
330
1A
100
AcDbEntity
  8
0
100
AcDbTrace
 10
5.031928729087349
 20
6.963871520151892
 30
0.0
 11
5.043074198902788
 21
6.958212147166026
 31
0.0
 12
5.054479582952665
 22
6.994478243105275
 32
0.0
 13
5.054479582952665
 23
6.994478243105275
 33
0.0
  0
LINE
  5
D72
330
1A
100
AcDbEntity
  8
0
100
AcDbLine
 10
6.68207186896768
 20
6.721048727573512
 30
0.0
 11
6.771829262026178
 21
6.721048727573512
 31
0.0
  0
LINE
  5
D73
330
1A
100
AcDbEntity
  8
0
100
AcDbLine
 10
6.771829262026178
 20
6.721048727573512
 30
0.0
 11
6.663415945326907
 21
7.008156639496431
 31
0.0
  0
MTEXT
  5
D74
330
1A
100
AcDbEntity
  8
0
100
AcDbMText
 10
6.521357583253394
 20
6.721048727573512
 30
0.0
 40
0.03
 41
0.0
 71
     5
 72
     1
  1
\A1;.094 DIA. ±.020
  7
ROMANS
 73
     1
 44
1.0
  0
SOLID
  5
D75
330
1A
100
AcDbEntity
  8
0
100
AcDbTrace
 10
6.669262980273156
 20
7.010364507775413
 30
0.0
 11
6.657568910380657
 21
7.005948771217449
 31
0.0
 12
6.650168735653013
 22
7.043238849173928
 32
0.0
 13
6.650168735653013
 23
7.043238849173928
 33
0.0
  0
LINE
  5
D76
330
1A
100
AcDbEntity
  8
0
 62
     7
100
AcDbLine
 10
4.992565566195065
 20
7.140958551969726
 30
0.0
 11
4.992565566195065
 21
7.466428435133622
 31
0.0
  0
LINE
  5
D77
330
1A
100
AcDbEntity
  8
0
 62
     7
100
AcDbLine
 10
6.680565566195065
 20
7.140958551969726
 30
0.0
 11
6.680565566195065
 21
7.466428435133622
 31
0.0
  0
LINE
  5
D78
330
1A
100
AcDbEntity
  8
0
100
AcDbLine
 10
5.030065566195065
 20
7.443928435133623
 30
0.0
 11
5.778964678924102
 21
7.443928435133623
 31
0.0
  0
LINE
  5
D79
330
1A
100
AcDbEntity
  8
0
100
AcDbLine
 10
6.643065566195065
 20
7.443928435133623
 30
0.0
 11
6.036107536066959
 21
7.443928435133623
 31
0.0
  0
SOLID
  5
D7A
330
1A
100
AcDbEntity
  8
0
100
AcDbTrace
 10
5.030065566195065
 20
7.450178435133622
 30
0.0
 11
5.030065566195065
 21
7.437678435133622
 31
0.0
 12
4.992565566195065
 22
7.443928435133623
 32
0.0
 13
4.992565566195065
 23
7.443928435133623
 33
0.0
  0
SOLID
  5
D7B
330
1A
100
AcDbEntity
  8
0
100
AcDbTrace
 10
6.643065566195065
 20
7.450178435133622
 30
0.0
 11
6.643065566195065
 21
7.437678435133622
 31
0.0
 12
6.680565566195065
 22
7.443928435133623
 32
0.0
 13
6.680565566195065
 23
7.443928435133623
 33
0.0
  0
MTEXT
  5
D7C
330
1A
100
AcDbEntity
  8
0
100
AcDbMText
 10
5.907536107495531
 20
7.443928435133623
 30
0.0
 40
0.03
 41
0.0
 71
     5
 72
     1
  1
\A1;1.688 ±.030
  7
ROMANS
 73
     1
 44
1.0
  0
HATCH
  5
D80
330
1A
100
AcDbEntity
  8
0
100
AcDbHatch
 10
0.0
 20
0.0
 30
0.0
210
0.0
220
0.0
230
1.0
  2
AR-SAND
 70
     0
 71
     1
 91
        1
 92
       33
 93
        5
 72
     1
 10
5.37112275169785
 20
7.180375906602566
 11
6.635265305120065
 21
7.129174143694726
 72
     2
 10
6.633565566195065
 20
7.087208551969726
 40
0.042
 50
272.319392119
 51
447.680607881
 73
     1
 72
     1
 10
5.105976793370065
 20
6.978297849694726
 11
6.635467654970065
 21
7.040247056494726
 72
     2
 10
5.101565566195065
 20
7.087208551969726
 40
0.104
 50
87.68060788100001
 51
272.319392119
 73
     1
 72
     1
 10
5.357419977124829
 20
7.178833907013657
 11
5.123496133662807
 21
7.188308560911831
 97
        5
330
D03
330
C94
330
BDA
330
BE7
330
CFD
 75
     0
 76
     1
 52
0.0
 41
0.05
 77
     0
 78
     4
 53
37.5
 43
0.0
 44
0.0
 45
-0.0031496679054804
 46
0.0963411884506579
 79
     6
 49
0.0
 49
-0.076
 49
0.0
 49
-0.085
 49
0.0
 49
-0.08125
 53
7.499999999999999
 43
0.0
 44
0.0
 45
0.0884888352633864
 46
0.141107303261487
 79
     6
 49
0.0
 49
-0.041
 49
0.0
 49
-0.0685
 49
0.0
 49
-0.02625
 53
327.4999999999999
 43
-0.0615
 44
0.0
 45
0.1557070930875748
 46
0.0002829526768482
 79
     6
 49
0.0
 49
-0.025
 49
0.0
 49
-0.09
 49
0.0
 49
-0.1175
 53
317.5
 43
-0.0615
 44
0.0
 45
0.1503063302286147
 46
0.0438837782467125
 79
     6
 49
0.0
 49
-0.0125
 49
0.0
 49
-0.059
 49
0.0
 49
-0.0675
 98
        1
 10
0.0
 20
0.0
  0
ENDSEC
  0
SECTION
  2
OBJECTS
  0
DICTIONARY
  5
C
330
0
100
AcDbDictionary
281
     1
  3
ACAD_GROUP
350
D
  3
ACAD_LAYOUT
350
733
  3
ACAD_MLINESTYLE
350
E
  3
ACAD_PLOTSETTINGS
350
734
  3
ACAD_PLOTSTYLENAME
350
731
  3
AcDbVariableDictionary
350
7A0
  3
ASE_INDEX_DICTIONARY
350
D81
  3
SAVER
350
72E
  0
DICTIONARY
  5
D
102
{ACAD_REACTORS
330
C
102
}
330
C
100
AcDbDictionary
281
     1
  0
DICTIONARY
  5
733
102
{ACAD_REACTORS
330
C
102
}
330
C
100
AcDbDictionary
281
     1
  3
Layout1
350
736
  3
Model
350
735
  0
DICTIONARY
  5
E
102
{ACAD_REACTORS
330
C
102
}
330
C
100
AcDbDictionary
281
     1
  3
STANDARD
350
13
  0
DICTIONARY
  5
734
102
{ACAD_REACTORS
330
C
102
}
330
C
100
AcDbDictionary
281
     1
  0
ACDBDICTIONARYWDFLT
  5
731
102
{ACAD_REACTORS
330
C
102
}
330
C
100
AcDbDictionary
281
     1
  3
Normal
350
732
100
AcDbDictionaryWithDefault
340
732
  0
DICTIONARY
  5
7A0
102
{ACAD_REACTORS
330
C
102
}
330
C
100
AcDbDictionary
281
     1
  3
DIMASSOC
350
7A1
  0
DICTIONARY
  5
D81
102
{ACAD_REACTORS
330
C
102
}
330
C
100
AcDbDictionary
281
     1
  3
ASEBlockHierarchyIndexRecord
350
D82
1001
DCO15
1040
1526984881.89
  0
ACAD_PROXY_OBJECT
  5
72E
102
{ACAD_REACTORS
330
C
102
}
330
C
100
AcDbProxyObject
 90
      499
 91
      500
 95
       21
 70
     0
 93
        0
 94
        0
  0
LAYOUT
  5
736
102
{ACAD_REACTORS
330
733
102
}
330
733
100
AcDbPlotSettings
  1

  2
C:\ACAD2000\plotters\DWF ePlot.pc3
  4

  6

 40
0.0
 41
0.0
 42
0.0
 43
0.0
 44
0.0
 45
0.0
 46
0.0
 47
0.0
 48
0.0
 49
0.0
140
0.0
141
0.0
142
1.0
143
1.0
 70
   688
 72
     0
 73
     0
 74
     5
  7

 75
    16
147
1.0
148
0.0
149
0.0
100
AcDbLayout
  1
Layout1
 70
     1
 71
     1
 10
0.0
 20
0.0
 11
12.0
 21
9.0
 12
0.0
 22
0.0
 32
0.0
 14
1.000000000000000E+20
 24
1.000000000000000E+20
 34
1.000000000000000E+20
 15
-1.000000000000000E+20
 25
-1.000000000000000E+20
 35
-1.000000000000000E+20
146
0.0
 13
0.0
 23
0.0
 33
0.0
 16
1.0
 26
0.0
 36
0.0
 17
0.0
 27
1.0
 37
0.0
 76
     0
330
17
  0
LAYOUT
  5
735
102
{ACAD_REACTORS
330
733
102
}
330
733
100
AcDbPlotSettings
  1

  2
Acrobat Distiller
  4
Letter
  6

 40
3.174999952316284
 41
3.174999952316284
 42
3.175003051757812
 43
3.17498779296875
 44
215.8999938964843
 45
279.3999938964843
 46
0.0
 47
0.0
 48
4.798565036552718
 49
6.622441432646283
140
6.83566613170171
141
7.530880016853878
142
1.0
143
0.189497772023973
 70
 11952
 72
     0
 73
     1
 74
     4
  7

 75
     0
147
5.277106898510087
148
-121.883551928439
149
-168.2100123892156
100
AcDbLayout
  1
Model
 70
     1
 71
     0
 10
0.0
 20
0.0
 11
12.0
 21
9.0
 12
0.0
 22
0.0
 32
0.0
 14
0.0
 24
0.0
 34
0.0
 15
0.0
 25
0.0
 35
0.0
146
0.0
 13
0.0
 23
0.0
 33
0.0
 16
1.0
 26
0.0
 36
0.0
 17
0.0
 27
1.0
 37
0.0
 76
     0
330
1A
  0
MLINESTYLE
  5
13
102
{ACAD_REACTORS
330
E
102
}
330
E
100
AcDbMlineStyle
  2
STANDARD
 70
     0
  3

 62
     0
 51
90.0
 52
90.0
 71
     2
 49
0.5
 62
   256
  6
BYLAYER
 49
-0.5
 62
   256
  6
BYLAYER
  0
ACDBPLACEHOLDER
  5
732
102
{ACAD_REACTORS
330
731
102
}
330
731
  0
DICTIONARYVAR
  5
7A1
102
{ACAD_REACTORS
330
7A0
102
}
330
7A0
100
DictionaryVariables
280
     0
  1
1
  0
XRECORD
  5
D82
102
{ACAD_REACTORS
330
D81
102
}
330
D81
100
AcDbXrecord
280
     1
330
49F
  0
ENDSEC
  0
EOF
