  0
SECTION
  2
HEADER
  9
$ACADVER
  1
AC1009
  9
$INSBASE
 10
0.0
 20
0.0
 30
0.0
  9
$EXTMIN
 10
3.8152454461048859
 20
1.166695826364277
 30
0.0
  9
$EXTMAX
 10
4.208530717352347
 20
1.6672063296777
 30
0.0
  9
$LIMMIN
 10
0.0
 20
0.0
  9
$LIMMAX
 10
12.0
 20
9.0
  9
$ORTHOMODE
 70
     0
  9
$REGENMODE
 70
     1
  9
$FILLMODE
 70
     1
  9
$QTEXTMODE
 70
     0
  9
$MIRRTEXT
 70
     1
  9
$DRAGMODE
 70
     2
  9
$LTSCALE
 40
1.0
  9
$OSMODE
 70
    39
  9
$ATTMODE
 70
     1
  9
$TEXTSIZE
 40
0.2
  9
$TRACEWID
 40
0.05
  9
$TEXTSTYLE
  7
STANDARD
  9
$CLAYER
  8
0
  9
$CELTYPE
  6
BYLAYER
  9
$CECOLOR
 62
   256
  9
$DIMSCALE
 40
1.0
  9
$DIMASZ
 40
0.18
  9
$DIMEXO
 40
0.0625
  9
$DIMDLI
 40
0.38
  9
$DIMRND
 40
0.0
  9
$DIMDLE
 40
0.0
  9
$DIMEXE
 40
0.18
  9
$DIMTP
 40
0.0
  9
$DIMTM
 40
0.0
  9
$DIMTXT
 40
0.18
  9
$DIMCEN
 40
0.09
  9
$DIMTSZ
 40
0.0
  9
$DIMTOL
 70
     0
  9
$DIMLIM
 70
     0
  9
$DIMTIH
 70
     1
  9
$DIMTOH
 70
     1
  9
$DIMSE1
 70
     0
  9
$DIMSE2
 70
     0
  9
$DIMTAD
 70
     0
  9
$DIMZIN
 70
     0
  9
$DIMBLK
  1

  9
$DIMASO
 70
     1
  9
$DIMSHO
 70
     1
  9
$DIMPOST
  1

  9
$DIMAPOST
  1

  9
$DIMALT
 70
     1
  9
$DIMALTD
 70
     2
  9
$DIMALTF
 40
25.399999999999999
  9
$DIMLFAC
 40
0.1
  9
$DIMTOFL
 70
     0
  9
$DIMTVP
 40
0.0
  9
$DIMTIX
 70
     0
  9
$DIMSOXD
 70
     0
  9
$DIMSAH
 70
     0
  9
$DIMBLK1
  1

  9
$DIMBLK2
  1

  9
$DIMSTYLE
  2
STANDARD
  9
$DIMCLRD
 70
     0
  9
$DIMCLRE
 70
     0
  9
$DIMCLRT
 70
     0
  9
$DIMTFAC
 40
1.0
  9
$DIMGAP
 40
0.09
  9
$LUNITS
 70
     2
  9
$LUPREC
 70
     3
  9
$SKETCHINC
 40
0.1
  9
$FILLETRAD
 40
0.0
  9
$AUNITS
 70
     0
  9
$AUPREC
 70
     0
  9
$MENU
  1
acad
  9
$ELEVATION
 40
0.0
  9
$PELEVATION
 40
0.0
  9
$THICKNESS
 40
0.0
  9
$LIMCHECK
 70
     0
  9
$BLIPMODE
 70
     0
  9
$CHAMFERA
 40
0.0
  9
$CHAMFERB
 40
0.0
  9
$SKPOLY
 70
     0
  9
$TDCREATE
 40
2450156.492726157
  9
$TDUPDATE
 40
2451982.5642398139
  9
$TDINDWG
 40
0.0075104167
  9
$TDUSRTIMER
 40
0.0075104167
  9
$USRTIMER
 70
     1
  9
$ANGBASE
 50
0.0
  9
$ANGDIR
 70
     0
  9
$PDMODE
 70
     0
  9
$PDSIZE
 40
0.0
  9
$PLINEWID
 40
0.0
  9
$COORDS
 70
     0
  9
$SPLFRAME
 70
     0
  9
$SPLINETYPE
 70
     6
  9
$SPLINESEGS
 70
     8
  9
$ATTDIA
 70
     0
  9
$ATTREQ
 70
     1
  9
$HANDLING
 70
  4097
  9
$HANDSEED
  5
9C
  9
$SURFTAB1
 70
     6
  9
$SURFTAB2
 70
     6
  9
$SURFTYPE
 70
     6
  9
$SURFU
 70
     6
  9
$SURFV
 70
     6
  9
$UCSNAME
  2

  9
$UCSORG
 10
0.0
 20
0.0
 30
0.0
  9
$UCSXDIR
 10
1.0
 20
0.0
 30
0.0
  9
$UCSYDIR
 10
0.0
 20
1.0
 30
0.0
  9
$PUCSNAME
  2

  9
$PUCSORG
 10
0.0
 20
0.0
 30
0.0
  9
$PUCSXDIR
 10
1.0
 20
0.0
 30
0.0
  9
$PUCSYDIR
 10
0.0
 20
1.0
 30
0.0
  9
$USERI1
 70
     0
  9
$USERI2
 70
     0
  9
$USERI3
 70
     0
  9
$USERI4
 70
     0
  9
$USERI5
 70
     0
  9
$USERR1
 40
0.0
  9
$USERR2
 40
0.0
  9
$USERR3
 40
0.0
  9
$USERR4
 40
0.0
  9
$USERR5
 40
0.0
  9
$WORLDVIEW
 70
     1
  9
$SHADEDGE
 70
     3
  9
$SHADEDIF
 70
    70
  9
$TILEMODE
 70
     1
  9
$MAXACTVP
 70
    16
  9
$PLIMCHECK
 70
     0
  9
$PEXTMIN
 10
1.0000000000000000E+020
 20
1.0000000000000000E+020
 30
1.0000000000000000E+020
  9
$PEXTMAX
 10
-1.0000000000000000E+020
 20
-1.0000000000000000E+020
 30
-1.0000000000000000E+020
  9
$PLIMMIN
 10
0.0
 20
0.0
  9
$PLIMMAX
 10
12.0
 20
9.0
  9
$UNITMODE
 70
     0
  9
$VISRETAIN
 70
     0
  9
$PLINEGEN
 70
     0
  9
$PSLTSCALE
 70
     1
  0
ENDSEC
  0
SECTION
  2
TABLES
  0
TABLE
  2
VPORT
 70
     2
  0
VPORT
  2
*ACTIVE
 70
     0
 10
0.0
 20
0.0
 11
1.0
 21
1.0
 12
4.1811909100074942
 22
1.4553895979753231
 13
0.0
 23
0.0
 14
1.0
 24
1.0
 15
0.0
 25
0.0
 16
0.0
 26
0.0
 36
1.0
 17
0.0
 27
0.0
 37
0.0
 40
1.5321637426900581
 41
1.9695550351288049
 42
50.0
 43
0.0
 44
0.0
 50
0.0
 51
0.0
 71
     0
 72
   100
 73
     1
 74
     0
 75
     0
 76
     0
 77
     0
 78
     0
  0
ENDTAB
  0
TABLE
  2
LTYPE
 70
     1
  0
LTYPE
  2
CONTINUOUS
 70
     0
  3
Solid line
 72
    65
 73
     0
 40
0.0
  0
ENDTAB
  0
TABLE
  2
LAYER
 70
     1
  0
LAYER
  2
0
 70
     0
 62
     1
  6
CONTINUOUS
  0
ENDTAB
  0
TABLE
  2
STYLE
 70
     1
  0
STYLE
  2
STANDARD
 70
     0
 40
0.0
 41
1.0
 50
0.0
 71
     0
 42
0.2
  3
txt
  4

  0
ENDTAB
  0
TABLE
  2
VIEW
 70
     0
  0
ENDTAB
  0
TABLE
  2
UCS
 70
     0
  0
ENDTAB
  0
TABLE
  2
APPID
 70
     1
  0
APPID
  2
ACAD
 70
     0
  0
ENDTAB
  0
TABLE
  2
DIMSTYLE
 70
     1
  0
DIMSTYLE
  2
STANDARD
 70
     0
  3

  4

  5

  6

  7

 40
1.0
 41
0.18
 42
0.0625
 43
0.38
 44
0.18
 45
0.0
 46
0.0
 47
0.0
 48
0.0
140
0.18
141
0.09
142
0.0
143
25.399999999999999
144
1.0
145
0.0
146
1.0
147
0.09
 71
     0
 72
     0
 73
     1
 74
     1
 75
     0
 76
     0
 77
     0
 78
     0
170
     0
171
     2
172
     0
173
     0
174
     0
175
     0
176
     0
177
     0
178
     0
  0
ENDTAB
  0
ENDSEC
  0
SECTION
  2
BLOCKS
  0
BLOCK
  8
0
  2
$MODEL_SPACE
 70
     0
 10
0.0
 20
0.0
 30
0.0
  3
$MODEL_SPACE
  1

  0
ENDBLK
  5
9
  8
0
  0
BLOCK
 67
     1
  8
0
  2
$PAPER_SPACE
 70
     0
 10
0.0
 20
0.0
 30
0.0
  3
$PAPER_SPACE
  1

  0
ENDBLK
  5
E
 67
     1
  8
0
  0
ENDSEC
  0
SECTION
  2
ENTITIES
  0
LINE
  5
25
  8
0
 10
4.0044564461048857
 20
1.621786826364277
 30
0.0
 11
4.1486184461048863
 21
1.4776248263642771
 31
0.0
  0
LINE
  5
26
  8
0
 10
4.157505446104885
 20
1.498436826364276
 30
0.0
 11
4.0143194461048841
 21
1.641621826364277
 31
0.0
  0
LINE
  5
27
  8
0
 10
3.8152454461048859
 20
1.4366958263642771
 30
0.0
 11
4.1602464461048863
 21
1.4366958263642771
 31
0.0
  0
LINE
  5
28
  8
0
 10
4.1602464461048863
 20
1.4156958263642769
 30
0.0
 11
3.8862464461048871
 21
1.4156958263642769
 31
0.0
  0
LINE
  5
2F
  8
0
 10
3.8862464461048871
 20
1.4156958263642769
 30
0.0
 11
3.8862464461048849
 21
1.241011794785331
 31
0.0
  0
LINE
  5
30
  8
0
 10
3.8652464461048859
 20
1.4156958263642769
 30
0.0
 11
3.8652464461048859
 21
1.166695826364277
 31
0.0
  0
LINE
  5
33
  8
0
 10
3.8152454461048859
 20
1.4366958263642771
 30
0.0
 11
3.8152454461048859
 21
1.4156958263642769
 31
0.0
  0
LINE
  5
34
  8
0
 10
3.8652464461048859
 20
1.4156958263642769
 30
0.0
 11
3.8152454461048859
 21
1.4156958263642769
 31
0.0
  0
ARC
  5
36
  8
0
 10
3.9521741683897802
 20
1.5536010388011581
 30
0.0
 40
0.1077482927267024
 50
54.776778120229139
 51
94.550557261920204
  0
ARC
  5
37
  8
0
 10
3.9451314461048872
 20
1.6408438263642779
 30
0.0
 40
0.020222
 50
94.270652999999996
 51
290.35488900000001
  0
ARC
  5
38
  8
0
 10
-3.9782174461048858
 20
1.5722028263642771
 30
0.0
 40
0.056099
210
0.0
220
0.0
230
-1.0
 50
62.328468000000008
 51
117.887108
  0
ARC
  5
39
  8
0
 10
4.1602464461048863
 20
1.455695826364277
 30
0.0
 40
0.04
 50
270.0
 51
0.0
  0
ARC
  5
3A
  8
0
 10
-4.1556884461048851
 20
1.4846958263642771
 30
0.0
 40
0.01
210
0.0
220
0.0
230
-1.0
 50
270.0
 51
314.99804699999999
  0
ARC
  5
3B
  8
0
 10
-4.1645764461048849
 20
1.505508826364276
 30
0.0
 40
0.01
210
0.0
220
0.0
230
-1.0
 50
274.97061200000002
 51
315.00003099999992
  0
LINE
  5
3C
  8
0
 10
4.1602464461048863
 20
1.4746958263642771
 30
0.0
 11
4.1556884461048851
 21
1.4746958263642771
 31
0.0
  0
ARC
  5
3D
  8
0
 10
4.1602464461048863
 20
1.455695826364277
 30
0.0
 40
0.019
 50
270.0
 51
90.000015000000005
  0
ARC
  5
3E
  8
0
 10
-4.1602464461048863
 20
1.455695826364277
 30
0.0
 40
0.04
210
0.0
220
0.0
230
-1.0
 50
94.968964
 51
179.99998500000001
  0
LINE
  5
3F
  8
0
 10
4.2002464461048872
 20
1.455695826364277
 30
0.0
 11
4.2002464461048872
 21
1.455695826364277
 31
0.0
  0
LINE
  5
58
  8
0
 10
3.8652464461048859
 20
1.166695826364277
 30
0.0
 11
3.8862464461048858
 21
1.166695826364277
 31
0.0
  0
LINE
  5
59
  8
0
 10
3.8862464461048858
 20
1.2166958263642771
 30
0.0
 11
3.8862464461048858
 21
1.166695826364277
 31
0.0
  0
LINE
  5
5A
  8
0
 10
3.9552464461048862
 20
1.256972215837961
 30
0.0
 11
3.8862464461048858
 21
1.2166958263642771
 31
0.0
  0
LINE
  5
5B
  8
0
 10
3.9552464461048862
 20
1.256972215837961
 30
0.0
 11
3.944659440290792
 21
1.275108225797762
 31
0.0
  0
LINE
  5
5C
  8
0
 10
3.944659440290792
 20
1.275108225797762
 30
0.0
 11
3.8862464461048849
 21
1.241011794785331
 31
0.0
  0
ENDSEC
  0
EOF
