  0
SECTION
  2
HEADER
  9
$ACADVER
  1
AC1009
  9
$INSBASE
 10
0.0
 20
0.0
 30
0.0
  9
$EXTMIN
 10
1.113134066593362
 20
0.6852847334815918
 30
0.0
  9
$EXTMAX
 10
1.3031340665933611
 20
1.135284733481591
 30
0.0
  9
$LIMMIN
 10
0.0
 20
0.0
  9
$LIMMAX
 10
8.0
 20
10.0
  9
$ORTHOMODE
 70
     0
  9
$REGENMODE
 70
     1
  9
$FILLMODE
 70
     1
  9
$QTEXTMODE
 70
     0
  9
$MIRRTEXT
 70
     1
  9
$DRAGMODE
 70
     2
  9
$LTSCALE
 40
0.6518518519
  9
$OSMODE
 70
    39
  9
$ATTMODE
 70
     1
  9
$TEXTSIZE
 40
0.2
  9
$TRACEWID
 40
0.05
  9
$TEXTSTYLE
  7
STANDARD
  9
$CLAYER
  8
0
  9
$CELTYPE
  6
BYLAYER
  9
$CECOLOR
 62
   256
  9
$DIMSCALE
 40
1.0
  9
$DIMASZ
 40
0.1875
  9
$DIMEXO
 40
0.0740740741
  9
$DIMDLI
 40
0.4503703704000001
  9
$DIMRND
 40
0.0
  9
$DIMDLE
 40
0.0
  9
$DIMEXE
 40
0.2133333333
  9
$DIMTP
 40
0.0
  9
$DIMTM
 40
0.0
  9
$DIMTXT
 40
0.1339285714
  9
$DIMCEN
 40
0.1066666667
  9
$DIMTSZ
 40
0.0
  9
$DIMTOL
 70
     0
  9
$DIMLIM
 70
     0
  9
$DIMTIH
 70
     1
  9
$DIMTOH
 70
     1
  9
$DIMSE1
 70
     0
  9
$DIMSE2
 70
     0
  9
$DIMTAD
 70
     0
  9
$DIMZIN
 70
     0
  9
$DIMBLK
  1

  9
$DIMASO
 70
     1
  9
$DIMSHO
 70
     1
  9
$DIMPOST
  1

  9
$DIMAPOST
  1

  9
$DIMALT
 70
     0
  9
$DIMALTD
 70
     2
  9
$DIMALTF
 40
25.399999999999999
  9
$DIMLFAC
 40
1.0
  9
$DIMTOFL
 70
     0
  9
$DIMTVP
 40
0.0
  9
$DIMTIX
 70
     0
  9
$DIMSOXD
 70
     0
  9
$DIMSAH
 70
     0
  9
$DIMBLK1
  1

  9
$DIMBLK2
  1

  9
$DIMSTYLE
  2
STANDARD
  9
$DIMCLRD
 70
     0
  9
$DIMCLRE
 70
     0
  9
$DIMCLRT
 70
     0
  9
$DIMTFAC
 40
1.0
  9
$DIMGAP
 40
0.09
  9
$LUNITS
 70
     2
  9
$LUPREC
 70
     4
  9
$SKETCHINC
 40
0.1
  9
$FILLETRAD
 40
0.0
  9
$AUNITS
 70
     0
  9
$AUPREC
 70
     0
  9
$MENU
  1
.
  9
$ELEVATION
 40
0.0
  9
$PELEVATION
 40
0.0
  9
$THICKNESS
 40
0.0
  9
$LIMCHECK
 70
     0
  9
$BLIPMODE
 70
     0
  9
$CHAMFERA
 40
0.0
  9
$CHAMFERB
 40
0.0
  9
$SKPOLY
 70
     0
  9
$TDCREATE
 40
2451949.62198669
  9
$TDUPDATE
 40
2451982.5586774312
  9
$TDINDWG
 40
0.1909550926
  9
$TDUSRTIMER
 40
0.1909550926
  9
$USRTIMER
 70
     1
  9
$ANGBASE
 50
0.0
  9
$ANGDIR
 70
     0
  9
$PDMODE
 70
     0
  9
$PDSIZE
 40
0.0
  9
$PLINEWID
 40
0.0
  9
$COORDS
 70
     0
  9
$SPLFRAME
 70
     0
  9
$SPLINETYPE
 70
     6
  9
$SPLINESEGS
 70
     8
  9
$ATTDIA
 70
     0
  9
$ATTREQ
 70
     1
  9
$HANDLING
 70
  4097
  9
$HANDSEED
  5
9D
  9
$SURFTAB1
 70
     6
  9
$SURFTAB2
 70
     6
  9
$SURFTYPE
 70
     6
  9
$SURFU
 70
     6
  9
$SURFV
 70
     6
  9
$UCSNAME
  2

  9
$UCSORG
 10
0.0
 20
0.0
 30
0.0
  9
$UCSXDIR
 10
1.0
 20
0.0
 30
0.0
  9
$UCSYDIR
 10
0.0
 20
1.0
 30
0.0
  9
$PUCSNAME
  2

  9
$PUCSORG
 10
0.0
 20
0.0
 30
0.0
  9
$PUCSXDIR
 10
1.0
 20
0.0
 30
0.0
  9
$PUCSYDIR
 10
0.0
 20
1.0
 30
0.0
  9
$USERI1
 70
     0
  9
$USERI2
 70
     0
  9
$USERI3
 70
     0
  9
$USERI4
 70
     0
  9
$USERI5
 70
     0
  9
$USERR1
 40
0.0
  9
$USERR2
 40
0.0
  9
$USERR3
 40
0.0
  9
$USERR4
 40
0.0
  9
$USERR5
 40
0.0
  9
$WORLDVIEW
 70
     1
  9
$SHADEDGE
 70
     3
  9
$SHADEDIF
 70
    70
  9
$TILEMODE
 70
     1
  9
$MAXACTVP
 70
    48
  9
$PLIMCHECK
 70
     0
  9
$PEXTMIN
 10
1.0000000000000000E+020
 20
1.0000000000000000E+020
 30
1.0000000000000000E+020
  9
$PEXTMAX
 10
-1.0000000000000000E+020
 20
-1.0000000000000000E+020
 30
-1.0000000000000000E+020
  9
$PLIMMIN
 10
0.0
 20
0.0
  9
$PLIMMAX
 10
12.0
 20
9.0
  9
$UNITMODE
 70
     0
  9
$VISRETAIN
 70
     1
  9
$PLINEGEN
 70
     0
  9
$PSLTSCALE
 70
     1
  0
ENDSEC
  0
SECTION
  2
TABLES
  0
TABLE
  2
VPORT
 70
     2
  0
VPORT
  2
*ACTIVE
 70
     0
 10
0.0
 20
0.0
 11
1.0
 21
1.0
 12
1.552788614390475
 22
0.8525641569072162
 13
0.0
 23
0.0
 14
1.0
 24
1.0
 15
0.0
 25
0.0
 16
0.0
 26
0.0
 36
1.0
 17
0.0
 27
0.0
 37
0.0
 40
1.6666666828268339
 41
2.0809399477806778
 42
50.0
 43
0.0
 44
0.0
 50
0.0
 51
0.0
 71
     0
 72
   100
 73
     1
 74
     0
 75
     0
 76
     0
 77
     0
 78
     0
  0
ENDTAB
  0
TABLE
  2
LTYPE
 70
     1
  0
LTYPE
  2
CONTINUOUS
 70
     0
  3
Solid line
 72
    65
 73
     0
 40
0.0
  0
ENDTAB
  0
TABLE
  2
LAYER
 70
     1
  0
LAYER
  2
0
 70
     0
 62
     1
  6
CONTINUOUS
  0
ENDTAB
  0
TABLE
  2
STYLE
 70
     1
  0
STYLE
  2
STANDARD
 70
     0
 40
0.0
 41
1.0
 50
0.0
 71
     0
 42
0.2
  3
txt
  4

  0
ENDTAB
  0
TABLE
  2
VIEW
 70
     0
  0
ENDTAB
  0
TABLE
  2
UCS
 70
     0
  0
ENDTAB
  0
TABLE
  2
APPID
 70
     1
  0
APPID
  2
ACAD
 70
     0
  0
ENDTAB
  0
TABLE
  2
DIMSTYLE
 70
     1
  0
DIMSTYLE
  2
STANDARD
 70
     0
  3

  4

  5

  6

  7

 40
1.0
 41
0.18
 42
0.0625
 43
0.38
 44
0.18
 45
0.0
 46
0.0
 47
0.0
 48
0.0
140
0.18
141
0.09
142
0.0
143
25.399999999999999
144
1.0
145
0.0
146
1.0
147
0.09
 71
     0
 72
     0
 73
     1
 74
     1
 75
     0
 76
     0
 77
     0
 78
     0
170
     0
171
     2
172
     0
173
     0
174
     0
175
     0
176
     0
177
     0
178
     0
  0
ENDTAB
  0
ENDSEC
  0
SECTION
  2
BLOCKS
  0
BLOCK
  8
0
  2
$MODEL_SPACE
 70
     0
 10
0.0
 20
0.0
 30
0.0
  3
$MODEL_SPACE
  1

  0
ENDBLK
  5
9
  8
0
  0
BLOCK
 67
     1
  8
0
  2
$PAPER_SPACE
 70
     0
 10
0.0
 20
0.0
 30
0.0
  3
$PAPER_SPACE
  1

  0
ENDBLK
  5
E
 67
     1
  8
0
  0
ENDSEC
  0
SECTION
  2
ENTITIES
  0
LINE
  5
24
  8
0
 10
1.1931340665933621
 20
0.9902847334815919
 30
0.0
 11
1.1931340665933621
 21
1.125284733481591
 31
0.0
  0
LINE
  5
25
  8
0
 10
1.1981340665933611
 20
0.9902847334815919
 30
0.0
 11
1.1981340665933611
 21
1.125284733481591
 31
0.0
  0
LINE
  5
26
  8
0
 10
1.2181340665933611
 20
0.9902847334815919
 30
0.0
 11
1.2181340665933611
 21
1.125284733481591
 31
0.0
  0
LINE
  5
27
  8
0
 10
1.223134066593361
 20
0.9902847334815919
 30
0.0
 11
1.223134066593361
 21
1.125284733481591
 31
0.0
  0
LINE
  5
28
  8
0
 10
1.2281340665933611
 20
0.9902847334815919
 30
0.0
 11
1.2281340665933611
 21
1.125284733481591
 31
0.0
  0
LINE
  5
29
  8
0
 10
1.233134066593361
 20
0.9902847334815919
 30
0.0
 11
1.234978614049149
 21
1.125284733481591
 31
0.0
  0
LINE
  5
2A
  8
0
 10
1.238134066593362
 20
0.9902847334815919
 30
0.0
 11
1.243306477292613
 21
1.125284733481591
 31
0.0
  0
LINE
  5
2B
  8
0
 10
1.243134066593361
 20
0.9902847334815919
 30
0.0
 11
1.253527146260861
 21
1.125284733481591
 31
0.0
  0
LINE
  5
2C
  8
0
 10
1.2481340665933609
 20
0.9902847334815919
 30
0.0
 11
1.262914735848305
 21
1.125284733481591
 31
0.0
  0
LINE
  5
2D
  8
0
 10
1.253134066593361
 20
0.9902847334815919
 30
0.0
 11
1.2722270135041389
 21
1.125284733481591
 31
0.0
  0
LINE
  5
2E
  8
0
 10
1.258134066593362
 20
0.9902847334815919
 30
0.0
 11
1.2835148288503471
 21
1.125284733481591
 31
0.0
  0
LINE
  5
2F
  8
0
 10
1.292303073251162
 20
1.125284733481591
 30
0.0
 11
1.258134066593362
 21
0.9902847334815919
 31
0.0
  0
LINE
  5
30
  8
0
 10
1.2131340665933621
 20
0.9902847334815919
 30
0.0
 11
1.2131340665933621
 21
1.135284733481591
 31
0.0
  0
LINE
  5
31
  8
0
 10
1.203134066593361
 20
1.135284733481591
 30
0.0
 11
1.203134066593361
 21
0.9902847334815919
 31
0.0
  0
LINE
  5
32
  8
0
 10
1.258134066593362
 20
0.9902847334815919
 30
0.0
 11
1.3031340665933611
 21
1.125284733481591
 31
0.0
  0
LINE
  5
33
  8
0
 10
1.158134066593361
 20
0.9902847334815919
 30
0.0
 11
1.113134066593362
 21
1.125284733481591
 31
0.0
  0
LINE
  5
34
  8
0
 10
1.1239650599355611
 20
1.125284733481591
 30
0.0
 11
1.158134066593361
 21
0.9902847334815919
 31
0.0
  0
LINE
  5
35
  8
0
 10
1.158134066593361
 20
0.9902847334815919
 30
0.0
 11
1.132753304336376
 21
1.125284733481591
 31
0.0
  0
LINE
  5
36
  8
0
 10
1.1631340665933609
 20
0.9902847334815919
 30
0.0
 11
1.144041119682583
 21
1.125284733481591
 31
0.0
  0
LINE
  5
37
  8
0
 10
1.1681340665933619
 20
0.9902847334815919
 30
0.0
 11
1.153353397338418
 21
1.125284733481591
 31
0.0
  0
LINE
  5
38
  8
0
 10
1.1731340665933621
 20
0.9902847334815919
 30
0.0
 11
1.162740986925862
 21
1.125284733481591
 31
0.0
  0
LINE
  5
39
  8
0
 10
1.1781340665933611
 20
0.9902847334815919
 30
0.0
 11
1.1729616558941101
 21
1.125284733481591
 31
0.0
  0
LINE
  5
3A
  8
0
 10
1.183134066593361
 20
0.9902847334815919
 30
0.0
 11
1.1812895191375741
 21
1.125284733481591
 31
0.0
  0
LINE
  5
3B
  8
0
 10
1.188134066593362
 20
0.9902847334815919
 30
0.0
 11
1.188134066593362
 21
1.125284733481591
 31
0.0
  0
LINE
  5
3C
  8
0
 10
1.113134066593362
 20
1.125284733481591
 30
0.0
 11
1.158134066593361
 21
0.9902847334815919
 31
0.0
  0
LINE
  5
3D
  8
0
 10
1.1381340665933619
 20
0.7750389982915915
 30
0.0
 11
1.1931340665933621
 21
0.7432847334815916
 31
0.0
  0
LINE
  5
3E
  8
0
 10
1.1931340665933621
 20
0.7663787442515915
 30
0.0
 11
1.1481340665933619
 21
0.7923595063615916
 31
0.0
  0
LINE
  5
3F
  8
0
 10
1.3016340665933619
 20
0.9652847334815914
 30
0.0
 11
1.1146340665933621
 21
0.9652847334815914
 31
0.0
  0
LINE
  5
40
  8
0
 10
1.1381340665933619
 20
0.8520389982915915
 30
0.0
 11
1.1931340665933621
 21
0.8202847334815913
 31
0.0
  0
LINE
  5
41
  8
0
 10
1.1931340665933621
 20
0.8433787442515917
 30
0.0
 11
1.1481340665933619
 21
0.8693595063615917
 31
0.0
  0
ARC
  5
42
  8
0
 10
1.1831340665933621
 20
0.9252847334815914
 30
0.0
 40
0.01
 50
0.0
 51
90.0
  0
ARC
  5
43
  8
0
 10
1.143134066593362
 20
0.8606992523315915
 30
0.0
 40
0.01
 50
60.0
 51
239.99999999999989
  0
ARC
  5
44
  8
0
 10
1.143134066593362
 20
0.7836992523315915
 30
0.0
 40
0.01
 50
60.0
 51
239.99999999999989
  0
LINE
  5
45
  8
0
 10
1.158134066593361
 20
0.9902847334815919
 30
0.0
 11
1.1146340665933621
 21
0.9902847334815919
 31
0.0
  0
LINE
  5
46
  8
0
 10
1.1146340665933621
 20
0.9352847334815916
 30
0.0
 11
1.1831340665933621
 21
0.9352847334815916
 31
0.0
  0
LINE
  5
47
  8
0
 10
1.1146340665933621
 20
0.9902847334815919
 30
0.0
 11
1.1146340665933621
 21
0.9352847334815916
 31
0.0
  0
LINE
  5
48
  8
0
 10
1.2231340665933621
 20
0.7002847334815919
 30
0.0
 11
1.2231340665933621
 21
0.9252847334815914
 31
0.0
  0
LINE
  5
49
  8
0
 10
1.1931340665933621
 20
0.9252847334815914
 30
0.0
 11
1.1931340665933621
 21
0.7002847334815919
 31
0.0
  0
ARC
  5
4A
  8
0
 10
1.208134066593362
 20
0.7002847334815919
 30
0.0
 40
0.015
 50
180.0
 51
0.0
  0
LINE
  5
4B
  8
0
 10
1.268134066593362
 20
0.8693595063615917
 30
0.0
 11
1.2231340665933621
 21
0.8433787442515917
 31
0.0
  0
LINE
  5
4C
  8
0
 10
1.2231340665933621
 20
0.7432847334815916
 30
0.0
 11
1.278134066593362
 21
0.7750389982915915
 31
0.0
  0
LINE
  5
4D
  8
0
 10
1.268134066593362
 20
0.7923595063615916
 30
0.0
 11
1.2231340665933621
 21
0.7663787442515915
 31
0.0
  0
LINE
  5
4E
  8
0
 10
1.2231340665933621
 20
0.8202847334815913
 30
0.0
 11
1.278134066593362
 21
0.8520389982915915
 31
0.0
  0
ARC
  5
4F
  8
0
 10
1.2731340665933619
 20
0.8606992523315915
 30
0.0
 40
0.01
 50
300.0
 51
119.9999999999999
  0
ARC
  5
50
  8
0
 10
1.2731340665933619
 20
0.7836992523315915
 30
0.0
 40
0.01
 50
300.0
 51
119.9999999999999
  0
LINE
  5
51
  8
0
 10
1.3016340665933619
 20
0.9902847334815919
 30
0.0
 11
1.258134066593362
 21
0.9902847334815919
 31
0.0
  0
LINE
  5
52
  8
0
 10
1.2331340665933621
 20
0.9352847334815916
 30
0.0
 11
1.3016340665933619
 21
0.9352847334815916
 31
0.0
  0
ARC
  5
53
  8
0
 10
1.2331340665933621
 20
0.9252847334815914
 30
0.0
 40
0.01
 50
90.0
 51
180.0
  0
LINE
  5
54
  8
0
 10
1.3016340665933619
 20
0.9352847334815916
 30
0.0
 11
1.3016340665933619
 21
0.9902847334815919
 31
0.0
  0
LINE
  5
55
  8
0
 10
1.2131340665933621
 20
1.135284733481591
 30
0.0
 11
1.203134066593361
 21
1.135284733481591
 31
0.0
  0
ENDSEC
  0
EOF
