  0
SECTION
  2
HEADER
  9
$ACADVER
  1
AC1009
  9
$INSBASE
 10
0.0
 20
0.0
 30
0.0
  9
$EXTMIN
 10
8.4869792169295568
 20
5.6356272349043088
 30
0.0
  9
$EXTMAX
 10
8.7869792169295575
 20
6.156141028110242
 30
0.0
  9
$LIMMIN
 10
0.0
 20
0.0
  9
$LIMMAX
 10
12.0
 20
9.0
  9
$ORTHOMODE
 70
     0
  9
$REGENMODE
 70
     1
  9
$FILLMODE
 70
     1
  9
$QTEXTMODE
 70
     0
  9
$MIRRTEXT
 70
     1
  9
$DRAGMODE
 70
     2
  9
$LTSCALE
 40
1.0
  9
$OSMODE
 70
    39
  9
$ATTMODE
 70
     1
  9
$TEXTSIZE
 40
0.2
  9
$TRACEWID
 40
0.05
  9
$TEXTSTYLE
  7
STANDARD
  9
$CLAYER
  8
0
  9
$CELTYPE
  6
BYLAYER
  9
$CECOLOR
 62
   256
  9
$DIMSCALE
 40
1.0
  9
$DIMASZ
 40
0.18
  9
$DIMEXO
 40
0.0625
  9
$DIMDLI
 40
0.38
  9
$DIMRND
 40
0.0
  9
$DIMDLE
 40
0.0
  9
$DIMEXE
 40
0.18
  9
$DIMTP
 40
0.0
  9
$DIMTM
 40
0.0
  9
$DIMTXT
 40
0.18
  9
$DIMCEN
 40
0.09
  9
$DIMTSZ
 40
0.0
  9
$DIMTOL
 70
     0
  9
$DIMLIM
 70
     0
  9
$DIMTIH
 70
     1
  9
$DIMTOH
 70
     1
  9
$DIMSE1
 70
     0
  9
$DIMSE2
 70
     0
  9
$DIMTAD
 70
     0
  9
$DIMZIN
 70
     0
  9
$DIMBLK
  1

  9
$DIMASO
 70
     1
  9
$DIMSHO
 70
     1
  9
$DIMPOST
  1

  9
$DIMAPOST
  1

  9
$DIMALT
 70
     0
  9
$DIMALTD
 70
     2
  9
$DIMALTF
 40
25.399999999999999
  9
$DIMLFAC
 40
1.0
  9
$DIMTOFL
 70
     0
  9
$DIMTVP
 40
0.0
  9
$DIMTIX
 70
     0
  9
$DIMSOXD
 70
     0
  9
$DIMSAH
 70
     0
  9
$DIMBLK1
  1

  9
$DIMBLK2
  1

  9
$DIMSTYLE
  2
STANDARD
  9
$DIMCLRD
 70
     0
  9
$DIMCLRE
 70
     0
  9
$DIMCLRT
 70
     0
  9
$DIMTFAC
 40
1.0
  9
$DIMGAP
 40
0.09
  9
$LUNITS
 70
     2
  9
$LUPREC
 70
     4
  9
$SKETCHINC
 40
0.1
  9
$FILLETRAD
 40
0.5
  9
$AUNITS
 70
     0
  9
$AUPREC
 70
     0
  9
$MENU
  1
.
  9
$ELEVATION
 40
0.0
  9
$PELEVATION
 40
0.0
  9
$THICKNESS
 40
0.0
  9
$LIMCHECK
 70
     0
  9
$BLIPMODE
 70
     0
  9
$CHAMFERA
 40
0.5
  9
$CHAMFERB
 40
0.5
  9
$SKPOLY
 70
     0
  9
$TDCREATE
 40
2451969.4014964122
  9
$TDUPDATE
 40
2451982.5514913192
  9
$TDINDWG
 40
0.1659289352
  9
$TDUSRTIMER
 40
0.1659289352
  9
$USRTIMER
 70
     1
  9
$ANGBASE
 50
0.0
  9
$ANGDIR
 70
     0
  9
$PDMODE
 70
     0
  9
$PDSIZE
 40
0.0
  9
$PLINEWID
 40
0.0
  9
$COORDS
 70
     0
  9
$SPLFRAME
 70
     0
  9
$SPLINETYPE
 70
     6
  9
$SPLINESEGS
 70
     8
  9
$ATTDIA
 70
     0
  9
$ATTREQ
 70
     1
  9
$HANDLING
 70
  4097
  9
$HANDSEED
  5
8E
  9
$SURFTAB1
 70
     6
  9
$SURFTAB2
 70
     6
  9
$SURFTYPE
 70
     6
  9
$SURFU
 70
     6
  9
$SURFV
 70
     6
  9
$UCSNAME
  2

  9
$UCSORG
 10
0.0
 20
0.0
 30
0.0
  9
$UCSXDIR
 10
1.0
 20
0.0
 30
0.0
  9
$UCSYDIR
 10
0.0
 20
1.0
 30
0.0
  9
$PUCSNAME
  2

  9
$PUCSORG
 10
0.0
 20
0.0
 30
0.0
  9
$PUCSXDIR
 10
1.0
 20
0.0
 30
0.0
  9
$PUCSYDIR
 10
0.0
 20
1.0
 30
0.0
  9
$USERI1
 70
     0
  9
$USERI2
 70
     0
  9
$USERI3
 70
     0
  9
$USERI4
 70
     0
  9
$USERI5
 70
     0
  9
$USERR1
 40
0.0
  9
$USERR2
 40
0.0
  9
$USERR3
 40
0.0
  9
$USERR4
 40
0.0
  9
$USERR5
 40
0.0
  9
$WORLDVIEW
 70
     1
  9
$SHADEDGE
 70
     3
  9
$SHADEDIF
 70
    70
  9
$TILEMODE
 70
     1
  9
$MAXACTVP
 70
    48
  9
$PLIMCHECK
 70
     0
  9
$PEXTMIN
 10
1.0000000000000000E+020
 20
1.0000000000000000E+020
 30
1.0000000000000000E+020
  9
$PEXTMAX
 10
-1.0000000000000000E+020
 20
-1.0000000000000000E+020
 30
-1.0000000000000000E+020
  9
$PLIMMIN
 10
0.0
 20
0.0
  9
$PLIMMAX
 10
12.0
 20
9.0
  9
$UNITMODE
 70
     0
  9
$VISRETAIN
 70
     1
  9
$PLINEGEN
 70
     0
  9
$PSLTSCALE
 70
     1
  0
ENDSEC
  0
SECTION
  2
TABLES
  0
TABLE
  2
VPORT
 70
     2
  0
VPORT
  2
*ACTIVE
 70
     0
 10
0.0
 20
0.0
 11
1.0
 21
1.0
 12
8.7815749937058136
 22
5.8975924068136987
 13
0.0
 23
0.0
 14
0.5
 24
0.5
 15
0.5
 25
0.5
 16
0.0
 26
0.0
 36
1.0
 17
0.0
 27
0.0
 37
0.0
 40
1.0760109980273009
 41
1.9695550351288049
 42
50.0
 43
0.0
 44
0.0
 50
0.0
 51
0.0
 71
     0
 72
   100
 73
     1
 74
     2
 75
     0
 76
     0
 77
     0
 78
     0
  0
ENDTAB
  0
TABLE
  2
LTYPE
 70
     1
  0
LTYPE
  2
CONTINUOUS
 70
     0
  3
Solid line
 72
    65
 73
     0
 40
0.0
  0
ENDTAB
  0
TABLE
  2
LAYER
 70
     1
  0
LAYER
  2
0
 70
     0
 62
     1
  6
CONTINUOUS
  0
ENDTAB
  0
TABLE
  2
STYLE
 70
     1
  0
STYLE
  2
STANDARD
 70
     0
 40
0.0
 41
1.0
 50
0.0
 71
     0
 42
0.2
  3
txt
  4

  0
ENDTAB
  0
TABLE
  2
VIEW
 70
     0
  0
ENDTAB
  0
TABLE
  2
UCS
 70
     0
  0
ENDTAB
  0
TABLE
  2
APPID
 70
     1
  0
APPID
  2
ACAD
 70
     0
  0
ENDTAB
  0
TABLE
  2
DIMSTYLE
 70
     1
  0
DIMSTYLE
  2
STANDARD
 70
     0
  3

  4

  5

  6

  7

 40
1.0
 41
0.18
 42
0.0625
 43
0.38
 44
0.18
 45
0.0
 46
0.0
 47
0.0
 48
0.0
140
0.18
141
0.09
142
0.0
143
25.399999999999999
144
1.0
145
0.0
146
1.0
147
0.09
 71
     0
 72
     0
 73
     1
 74
     1
 75
     0
 76
     0
 77
     0
 78
     0
170
     0
171
     2
172
     0
173
     0
174
     0
175
     0
176
     0
177
     0
178
     0
  0
ENDTAB
  0
ENDSEC
  0
SECTION
  2
BLOCKS
  0
BLOCK
  8
0
  2
$MODEL_SPACE
 70
     0
 10
0.0
 20
0.0
 30
0.0
  3
$MODEL_SPACE
  1

  0
ENDBLK
  5
9
  8
0
  0
BLOCK
 67
     1
  8
0
  2
$PAPER_SPACE
 70
     0
 10
0.0
 20
0.0
 30
0.0
  3
$PAPER_SPACE
  1

  0
ENDBLK
  5
E
 67
     1
  8
0
  0
ENDSEC
  0
SECTION
  2
ENTITIES
  0
CIRCLE
  5
24
  8
0
  6
CONTINUOUS
 62
     1
 10
8.6369792169295572
 20
6.0061410281102416
 30
0.0
 40
0.13
  0
CIRCLE
  5
25
  8
0
  6
CONTINUOUS
 62
     1
 10
8.6369792169295572
 20
6.0061410281102416
 30
0.0
 40
0.15
  0
LINE
  5
26
  8
0
  6
CONTINUOUS
 62
     1
 10
8.6494792169295582
 20
5.6416627688102423
 30
0.0
 11
8.6494792169295582
 21
5.8566627688102431
 31
0.0
  0
LINE
  5
27
  8
0
  6
CONTINUOUS
 62
     1
 10
8.6244792169295579
 20
5.8566627688102431
 30
0.0
 11
8.6244792169295579
 21
5.6416627688102423
 31
0.0
  0
LINE
  5
28
  8
0
  6
CONTINUOUS
 62
     1
 10
8.691479216929558
 20
5.6966849828102433
 30
0.0
 11
8.6839792169295578
 21
5.7096753639102431
 31
0.0
  0
LINE
  5
29
  8
0
  6
CONTINUOUS
 62
     1
 10
8.6771490899295571
 20
5.7115054909102421
 30
0.0
 11
8.6494792169295582
 21
5.6955302823102416
 31
0.0
  0
LINE
  5
2A
  8
0
  6
CONTINUOUS
 62
     1
 10
8.6494792169295582
 20
5.6666627688102418
 30
0.0
 11
8.6896490899295582
 21
5.6898548558102418
 31
0.0
  0
ARC
  5
2B
  8
0
  6
CONTINUOUS
 62
     1
 10
8.6871490899295551
 20
5.694184982810242
 30
0.0
 40
0.005
 50
300.0
 51
29.999999999999979
  0
ARC
  5
2C
  8
0
  6
CONTINUOUS
 62
     1
 10
8.6796490899295584
 20
5.7071753639102418
 30
0.0
 40
0.005
 50
29.999999999999979
 51
120.0
  0
ARC
  5
2D
  8
0
  6
CONTINUOUS
 62
     1
 10
8.6444792169295575
 20
5.6416627688102423
 30
0.0
 40
0.005
 50
270.0
 51
0.0
  0
LINE
  5
2E
  8
0
  6
CONTINUOUS
 62
     1
 10
8.5843093439295561
 20
5.6898548558102418
 30
0.0
 11
8.6244792169295579
 21
5.6666627688102418
 31
0.0
  0
LINE
  5
2F
  8
0
  6
CONTINUOUS
 62
     1
 10
8.6244792169295579
 20
5.6955302823102416
 30
0.0
 11
8.5968093439295572
 21
5.7115054909102421
 31
0.0
  0
LINE
  5
30
  8
0
  6
CONTINUOUS
 62
     1
 10
8.5899792169295583
 20
5.7096753639102431
 30
0.0
 11
8.5824792169295581
 21
5.6966849828102433
 31
0.0
  0
ARC
  5
31
  8
0
  6
CONTINUOUS
 62
     1
 10
8.5868093439295574
 20
5.694184982810242
 30
0.0
 40
0.005
 50
149.99999999999989
 51
239.99999999999989
  0
ARC
  5
32
  8
0
  6
CONTINUOUS
 62
     1
 10
8.5943093439295577
 20
5.7071753639102418
 30
0.0
 40
0.005
 50
60.0
 51
149.99999999999989
  0
ARC
  5
33
  8
0
  6
CONTINUOUS
 62
     1
 10
8.6294792169295569
 20
5.6416627688102423
 30
0.0
 40
0.005
 50
180.0
 51
270.0
  0
LINE
  5
34
  8
0
  6
CONTINUOUS
 62
     1
 10
8.6294792169295569
 20
5.6366627688102433
 30
0.0
 11
8.6444792169295575
 21
5.6366627688102433
 31
0.0
  0
LINE
  5
35
  8
0
  6
CONTINUOUS
 62
     1
 10
8.691479216929558
 20
5.7816849828102423
 30
0.0
 11
8.6839792169295578
 21
5.7946753639102431
 31
0.0
  0
LINE
  5
36
  8
0
  6
CONTINUOUS
 62
     1
 10
8.6771490899295571
 20
5.796505490910242
 30
0.0
 11
8.6494792169295582
 21
5.7805302823102434
 31
0.0
  0
ARC
  5
37
  8
0
  6
CONTINUOUS
 62
     1
 10
8.6871490899295551
 20
5.779184982810242
 30
0.0
 40
0.005
 50
300.0
 51
29.999999999999979
  0
ARC
  5
38
  8
0
  6
CONTINUOUS
 62
     1
 10
8.6796490899295584
 20
5.7921753639102418
 30
0.0
 40
0.005
 50
29.999999999999979
 51
120.0
  0
LINE
  5
39
  8
0
  6
CONTINUOUS
 62
     1
 10
8.6494792169295582
 20
5.7516627688102426
 30
0.0
 11
8.6896490899295582
 21
5.7748548558102426
 31
0.0
  0
LINE
  5
3A
  8
0
  6
CONTINUOUS
 62
     1
 10
8.6244792169295579
 20
5.7805302823102434
 30
0.0
 11
8.5968093439295572
 21
5.796505490910242
 31
0.0
  0
LINE
  5
3B
  8
0
  6
CONTINUOUS
 62
     1
 10
8.5899792169295583
 20
5.7946753639102431
 30
0.0
 11
8.5824792169295581
 21
5.7816849828102423
 31
0.0
  0
ARC
  5
3C
  8
0
  6
CONTINUOUS
 62
     1
 10
8.5868093439295574
 20
5.779184982810242
 30
0.0
 40
0.005
 50
149.99999999999989
 51
239.99999999999989
  0
ARC
  5
3D
  8
0
  6
CONTINUOUS
 62
     1
 10
8.5943093439295577
 20
5.7921753639102418
 30
0.0
 40
0.005
 50
60.0
 51
149.99999999999989
  0
LINE
  5
3E
  8
0
  6
CONTINUOUS
 62
     1
 10
8.5843093439295561
 20
5.7748548558102426
 30
0.0
 11
8.6244792169295579
 21
5.7516627688102426
 31
0.0
  0
ARC
  5
3F
  8
0
  6
CONTINUOUS
 62
     1
 10
8.6369792169295572
 20
6.0061410281102416
 30
0.0
 40
0.145
 50
0.0
 51
180.0
  0
LINE
  5
40
  8
0
  6
CONTINUOUS
 62
     1
 10
8.4869792169295568
 20
6.0061410281102416
 30
0.0
 11
8.4919792169295576
 21
6.0061410281102416
 31
0.0
  0
LINE
  5
41
  8
0
  6
CONTINUOUS
 62
     1
 10
8.7819792169295567
 20
6.0061410281102416
 30
0.0
 11
8.7869792169295575
 21
6.0061410281102416
 31
0.0
  0
ENDSEC
  0
EOF
